  0
SECTION
  2
HEADER
  9
$ACADVER
  1
AC1015
  9
$ACADMAINTVER
 70
    14
  9
$DWGCODEPAGE
  3
ANSI_932
  9
$INSBASE
 10
0.0
 20
0.0
 30
0.0
  9
$EXTMIN
 10
-295.2071057386545
 20
-18.98349599999999
 30
0.0
  9
$EXTMAX
 10
-23.43074199999999
 20
229.66396
 30
0.0
  9
$LIMMIN
 10
0.0
 20
0.0
  9
$LIMMAX
 10
12.0
 20
9.0
  9
$ORTHOMODE
 70
     0
  9
$REGENMODE
 70
     1
  9
$FILLMODE
 70
     1
  9
$QTEXTMODE
 70
     0
  9
$MIRRTEXT
 70
     1
  9
$LTSCALE
 40
1.0
  9
$ATTMODE
 70
     1
  9
$TEXTSIZE
 40
0.2
  9
$TRACEWID
 40
0.05
  9
$TEXTSTYLE
  7
STANDARD
  9
$CLAYER
  8
0
  9
$CELTYPE
  6
CONTINUOUS
  9
$CECOLOR
 62
   256
  9
$CELTSCALE
 40
1.0
  9
$DISPSILH
 70
     0
  9
$DIMSCALE
 40
1.0
  9
$DIMASZ
 40
0.18
  9
$DIMEXO
 40
0.0625
  9
$DIMDLI
 40
0.38
  9
$DIMRND
 40
0.0
  9
$DIMDLE
 40
0.0
  9
$DIMEXE
 40
0.18
  9
$DIMTP
 40
0.0
  9
$DIMTM
 40
0.0
  9
$DIMTXT
 40
0.18
  9
$DIMCEN
 40
0.09
  9
$DIMTSZ
 40
0.0
  9
$DIMTOL
 70
     0
  9
$DIMLIM
 70
     0
  9
$DIMTIH
 70
     1
  9
$DIMTOH
 70
     1
  9
$DIMSE1
 70
     0
  9
$DIMSE2
 70
     0
  9
$DIMTAD
 70
     0
  9
$DIMZIN
 70
     0
  9
$DIMBLK
  1

  9
$DIMASO
 70
     1
  9
$DIMSHO
 70
     1
  9
$DIMPOST
  1

  9
$DIMAPOST
  1

  9
$DIMALT
 70
     0
  9
$DIMALTD
 70
     2
  9
$DIMALTF
 40
25.4
  9
$DIMLFAC
 40
1.0
  9
$DIMTOFL
 70
     0
  9
$DIMTVP
 40
0.0
  9
$DIMTIX
 70
     0
  9
$DIMSOXD
 70
     0
  9
$DIMSAH
 70
     0
  9
$DIMBLK1
  1

  9
$DIMBLK2
  1

  9
$DIMSTYLE
  2
STANDARD
  9
$DIMCLRD
 70
     0
  9
$DIMCLRE
 70
     0
  9
$DIMCLRT
 70
     0
  9
$DIMTFAC
 40
1.0
  9
$DIMGAP
 40
0.09
  9
$DIMJUST
 70
     0
  9
$DIMSD1
 70
     0
  9
$DIMSD2
 70
     0
  9
$DIMTOLJ
 70
     1
  9
$DIMTZIN
 70
     0
  9
$DIMALTZ
 70
     0
  9
$DIMALTTZ
 70
     0
  9
$DIMUPT
 70
     0
  9
$DIMDEC
 70
     4
  9
$DIMTDEC
 70
     4
  9
$DIMALTU
 70
     2
  9
$DIMALTTD
 70
     2
  9
$DIMTXSTY
  7
STANDARD
  9
$DIMAUNIT
 70
     0
  9
$DIMADEC
 70
     0
  9
$DIMALTRND
 40
0.0
  9
$DIMAZIN
 70
     0
  9
$DIMDSEP
 70
    46
  9
$DIMATFIT
 70
     3
  9
$DIMFRAC
 70
     0
  9
$DIMLDRBLK
  1

  9
$DIMLUNIT
 70
     2
  9
$DIMLWD
 70
    -2
  9
$DIMLWE
 70
    -2
  9
$DIMTMOVE
 70
     0
  9
$LUNITS
 70
     2
  9
$LUPREC
 70
     4
  9
$SKETCHINC
 40
0.1
  9
$FILLETRAD
 40
0.0
  9
$AUNITS
 70
     0
  9
$AUPREC
 70
     0
  9
$MENU
  1
.
  9
$ELEVATION
 40
0.0
  9
$PELEVATION
 40
0.0
  9
$THICKNESS
 40
0.0
  9
$LIMCHECK
 70
     0
  9
$CHAMFERA
 40
0.0
  9
$CHAMFERB
 40
0.0
  9
$CHAMFERC
 40
0.0
  9
$CHAMFERD
 40
0.0
  9
$SKPOLY
 70
     0
  9
$TDCREATE
 40
2452877.627853183
  9
$TDUCREATE
 40
2452877.252853183
  9
$TDUPDATE
 40
2453040.736231736
  9
$TDUUPDATE
 40
2453040.361231736
  9
$TDINDWG
 40
0.0087421296
  9
$TDUSRTIMER
 40
0.0087420139
  9
$USRTIMER
 70
     1
  9
$ANGBASE
 50
0.0
  9
$ANGDIR
 70
     0
  9
$PDMODE
 70
     0
  9
$PDSIZE
 40
0.0
  9
$PLINEWID
 40
0.0
  9
$SPLFRAME
 70
     0
  9
$SPLINETYPE
 70
     6
  9
$SPLINESEGS
 70
     8
  9
$HANDSEED
  5
73E
  9
$SURFTAB1
 70
     6
  9
$SURFTAB2
 70
     6
  9
$SURFTYPE
 70
     6
  9
$SURFU
 70
     6
  9
$SURFV
 70
     6
  9
$UCSBASE
  2

  9
$UCSNAME
  2

  9
$UCSORG
 10
0.0
 20
0.0
 30
0.0
  9
$UCSXDIR
 10
1.0
 20
0.0
 30
0.0
  9
$UCSYDIR
 10
0.0
 20
1.0
 30
0.0
  9
$UCSORTHOREF
  2

  9
$UCSORTHOVIEW
 70
     0
  9
$UCSORGTOP
 10
0.0
 20
0.0
 30
0.0
  9
$UCSORGBOTTOM
 10
0.0
 20
0.0
 30
0.0
  9
$UCSORGLEFT
 10
0.0
 20
0.0
 30
0.0
  9
$UCSORGRIGHT
 10
0.0
 20
0.0
 30
0.0
  9
$UCSORGFRONT
 10
0.0
 20
0.0
 30
0.0
  9
$UCSORGBACK
 10
0.0
 20
0.0
 30
0.0
  9
$PUCSBASE
  2

  9
$PUCSNAME
  2

  9
$PUCSORG
 10
0.0
 20
0.0
 30
0.0
  9
$PUCSXDIR
 10
1.0
 20
0.0
 30
0.0
  9
$PUCSYDIR
 10
0.0
 20
1.0
 30
0.0
  9
$PUCSORTHOREF
  2

  9
$PUCSORTHOVIEW
 70
     0
  9
$PUCSORGTOP
 10
0.0
 20
0.0
 30
0.0
  9
$PUCSORGBOTTOM
 10
0.0
 20
0.0
 30
0.0
  9
$PUCSORGLEFT
 10
0.0
 20
0.0
 30
0.0
  9
$PUCSORGRIGHT
 10
0.0
 20
0.0
 30
0.0
  9
$PUCSORGFRONT
 10
0.0
 20
0.0
 30
0.0
  9
$PUCSORGBACK
 10
0.0
 20
0.0
 30
0.0
  9
$USERI1
 70
     0
  9
$USERI2
 70
     0
  9
$USERI3
 70
     0
  9
$USERI4
 70
     0
  9
$USERI5
 70
     0
  9
$USERR1
 40
0.0
  9
$USERR2
 40
0.0
  9
$USERR3
 40
0.0
  9
$USERR4
 40
0.0
  9
$USERR5
 40
0.0
  9
$WORLDVIEW
 70
     1
  9
$SHADEDGE
 70
     3
  9
$SHADEDIF
 70
    70
  9
$TILEMODE
 70
     1
  9
$MAXACTVP
 70
    64
  9
$PINSBASE
 10
0.0
 20
0.0
 30
0.0
  9
$PLIMCHECK
 70
     0
  9
$PEXTMIN
 10
1.000000000000000E+20
 20
1.000000000000000E+20
 30
1.000000000000000E+20
  9
$PEXTMAX
 10
-1.000000000000000E+20
 20
-1.000000000000000E+20
 30
-1.000000000000000E+20
  9
$PLIMMIN
 10
0.0
 20
0.0
  9
$PLIMMAX
 10
12.0
 20
9.0
  9
$UNITMODE
 70
     0
  9
$VISRETAIN
 70
     1
  9
$PLINEGEN
 70
     0
  9
$PSLTSCALE
 70
     1
  9
$TREEDEPTH
 70
  3020
  9
$CMLSTYLE
  2
Standard
  9
$CMLJUST
 70
     0
  9
$CMLSCALE
 40
1.0
  9
$PROXYGRAPHICS
 70
     1
  9
$MEASUREMENT
 70
     0
  9
$CELWEIGHT
370
    -1
  9
$ENDCAPS
280
     0
  9
$JOINSTYLE
280
     0
  9
$LWDISPLAY
290
     0
  9
$INSUNITS
 70
     0
  9
$HYPERLINKBASE
  1

  9
$STYLESHEET
  1

  9
$XEDIT
290
     1
  9
$CEPSNTYPE
380
     0
  9
$PSTYLEMODE
290
     1
  9
$FINGERPRINTGUID
  2
{A1F89B37-B1A0-4A7A-9A41-2AD637E07D7B}
  9
$VERSIONGUID
  2
{92DA6248-E098-4B01-837D-EFC6F06F6318}
  9
$EXTNAMES
290
     1
  9
$PSVPSCALE
 40
0.0
  9
$OLESTARTUP
290
     0
  0
ENDSEC
  0
SECTION
  2
CLASSES
  0
CLASS
  1
ACDBDICTIONARYWDFLT
  2
AcDbDictionaryWithDefault
  3
AutoCAD 2000
 90
        0
280
     0
281
     0
  0
CLASS
  1
ACDBPLACEHOLDER
  2
AcDbPlaceHolder
  3
AutoCAD 2000
 90
        0
280
     0
281
     0
  0
CLASS
  1
LAYOUT
  2
AcDbLayout
  3
AutoCAD 2000
 90
        0
280
     0
281
     0
  0
CLASS
  1
AMGSETTINGSOBJ
  2
AmgSettingsObj
  3
"AcadM|Product Description: AutoCAD Mechanical 2000|Company: Autodesk"
 90
        0
280
     0
281
     0
  0
CLASS
  1
ACME_DOCUMENT
  2
AcMeDbDoc
  3
AcMeServices
 90
        0
280
     0
281
     0
  0
CLASS
  1
ACMESCOPE
  2
AcMeScope
  3
AcMeServices
 90
        0
280
     0
281
     0
  0
CLASS
  1
ACMECOMMANDHISTORY
  2
AcMeCommandHistory
  3
AcMeServices
 90
        0
280
     0
281
     0
  0
CLASS
  1
ACIMSYSVARMAN
  2
AcImSysVarManager
  3
AcMeServices
 90
        0
280
     0
281
     0
  0
CLASS
  1
ACIMREALSYSVAR
  2
AcImRealSysVar
  3
AcMeServices
 90
        0
280
     0
281
     0
  0
CLASS
  1
ACIMINTSYSVAR
  2
AcImIntSysVar
  3
AcMeServices
 90
        0
280
     0
281
     0
  0
CLASS
  1
ACMEDRAWINGMAN
  2
AcMeDrawingMan
  3
AcMeServices
 90
        0
280
     0
281
     0
  0
CLASS
  1
ACMEVIEW
  2
AcMeView
  3
AcMeServices
 90
        0
280
     0
281
     0
  0
CLASS
  1
ACDBENTITYCACHE
  2
AcMeEntityCache
  3
AcMeServices
 90
        0
280
     0
281
     0
  0
CLASS
  1
GSMANAGER
  2
AcMeGSManager
  3
AcMeServices
 90
        0
280
     0
281
     0
  0
CLASS
  1
AMDTINTERNALREACTOR
  2
AmdtInternalReactor
  3
AcMeServices
 90
        0
280
     0
281
     0
  0
CLASS
  1
ACMESTATEMGR
  2
AcMeStateMgr
  3
AcMeServices
 90
        0
280
     0
281
     0
  0
CLASS
  1
ACGREFMASTER
  2
AcGrefMaster
  3
AcAttribServices
 90
        0
280
     0
281
     0
  0
CLASS
  1
ACME_DATABASE
  2
AcMeDbDatabase
  3
AcMeServices
 90
        0
280
     0
281
     0
  0
CLASS
  1
ACRFINSADJUSTERMGR
  2
AcRfInsAdjusterMgr
  3
AcMeServices
 90
        0
280
     0
281
     0
  0
CLASS
  1
ACGREFACADMASTER
  2
AcGrefacadMaster
  3
AcGrefServices
 90
        0
280
     0
281
     0
  0
CLASS
  1
AMIMASTER
  2
AmiMaster
  3
AmiServices
 90
        0
280
     0
281
     0
  0
CLASS
  1
ACMDATADICTIONARY
  2
AcmDataDictionary
  3
"AcmSymBB|Product Description: AutoCAD Mechanical 2000|Company: Autodesk"
 90
        0
280
     0
281
     0
  0
CLASS
  1
ACMDATAENTRYBLOCK
  2
AcmDataEntryBlock
  3
"AcmSymBB|Product Description: AutoCAD Mechanical 2000|Company: Autodesk"
 90
        0
280
     0
281
     0
  0
CLASS
  1
ACIMSTRSYSVAR
  2
AcImStrSysVar
  3
AcMeServices
 90
        0
280
     0
281
     0
  0
CLASS
  1
ACMSTANDARDANSI
  2
AcmStandardANSI
  3
"Amdt_StdImp|Product Description: AutoCAD Mechanical 2000|Company: Autodesk"
 90
        0
280
     0
281
     0
  0
CLASS
  1
AMGOBJPROPCFG
  2
AmgObjPropCfg
  3
"AmgLay|Product Description: AutoCAD Mechanical 2000|Company: Autodesk"
 90
        1
280
     0
281
     0
  0
CLASS
  1
ACMSURFSTANDARDANSI
  2
AcmSurfTextStdANSI
  3
"Amdt_StdImp|Product Description: AutoCAD Mechanical 2000|Company: Autodesk"
 90
        0
280
     0
281
     0
  0
CLASS
  1
ACMFCFSTANDARDANSI
  2
AcmFCFStdANSI
  3
"Amdt_StdImp|Product Description: AutoCAD Mechanical 2000|Company: Autodesk"
 90
        0
280
     0
281
     0
  0
CLASS
  1
ACMWELDSTANDARDANSI
  2
AcmWeldingStdANSI
  3
"Amdt_StdImp|Product Description: AutoCAD Mechanical 2000|Company: Autodesk"
 90
        0
280
     0
281
     0
  0
CLASS
  1
ACMIDSTANDARDANSI
  2
AcmIdStdANSI
  3
"Amdt_StdImp|Product Description: AutoCAD Mechanical 2000|Company: Autodesk"
 90
        0
280
     0
281
     0
  0
CLASS
  1
ACMDATUMSTANDARDANSI
  2
AcmDatumStdANSI
  3
"Amdt_StdImp|Product Description: AutoCAD Mechanical 2000|Company: Autodesk"
 90
        0
280
     0
281
     0
  0
CLASS
  1
ACMBOMSTANDARDANSI
  2
AcmBOMStdANSI
  3
"Amdt_StdImp|Product Description: AutoCAD Mechanical 2000|Company: Autodesk"
 90
        0
280
     0
281
     0
  0
CLASS
  1
ACMDETAILSTANDARDANSI
  2
AmdtDetailSymStdANSI
  3
"Amdt_StdImp|Product Description: AutoCAD Mechanical 2000|Company: Autodesk"
 90
        0
280
     0
281
     0
  0
CLASS
  1
ACMSECTIONSTANDARDANSI
  2
AmdtSectionSymStdANSI
  3
"Amdt_StdImp|Product Description: AutoCAD Mechanical 2000|Company: Autodesk"
 90
        0
280
     0
281
     0
  0
CLASS
  1
ACMCENTERLINESTANDARDANSI
  2
AmdtCenterLineStdANSI
  3
"Amdt_StdImp|Product Description: AutoCAD Mechanical 2000|Company: Autodesk"
 90
        0
280
     0
281
     0
  0
CLASS
  1
ACMNOTESTANDARDANSI
  2
AmdtNoteStdANSI
  3
"Amdt_StdImp|Product Description: AutoCAD Mechanical 2000|Company: Autodesk"
 90
        0
280
     0
281
     0
  0
CLASS
  1
ACAMGLAYSTD
  2
AcAmgLayStd
  3
"AcAmgLayStd|Product Description: AutoCAD Mechanical 2000|Company: Autodesk"
 90
        0
280
     0
281
     0
  0
CLASS
  1
ACAMGDIMSTD
  2
AcAmgDimStd
  3
"AcAmgDimStd|Product Description: AutoCAD Mechanical 2000|Company: Autodesk"
 90
        0
280
     0
281
     0
  0
CLASS
  1
ACAMGHOLECHARTSTDANSI
  2
AcAmgHoleChartStdANSI
  3
ACMSYMBB_MODULE_NAME
 90
        0
280
     0
281
     0
  0
CLASS
  1
ACAMGTITLESTD
  2
AcAmgTitleStd
  3
"TITLEAPP"
 90
        0
280
     0
281
     0
  0
CLASS
  1
ACAMGFILTERDAT
  2
AcAmgFilterDat
  3
"AcadM|Product Description: AutoCAD Mechanical 2000|Company: Autodesk"
 90
        0
280
     0
281
     0
  0
CLASS
  1
LAYER_INDEX
  2
AcDbLayerIndex
  3
AutoCAD 2000
 90
        0
280
     0
281
     0
  0
CLASS
  1
IDBUFFER
  2
AcDbIdBuffer
  3
AutoCAD 2000
 90
        0
280
     0
281
     0
  0
CLASS
  1
DICTIONARYVAR
  2
AcDbDictionaryVar
  3
AutoCAD 2000
 90
        0
280
     0
281
     0
  0
ENDSEC
  0
SECTION
  2
TABLES
  0
TABLE
  2
VPORT
  5
6B8
330
0
100
AcDbSymbolTable
 70
     4
  0
VPORT
  5
73D
330
6B8
100
AcDbSymbolTableRecord
100
AcDbViewportTableRecord
  2
*Active
 70
     0
 10
0.0
 20
0.0
 11
1.0
 21
1.0
 12
-70.48135962556415
 22
137.3911452232438
 13
0.0
 23
0.0
 14
1.0
 24
1.0
 15
0.0
 25
0.0
 16
0.0
 26
0.0
 36
1.0
 17
0.0
 27
0.0
 37
0.0
 40
280.6977936871857
 41
1.280701754385964
 42
50.0
 43
0.0
 44
0.0
 50
0.0
 51
0.0
 71
     0
 72
   100
 73
     1
 74
     1
 75
     0
 76
     0
 77
     0
 78
     0
281
     0
 65
     1
110
0.0
120
0.0
130
0.0
111
1.0
121
0.0
131
0.0
112
0.0
122
1.0
132
0.0
 79
     0
146
0.0
  0
ENDTAB
  0
TABLE
  2
LTYPE
  5
6B5
330
0
100
AcDbSymbolTable
 70
    19
  0
LTYPE
  5
6C3
330
6B5
100
AcDbSymbolTableRecord
100
AcDbLinetypeTableRecord
  2
ByBlock
 70
     0
  3

 72
    65
 73
     0
 40
0.0
  0
LTYPE
  5
6C4
330
6B5
100
AcDbSymbolTableRecord
100
AcDbLinetypeTableRecord
  2
ByLayer
 70
     0
  3

 72
    65
 73
     0
 40
0.0
  0
LTYPE
  5
6C5
330
6B5
100
AcDbSymbolTableRecord
100
AcDbLinetypeTableRecord
  2
CONTINUOUS
 70
     0
  3
Solid line
 72
    65
 73
     0
 40
0.0
  0
LTYPE
  5
6D3
330
6B5
100
AcDbSymbolTableRecord
100
AcDbLinetypeTableRecord
  2
DASHED
 70
     0
  3
__ __ __ __ __ __ __ __ __ __ __ __ __ __ __
 72
    65
 73
     2
 40
3.5
 49
2.0
 74
     0
 49
-1.5
 74
     0
  0
LTYPE
  5
6D4
330
6B5
100
AcDbSymbolTableRecord
100
AcDbLinetypeTableRecord
  2
CENTER
 70
     0
  3
____ _ ____ _ ____ _ ____ _ ____ _ ____ _ ____
 72
    65
 73
     4
 40
17.5
 49
13.0
 74
     0
 49
-1.5
 74
     0
 49
1.5
 74
     0
 49
-1.5
 74
     0
  0
LTYPE
  5
6D5
330
6B5
100
AcDbSymbolTableRecord
100
AcDbLinetypeTableRecord
  2
PHANTOM
 70
     0
  3
_____ _ _ _____ _ _ _____ _ _ _____ _ _ ____  
 72
    65
 73
     6
 40
15.5
 49
8.0
 74
     0
 49
-1.5
 74
     0
 49
1.5
 74
     0
 49
-1.5
 74
     0
 49
1.5
 74
     0
 49
-1.5
 74
     0
  0
LTYPE
  5
6D6
330
6B5
100
AcDbSymbolTableRecord
100
AcDbLinetypeTableRecord
  2
DOT
 70
     0
  3
. . . . . . . . . . . . . . . . . . . . . . . .
 72
    65
 73
     2
 40
0.25
 49
0.0
 74
     0
 49
-0.25
 74
     0
  0
LTYPE
  5
6D7
330
6B5
100
AcDbSymbolTableRecord
100
AcDbLinetypeTableRecord
  2
AM_ISO02W050
 70
     0
  3
__ __ __ __ __ __ __ __ __ __ __ __ __ __ __
 72
    65
 73
     2
 40
7.5
 49
6.0
 74
     0
 49
-1.5
 74
     0
  0
LTYPE
  5
6D8
330
6B5
100
AcDbSymbolTableRecord
100
AcDbLinetypeTableRecord
  2
AM_ISO08W050
 70
     0
  3
____ . ____ . ____ . ____ . ____ . ____ . ____
 72
    65
 73
     4
 40
18.0
 49
12.0
 74
     0
 49
-1.5
 74
     0
 49
3.0
 74
     0
 49
-1.5
 74
     0
  0
LTYPE
  5
6D9
330
6B5
100
AcDbSymbolTableRecord
100
AcDbLinetypeTableRecord
  2
AM_ISO09W050
 70
     0
  3
_____ . . _____ . . _____ . . ____ .. ____
 72
    65
 73
     6
 40
22.5
 49
12.0
 74
     0
 49
-1.5
 74
     0
 49
3.0
 74
     0
 49
-1.5
 74
     0
 49
3.0
 74
     0
 49
-1.5
 74
     0
  0
LTYPE
  5
6DA
330
6B5
100
AcDbSymbolTableRecord
100
AcDbLinetypeTableRecord
  2
AMCONSTR
 70
     0
  3
_______________________
 72
    65
 73
     2
 40
9999.0
 49
9999.0
 74
     0
 49
0.0
 74
     0
  0
LTYPE
  5
6DB
330
6B5
100
AcDbSymbolTableRecord
100
AcDbLinetypeTableRecord
  2
AM_ISO08W050X2
 70
     0
  3
__ . __ . __ . __ . __ . __
 72
    65
 73
     4
 40
9.0
 49
6.0
 74
     0
 49
-0.75
 74
     0
 49
1.5
 74
     0
 49
-0.75
 74
     0
  0
LTYPE
  5
6DC
330
6B5
100
AcDbSymbolTableRecord
100
AcDbLinetypeTableRecord
  2
AM_ISO02W050X2
 70
     0
  3
 _ _ _ _ _ _ _ _ _ _ _ _
 72
    65
 73
     2
 40
3.75
 49
3.0
 74
     0
 49
-0.75
 74
     0
  0
LTYPE
  5
6DD
330
6B5
100
AcDbSymbolTableRecord
100
AcDbLinetypeTableRecord
  2
AMZIGZAG
 70
     0
  3
/\/-/\/-/\/-/\/-/\/-/\/
 72
    65
 73
     2
 40
11.00009999999999
 49
0.0001
 74
     0
 49
-11.0
 74
     0
  0
LTYPE
  5
6DE
330
6B5
100
AcDbSymbolTableRecord
100
AcDbLinetypeTableRecord
  2
HIDDEN
 70
     0
  3
Hidden __ __ __ __ __ __ __ __ __ __ __ __ __ _
 72
    65
 73
     2
 40
0.375
 49
0.25
 74
     0
 49
-0.125
 74
     0
  0
LTYPE
  5
6DF
330
6B5
100
AcDbSymbolTableRecord
100
AcDbLinetypeTableRecord
  2
PHANTOM2
 70
     0
  3
Phantom (.5x) ___ _ _ ___ _ _ ___ _ _ ___ _ _
 72
    65
 73
     6
 40
1.25
 49
0.625
 74
     0
 49
-0.125
 74
     0
 49
0.125
 74
     0
 49
-0.125
 74
     0
 49
0.125
 74
     0
 49
-0.125
 74
     0
  0
LTYPE
  5
6E0
330
6B5
100
AcDbSymbolTableRecord
100
AcDbLinetypeTableRecord
  2
CENTER2
 70
     0
  3
Center (.5x) ___ _ ___ _ ___ _ ___ _ ___ _ ___
 72
    65
 73
     4
 40
1.125
 49
0.75
 74
     0
 49
-0.125
 74
     0
 49
0.125
 74
     0
 49
-0.125
 74
     0
  0
LTYPE
  5
6E1
330
6B5
100
AcDbSymbolTableRecord
100
AcDbLinetypeTableRecord
  2
HIDDEN2
 70
     0
  3
Hidden (.5x) _ _ _ _ _ _ _ _ _ _ _ _ _ _ _ _ _
 72
    65
 73
     2
 40
0.1875
 49
0.125
 74
     0
 49
-0.0625
 74
     0
  0
LTYPE
  5
6E2
330
6B5
100
AcDbSymbolTableRecord
100
AcDbLinetypeTableRecord
  2
AMZIGZAG2
 70
     0
  3
/\/-/\/-/\/-/\/-/\/-/\/
 72
    65
 73
     2
 40
0.4401
 49
0.0001
 74
     0
 49
-0.4400000000000002
 74
     0
  0
LTYPE
  5
6E3
330
6B5
100
AcDbSymbolTableRecord
100
AcDbLinetypeTableRecord
  2
ACANSTGB
 70
     0
  3
__ . . __ . .
 72
    65
 73
     6
 40
0.35433070866
 49
0.15748031496
 74
     0
 49
-0.03937007874
 74
     0
 49
0.03937007874
 74
     0
 49
-0.03937007874
 74
     0
 49
0.03937007874
 74
     0
 49
-0.03937007874
 74
     0
  0
LTYPE
  5
6E4
330
6B5
100
AcDbSymbolTableRecord
100
AcDbLinetypeTableRecord
  2
ACANSTGL
 70
     0
  3
_ _ _ _ _
 72
    65
 73
     2
 40
0.11811023622
 49
0.07874015748
 74
     0
 49
-0.03937007874
 74
     0
  0
ENDTAB
  0
TABLE
  2
LAYER
  5
6B2
330
0
100
AcDbSymbolTable
 70
     1
  0
LAYER
  5
6C0
330
6B2
100
AcDbSymbolTableRecord
100
AcDbLayerTableRecord
  2
0
 70
     0
 62
     7
  6
CONTINUOUS
370
    -3
390
6BF
  0
ENDTAB
  0
TABLE
  2
STYLE
  5
6B3
330
0
100
AcDbSymbolTable
 70
     4
  0
STYLE
  5
6C1
330
6B3
100
AcDbSymbolTableRecord
100
AcDbTextStyleTableRecord
  2
STANDARD
 70
     0
 40
0.0
 41
1.0
 50
0.0
 71
     0
 42
0.2
  3
txt
  4
BIGFONT
  0
STYLE
  5
6E5
330
6B3
100
AcDbSymbolTableRecord
100
AcDbTextStyleTableRecord
  2

 70
     1
 40
0.0
 41
1.0
 50
0.0
 71
     0
 42
0.2
  3
ltypeshp.shx
  4

  0
STYLE
  5
6E6
330
6B3
100
AcDbSymbolTableRecord
100
AcDbTextStyleTableRecord
  2
ACANSTS
 70
     0
 40
1.0
 41
1.0
 50
0.0
 71
     0
 42
0.2
  3
romans.shx
  4
extfont.shx
  0
STYLE
  5
6E7
330
6B3
100
AcDbSymbolTableRecord
100
AcDbTextStyleTableRecord
  2
ACANSGDT
 70
     0
 40
0.0
 41
1.0
 50
0.0
 71
     0
 42
0.2
  3
amgdtans.shx
  4

  0
ENDTAB
  0
TABLE
  2
VIEW
  5
6B6
330
0
100
AcDbSymbolTable
 70
     0
  0
ENDTAB
  0
TABLE
  2
UCS
  5
6B7
330
0
100
AcDbSymbolTable
 70
     0
  0
ENDTAB
  0
TABLE
  2
APPID
  5
6B9
330
0
100
AcDbSymbolTable
 70
     4
  0
APPID
  5
6C2
330
6B9
100
AcDbSymbolTableRecord
100
AcDbRegAppTableRecord
  2
ACAD
 70
     0
  0
APPID
  5
6E8
330
6B9
100
AcDbSymbolTableRecord
100
AcDbRegAppTableRecord
  2
MCAD_NO_VIS
 70
     0
  0
APPID
  5
6E9
330
6B9
100
AcDbSymbolTableRecord
100
AcDbRegAppTableRecord
  2
ACAD_TEMP_GRAPHIC
 70
     0
  0
APPID
  5
6EA
330
6B9
100
AcDbSymbolTableRecord
100
AcDbRegAppTableRecord
  2
ACATTRIBSERVICES
 70
     0
  0
ENDTAB
  0
TABLE
  2
DIMSTYLE
  5
6BA
330
0
100
AcDbSymbolTable
 70
     7
100
AcDbDimStyleTable
 71
     0
  0
DIMSTYLE
105
6EB
330
6BA
100
AcDbSymbolTableRecord
100
AcDbDimStyleTableRecord
  2
STANDARD
 70
     0
279
     2
340
6C1
  0
DIMSTYLE
105
6EC
330
6BA
100
AcDbSymbolTableRecord
100
AcDbDimStyleTableRecord
  2
AM_ANSI
 70
     0
  4
mm
 41
0.1
 42
0.05
 43
0.5
 44
0.1
 47
0.1
 48
0.1
 78
     7
140
0.12
141
0.0
146
0.71
147
0.06
176
   256
177
   256
178
     2
279
     2
340
6C1
  0
DIMSTYLE
105
6ED
330
6BA
100
AcDbSymbolTableRecord
100
AcDbDimStyleTableRecord
  2
AM_ANSI$3
 70
     0
  4
mm
 41
0.1
 42
0.05
 43
0.5
 44
0.1
 47
0.1
 48
0.1
 78
     7
140
0.12
141
0.0
146
0.71
147
0.06
176
   256
177
   256
178
     2
279
     2
340
6C1
  0
DIMSTYLE
105
6EE
330
6BA
100
AcDbSymbolTableRecord
100
AcDbDimStyleTableRecord
  2
AM_ANSI$4
 70
     0
  4
mm
 41
0.1
 42
0.05
 43
0.5
 44
0.1
 47
0.1
 48
0.1
 78
     7
140
0.12
141
0.0
146
0.71
147
0.06
176
   256
177
   256
178
     2
279
     2
340
6C1
  0
DIMSTYLE
105
6EF
330
6BA
100
AcDbSymbolTableRecord
100
AcDbDimStyleTableRecord
  2
AM_ANSI$7
 70
     0
  4
mm
 41
0.1
 42
0.05
 43
0.5
 44
0.1
 47
0.1
 48
0.1
 78
     7
140
0.24
141
0.0
146
0.71
147
0.06
176
   256
177
   256
178
     2
279
     2
340
6C1
  0
DIMSTYLE
105
6F0
330
6BA
100
AcDbSymbolTableRecord
100
AcDbDimStyleTableRecord
  2
AM_ANSI$SF
 70
     0
  4
mm
 41
0.1
 42
0.05
 43
0.5
 44
0.1
 47
0.1
 48
0.1
 75
     1
 76
     1
 78
     7
140
0.12
141
0.0
146
0.71
147
0.06
176
   256
177
   256
178
     2
279
     2
340
6C1
  0
DIMSTYLE
105
6F1
330
6BA
100
AcDbSymbolTableRecord
100
AcDbDimStyleTableRecord
  2
AM_ANSI$SH
 70
     0
  4
mm
 41
0.1
 42
0.05
 43
0.5
 44
0.1
 47
0.1
 48
0.1
 75
     1
 76
     1
 78
     7
140
0.12
141
0.0
146
0.71
147
0.06
173
     1
176
   256
177
   256
178
     2
279
     2
340
6C1
  0
ENDTAB
  0
TABLE
  2
BLOCK_RECORD
  5
6B1
330
0
100
AcDbSymbolTable
 70
     3
  0
BLOCK_RECORD
  5
6CE
102
{ACAD_XDICTIONARY
360
736
102
}
330
6B1
100
AcDbSymbolTableRecord
100
AcDbBlockTableRecord
  2
*Model_Space
340
6D1
  0
BLOCK_RECORD
  5
6CA
330
6B1
100
AcDbSymbolTableRecord
100
AcDbBlockTableRecord
  2
*Paper_Space
340
6CD
  0
BLOCK_RECORD
  5
6F8
330
6B1
100
AcDbSymbolTableRecord
100
AcDbBlockTableRecord
  2
$MODEL_SPACE
340
0
  0
BLOCK_RECORD
  5
6FA
330
6B1
100
AcDbSymbolTableRecord
100
AcDbBlockTableRecord
  2
$PAPER_SPACE
340
0
  0
BLOCK_RECORD
  5
6FC
330
6B1
100
AcDbSymbolTableRecord
100
AcDbBlockTableRecord
  2
GENAXEH
340
0
  0
ENDTAB
  0
ENDSEC
  0
SECTION
  2
BLOCKS
  0
BLOCK
  5
6CF
330
6CE
100
AcDbEntity
  8
0
100
AcDbBlockBegin
  2
*Model_Space
 70
     0
 10
0.0
 20
0.0
 30
0.0
  3
*Model_Space
  1

  0
ENDBLK
  5
6D0
330
6CE
100
AcDbEntity
  8
0
100
AcDbBlockEnd
  0
BLOCK
  5
6CB
330
6CA
100
AcDbEntity
 67
     1
  8
0
100
AcDbBlockBegin
  2
*Paper_Space
 70
     0
 10
0.0
 20
0.0
 30
0.0
  3
*Paper_Space
  1

  0
ENDBLK
  5
6CC
330
6CA
100
AcDbEntity
 67
     1
  8
0
100
AcDbBlockEnd
  0
BLOCK
  5
6F9
330
6F8
100
AcDbEntity
  8
0
100
AcDbBlockBegin
  2
$MODEL_SPACE
 70
     0
 10
0.0
 20
0.0
 30
0.0
  3
$MODEL_SPACE
  1

  0
ENDBLK
  5
20
330
6F8
100
AcDbEntity
  8
0
100
AcDbBlockEnd
  0
BLOCK
  5
6FB
330
6FA
100
AcDbEntity
  8
0
100
AcDbBlockBegin
  2
$PAPER_SPACE
 70
     0
 10
0.0
 20
0.0
 30
0.0
  3
$PAPER_SPACE
  1

  0
ENDBLK
  5
1C
330
6FA
100
AcDbEntity
  8
0
100
AcDbBlockEnd
  0
BLOCK
  5
6FD
330
6FC
100
AcDbEntity
  8
0
100
AcDbBlockBegin
  2
GENAXEH
 70
     0
 10
0.0
 20
0.0
 30
0.0
  3
GENAXEH
  1

  0
LINE
  5
698
330
6FC
100
AcDbEntity
  8
0
100
AcDbLine
 10
-1.0
 20
0.0
 30
0.0
 11
1.0
 21
0.0
 31
0.0
  0
ENDBLK
  5
69A
330
6FC
100
AcDbEntity
  8
0
100
AcDbBlockEnd
  0
ENDSEC
  0
SECTION
  2
ENTITIES
  0
LINE
  5
133
330
6CE
100
AcDbEntity
  8
0
  6
Continuous
 62
     7
100
AcDbLine
 10
-47.43074
 20
20.34023499999999
 30
0.0
 11
-72.43074
 21
20.34023499999999
 31
0.0
  0
LINE
  5
134
330
6CE
100
AcDbEntity
  8
0
  6
Continuous
 62
     7
100
AcDbLine
 10
-47.43074
 20
190.3402299999999
 30
0.0
 11
-72.43074
 21
190.3402299999999
 31
0.0
  0
LINE
  5
135
330
6CE
100
AcDbEntity
  8
0
  6
Continuous
 62
     7
100
AcDbLine
 10
-72.43074
 20
20.34023499999999
 30
0.0
 11
-72.43074
 21
190.3402299999999
 31
0.0
  0
LINE
  5
136
330
6CE
100
AcDbEntity
  8
0
  6
Continuous
 62
     7
100
AcDbLine
 10
-47.43074
 20
20.34023499999999
 30
0.0
 11
-47.43074
 21
190.3402299999999
 31
0.0
  0
LINE
  5
137
330
6CE
100
AcDbEntity
  8
0
  6
CENTER
 62
     7
100
AcDbLine
 10
-59.93074
 20
-18.98349599999999
 30
0.0
 11
-59.93074
 21
229.66396
 31
0.0
  0
LINE
  5
138
330
6CE
100
AcDbEntity
  8
0
  6
CENTER
 62
     7
100
AcDbLine
 10
-50.761612
 20
150.3402299999999
 30
0.0
 11
-69.44804399999999
 21
150.3402299999999
 31
0.0
  0
LINE
  5
139
330
6CE
100
AcDbEntity
  8
0
  6
CENTER
 62
     7
100
AcDbLine
 10
-47.43074
 20
180.3402299999999
 30
0.0
 11
-72.43074
 21
180.3402299999999
 31
0.0
  0
LINE
  5
13A
330
6CE
100
AcDbEntity
  8
0
  6
CENTER
 62
     7
100
AcDbLine
 10
-52.93074
 20
173.21735
 30
0.0
 11
-52.93074
 21
187.53883
 31
0.0
  0
LINE
  5
13B
330
6CE
100
AcDbEntity
  8
0
  6
CENTER
 62
     7
100
AcDbLine
 10
-66.93074
 20
173.21735
 30
0.0
 11
-66.93074
 21
187.53883
 31
0.0
  0
LINE
  5
13C
330
6CE
100
AcDbEntity
  8
0
  6
CENTER
 62
     7
100
AcDbLine
 10
-47.43074
 20
30.34023499999999
 30
0.0
 11
-72.43074
 21
30.34023499999999
 31
0.0
  0
LINE
  5
13D
330
6CE
100
AcDbEntity
  8
0
  6
CENTER
 62
     7
100
AcDbLine
 10
-52.93074
 20
37.463127
 30
0.0
 11
-52.93074
 21
23.14162599999999
 31
0.0
  0
LINE
  5
13E
330
6CE
100
AcDbEntity
  8
0
  6
CENTER
 62
     7
100
AcDbLine
 10
-66.93074
 20
37.463127
 30
0.0
 11
-66.93074
 21
23.14162599999999
 31
0.0
  0
LINE
  5
13F
330
6CE
100
AcDbEntity
  8
0
  6
Continuous
 62
     7
100
AcDbLine
 10
-52.93074
 20
140.34024
 30
0.0
 11
-52.93074
 21
160.3402299999999
 31
0.0
  0
LINE
  5
140
330
6CE
100
AcDbEntity
  8
0
  6
Continuous
 62
     7
100
AcDbLine
 10
-66.93074
 20
140.34024
 30
0.0
 11
-66.93074
 21
160.3402299999999
 31
0.0
  0
LINE
  5
141
330
6CE
100
AcDbEntity
  8
0
  6
Continuous
 62
     7
100
AcDbLine
 10
-60.87101
 20
105.51271
 30
0.0
 11
-60.10289
 21
107.39962
 31
0.0
  0
LINE
  5
142
330
6CE
100
AcDbEntity
  8
0
  6
Continuous
 62
     7
100
AcDbLine
 10
-59.547321
 20
105.50644
 30
0.0
 11
-57.55411899999999
 21
110.4027899999999
 31
0.0
  0
LINE
  5
143
330
6CE
100
AcDbEntity
  8
0
  6
Continuous
 62
     7
100
AcDbLine
 10
-60.97750099999999
 20
108.5088999999999
 30
0.0
 11
-60.125793
 21
110.6011399999998
 31
0.0
  0
LINE
  5
144
330
6CE
100
AcDbEntity
  8
0
  6
Continuous
 62
     7
100
AcDbLine
 10
-64.782196
 20
108.93625
 30
0.0
 11
-64.46476700000001
 21
109.71602
 31
0.0
  0
LINE
  5
145
330
6CE
100
AcDbEntity
  8
0
  6
Continuous
 62
     7
100
AcDbLine
 10
-59.82606099999999
 20
108.07966
 30
0.0
 11
-58.829441
 21
110.5278699999998
 31
0.0
  0
LINE
  5
146
330
6CE
100
AcDbEntity
  8
0
  6
Continuous
 62
     7
100
AcDbLine
 10
-64.499268
 20
106.3733199999998
 30
0.0
 11
-64.30155899999999
 21
106.8589999999999
 31
0.0
  0
LINE
  5
147
330
6CE
100
AcDbEntity
  8
0
  6
Continuous
 62
     7
100
AcDbLine
 10
-64.781937
 20
108.5223199999998
 30
0.0
 11
-64.301323
 21
107.34171
 31
0.0
  0
LINE
  5
148
330
6CE
100
AcDbEntity
  8
0
  6
Continuous
 62
     7
100
AcDbLine
 10
-62.25161400000001
 20
108.63691
 30
0.0
 11
-61.491978
 21
110.50298
 31
0.0
  0
LINE
  5
149
330
6CE
100
AcDbEntity
  8
0
  6
Continuous
 62
     7
100
AcDbLine
 10
-55.424873
 20
106.3638399999999
 30
0.0
 11
-55.135994
 21
107.07348
 31
0.0
  0
LINE
  5
14A
330
6CE
100
AcDbEntity
  8
0
  6
Continuous
 62
     7
100
AcDbLine
 10
-55.60235600000001
 20
108.7023499999999
 30
0.0
 11
-55.135792
 21
107.55622
 31
0.0
  0
LINE
  5
14B
330
6CE
100
AcDbEntity
  8
0
  6
Continuous
 62
     7
100
AcDbLine
 10
-55.60255399999999
 20
109.18526
 30
0.0
 11
-55.381214
 21
109.72899
 31
0.0
  0
LINE
  5
14C
330
6CE
100
AcDbEntity
  8
0
  6
Continuous
 62
     7
100
AcDbLine
 10
-63.346291
 20
105.94782
 30
0.0
 11
-62.975349
 21
106.8590399999998
 31
0.0
  0
LINE
  5
14D
330
6CE
100
AcDbEntity
  8
0
  6
Continuous
 62
     7
100
AcDbLine
 10
-63.441738
 20
108.48785
 30
0.0
 11
-62.97515500000001
 21
107.34168
 31
0.0
  0
LINE
  5
14E
330
6CE
100
AcDbEntity
  8
0
  6
Continuous
 62
     7
100
AcDbLine
 10
-63.44191
 20
108.97075
 30
0.0
 11
-62.90546800000001
 21
110.28852
 31
0.0
  0
LINE
  5
14F
330
6CE
100
AcDbEntity
  8
0
  6
Continuous
 62
     7
100
AcDbLine
 10
-56.981056
 20
105.7989399999998
 30
0.0
 11
-56.46219300000001
 21
107.07354
 31
0.0
  0
LINE
  5
150
330
6CE
100
AcDbEntity
  8
0
  6
Continuous
 62
     7
100
AcDbLine
 10
-56.928486
 20
108.70236
 30
0.0
 11
-56.461906
 21
107.5562
 31
0.0
  0
LINE
  5
151
330
6CE
100
AcDbEntity
  8
0
  6
Continuous
 62
     7
100
AcDbLine
 10
-56.92873
 20
109.18526
 30
0.0
 11
-56.53278
 21
110.15793
 31
0.0
  0
LINE
  5
152
330
6CE
100
AcDbEntity
  8
0
  6
Continuous
 62
     7
100
AcDbLine
 10
-65.90629599999998
 20
104.9428199999999
 30
0.0
 11
-65.90629599999998
 21
104.52819
 31
0.0
  0
LINE
  5
153
330
6CE
100
AcDbEntity
  8
0
  6
Continuous
 62
     7
100
AcDbLine
 10
-65.90629599999998
 20
102.6501499999999
 30
0.0
 11
-64.34532199999999
 21
102.6501499999999
 31
0.0
  0
LINE
  5
154
330
6CE
100
AcDbEntity
  8
0
  6
Continuous
 62
     7
100
AcDbLine
 10
-65.90629599999998
 20
103.0404
 30
0.0
 11
-64.71118199999999
 21
103.0404
 31
0.0
  0
LINE
  5
155
330
6CE
100
AcDbEntity
  8
0
  6
Continuous
 62
     7
100
AcDbLine
 10
-65.90629599999998
 20
104.9428199999999
 30
0.0
 11
-64.247772
 21
104.9428199999999
 31
0.0
  0
LINE
  5
156
330
6CE
100
AcDbEntity
  8
0
  6
Continuous
 62
     7
100
AcDbLine
 10
-63.174606
 20
104.2599
 30
0.0
 11
-63.174606
 21
103.82088
 31
0.0
  0
LINE
  5
157
330
6CE
100
AcDbEntity
  8
0
  6
Continuous
 62
     7
100
AcDbLine
 10
-65.90629599999998
 20
104.52819
 30
0.0
 11
-64.101425
 21
104.52819
 31
0.0
  0
LINE
  5
158
330
6CE
100
AcDbEntity
  8
0
  6
Continuous
 62
     7
100
AcDbLine
 10
-65.90629599999998
 20
104.2355
 30
0.0
 11
-64.101425
 21
104.2355
 31
0.0
  0
LINE
  5
159
330
6CE
100
AcDbEntity
  8
0
  6
Continuous
 62
     7
100
AcDbLine
 10
-65.90629599999998
 20
103.82088
 30
0.0
 11
-64.101425
 21
103.82088
 31
0.0
  0
LINE
  5
15A
330
6CE
100
AcDbEntity
  8
0
  6
Continuous
 62
     7
100
AcDbLine
 10
-64.101425
 20
104.84525
 30
0.0
 11
-64.101425
 21
104.52819
 31
0.0
  0
LINE
  5
15B
330
6CE
100
AcDbEntity
  8
0
  6
Continuous
 62
     7
100
AcDbLine
 10
-64.101425
 20
104.2355
 30
0.0
 11
-64.101425
 21
103.82088
 31
0.0
  0
LINE
  5
15C
330
6CE
100
AcDbEntity
  8
0
  6
Continuous
 62
     7
100
AcDbLine
 10
-65.90629599999998
 20
103.0404
 30
0.0
 11
-65.90629599999998
 21
102.6501499999999
 31
0.0
  0
LINE
  5
15D
330
6CE
100
AcDbEntity
  8
0
  6
Continuous
 62
     7
100
AcDbLine
 10
-65.90629599999998
 20
104.2355
 30
0.0
 11
-65.90629599999998
 21
103.82088
 31
0.0
  0
LINE
  5
15E
330
6CE
100
AcDbEntity
  8
0
  6
Continuous
 62
     7
100
AcDbLine
 10
-63.93070999999999
 20
104.40624
 30
0.0
 11
-63.93070999999999
 21
103.82088
 31
0.0
  0
LINE
  5
15F
330
6CE
100
AcDbEntity
  8
0
  6
Continuous
 62
     7
100
AcDbLine
 10
-63.93070999999999
 20
104.40624
 30
0.0
 11
-63.27217099999999
 21
104.40624
 31
0.0
  0
LINE
  5
160
330
6CE
100
AcDbEntity
  8
0
  6
Continuous
 62
     7
100
AcDbLine
 10
-62.881943
 20
102.6501499999999
 30
0.0
 11
-61.46731599999999
 21
102.6501499999999
 31
0.0
  0
LINE
  5
161
330
6CE
100
AcDbEntity
  8
0
  6
Continuous
 62
     7
100
AcDbLine
 10
-63.028275
 20
104.9428199999999
 30
0.0
 11
-60.78439300000001
 21
104.9428199999999
 31
0.0
  0
LINE
  5
162
330
6CE
100
AcDbEntity
  8
0
  6
Continuous
 62
     7
100
AcDbLine
 10
-63.028275
 20
104.9428199999999
 30
0.0
 11
-63.028275
 21
104.55258
 31
0.0
  0
LINE
  5
163
330
6CE
100
AcDbEntity
  8
0
  6
Continuous
 62
     7
100
AcDbLine
 10
-62.881943
 20
103.0404
 30
0.0
 11
-62.881943
 21
102.6501499999999
 31
0.0
  0
LINE
  5
164
330
6CE
100
AcDbEntity
  8
0
  6
Continuous
 62
     7
100
AcDbLine
 10
-63.028275
 20
104.55258
 30
0.0
 11
-61.22341899999999
 21
104.55258
 31
0.0
  0
LINE
  5
165
330
6CE
100
AcDbEntity
  8
0
  6
Continuous
 62
     7
100
AcDbLine
 10
-62.881943
 20
103.0404
 30
0.0
 11
-61.75999499999999
 21
103.0404
 31
0.0
  0
LINE
  5
166
330
6CE
100
AcDbEntity
  8
0
  6
Continuous
 62
     7
100
AcDbLine
 10
-60.24780299999999
 20
105.0403799999999
 30
0.0
 11
-60.24780299999999
 21
104.7232999999999
 31
0.0
  0
LINE
  5
167
330
6CE
100
AcDbEntity
  8
0
  6
Continuous
 62
     7
100
AcDbLine
 10
-60.979507
 20
104.3086699999999
 30
0.0
 11
-60.979507
 21
103.82088
 31
0.0
  0
LINE
  5
168
330
6CE
100
AcDbEntity
  8
0
  6
Continuous
 62
     7
100
AcDbLine
 10
-60.78439300000001
 20
104.9428199999999
 30
0.0
 11
-60.78439300000001
 21
104.69892
 31
0.0
  0
LINE
  5
169
330
6CE
100
AcDbEntity
  8
0
  6
Continuous
 62
     7
100
AcDbLine
 10
-60.686829
 20
104.55258
 30
0.0
 11
-60.345383
 21
104.55258
 31
0.0
  0
LINE
  5
16A
330
6CE
100
AcDbEntity
  8
0
  6
Continuous
 62
     7
100
AcDbLine
 10
-60.613663
 20
104.6745299999999
 30
0.0
 11
-60.29659999999999
 21
104.6745299999999
 31
0.0
  0
LINE
  5
16B
330
6CE
100
AcDbEntity
  8
0
  6
Continuous
 62
     7
100
AcDbLine
 10
-60.66244499999999
 20
105.0403799999999
 30
0.0
 11
-60.66244499999999
 21
104.7232999999999
 31
0.0
  0
LINE
  5
16C
330
6CE
100
AcDbEntity
  8
0
  6
Continuous
 62
     7
100
AcDbLine
 10
-60.613663
 20
105.08916
 30
0.0
 11
-60.29659999999999
 21
105.08916
 31
0.0
  0
LINE
  5
16D
330
6CE
100
AcDbEntity
  8
0
  6
Continuous
 62
     7
100
AcDbLine
 10
-60.24780299999999
 20
104.4550199999999
 30
0.0
 11
-60.24780299999999
 21
104.2111099999999
 31
0.0
  0
LINE
  5
16E
330
6CE
100
AcDbEntity
  8
0
  6
Continuous
 62
     7
100
AcDbLine
 10
-60.101471
 20
105.0403799999999
 30
0.0
 11
-60.101471
 21
104.7232999999999
 31
0.0
  0
LINE
  5
16F
330
6CE
100
AcDbEntity
  8
0
  6
Continuous
 62
     7
100
AcDbLine
 10
-59.68684399999999
 20
105.0403799999999
 30
0.0
 11
-59.68684399999999
 21
104.7232999999999
 31
0.0
  0
LINE
  5
170
330
6CE
100
AcDbEntity
  8
0
  6
Continuous
 62
     7
100
AcDbLine
 10
-60.052689
 20
105.08916
 30
0.0
 11
-59.73562600000001
 21
105.08916
 31
0.0
  0
LINE
  5
171
330
6CE
100
AcDbEntity
  8
0
  6
Continuous
 62
     7
100
AcDbLine
 10
-60.052689
 20
104.6745299999999
 30
0.0
 11
-59.73562600000001
 21
104.6745299999999
 31
0.0
  0
LINE
  5
172
330
6CE
100
AcDbEntity
  8
0
  6
Continuous
 62
     7
100
AcDbLine
 10
-59.76001
 20
102.6501499999999
 30
0.0
 11
-58.24783299999999
 21
102.6501499999999
 31
0.0
  0
LINE
  5
173
330
6CE
100
AcDbEntity
  8
0
  6
Continuous
 62
     7
100
AcDbLine
 10
-59.100494
 20
104.9428199999999
 30
0.0
 11
-57.272232
 21
104.9428199999999
 31
0.0
  0
LINE
  5
174
330
6CE
100
AcDbEntity
  8
0
  6
Continuous
 62
     7
100
AcDbLine
 10
-59.857574
 20
104.35745
 30
0.0
 11
-59.857574
 21
103.96722
 31
0.0
  0
LINE
  5
175
330
6CE
100
AcDbEntity
  8
0
  6
Continuous
 62
     7
100
AcDbLine
 10
-59.76001
 20
103.0404
 30
0.0
 11
-59.76001
 21
102.6501499999999
 31
0.0
  0
LINE
  5
176
330
6CE
100
AcDbEntity
  8
0
  6
Continuous
 62
     7
100
AcDbLine
 10
-59.76001
 20
103.0404
 30
0.0
 11
-58.638077
 21
103.0404
 31
0.0
  0
LINE
  5
177
330
6CE
100
AcDbEntity
  8
0
  6
Continuous
 62
     7
100
AcDbLine
 10
-56.979553
 20
103.4794199999999
 30
0.0
 11
-56.979553
 21
103.08918
 31
0.0
  0
LINE
  5
178
330
6CE
100
AcDbEntity
  8
0
  6
Continuous
 62
     7
100
AcDbLine
 10
-59.857574
 20
104.35745
 30
0.0
 11
-59.62442
 21
104.35745
 31
0.0
  0
LINE
  5
179
330
6CE
100
AcDbEntity
  8
0
  6
Continuous
 62
     7
100
AcDbLine
 10
-59.857574
 20
103.96722
 30
0.0
 11
-59.35136400000001
 21
103.96722
 31
0.0
  0
LINE
  5
17A
330
6CE
100
AcDbEntity
  8
0
  6
Continuous
 62
     7
100
AcDbLine
 10
-59.545387
 20
104.3976999999999
 30
0.0
 11
-59.179428
 21
104.9024699999998
 31
0.0
  0
LINE
  5
17B
330
6CE
100
AcDbEntity
  8
0
  6
Continuous
 62
     7
100
AcDbLine
 10
-58.97953799999999
 20
104.0309399999999
 30
0.0
 11
-58.97953799999999
 21
103.67454
 31
0.0
  0
LINE
  5
17C
330
6CE
100
AcDbEntity
  8
0
  6
Continuous
 62
     7
100
AcDbLine
 10
-58.89550799999999
 20
104.06477
 30
0.0
 11
-58.275284
 21
104.06477
 31
0.0
  0
LINE
  5
17D
330
6CE
100
AcDbEntity
  8
0
  6
Continuous
 62
     7
100
AcDbLine
 10
-58.97953799999999
 20
103.67454
 30
0.0
 11
-58.38507100000001
 21
103.67454
 31
0.0
  0
LINE
  5
17E
330
6CE
100
AcDbEntity
  8
0
  6
Continuous
 62
     7
100
AcDbLine
 10
-58.91520299999999
 20
104.10344
 30
0.0
 11
-58.61882399999998
 21
104.51224
 31
0.0
  0
LINE
  5
17F
330
6CE
100
AcDbEntity
  8
0
  6
Continuous
 62
     7
100
AcDbLine
 10
-59.011616
 20
104.05396
 30
0.0
 11
-59.19709399999999
 21
103.99213
 31
0.0
  0
LINE
  5
180
330
6CE
100
AcDbEntity
  8
0
  6
Continuous
 62
     7
100
AcDbLine
 10
-57.808823
 20
104.4550199999999
 30
0.0
 11
-57.808823
 21
104.0159999999999
 31
0.0
  0
LINE
  5
181
330
6CE
100
AcDbEntity
  8
0
  6
Continuous
 62
     7
100
AcDbLine
 10
-57.85854699999998
 20
103.82704
 30
0.0
 11
-58.22433100000001
 21
104.05058
 31
0.0
  0
LINE
  5
182
330
6CE
100
AcDbEntity
  8
0
  6
Continuous
 62
     7
100
AcDbLine
 10
-58.013264
 20
103.46429
 30
0.0
 11
-58.33412899999999
 21
103.66037
 31
0.0
  0
LINE
  5
183
330
6CE
100
AcDbEntity
  8
0
  6
Continuous
 62
     7
100
AcDbLine
 10
-57.02833599999999
 20
104.69892
 30
0.0
 11
-57.02833599999999
 21
103.8696599999999
 31
0.0
  0
LINE
  5
184
330
6CE
100
AcDbEntity
  8
0
  6
Continuous
 62
     7
100
AcDbLine
 10
-57.299438
 20
103.08918
 30
0.0
 11
-56.979553
 21
103.08918
 31
0.0
  0
LINE
  5
185
330
6CE
100
AcDbEntity
  8
0
  6
Continuous
 62
     7
100
AcDbLine
 10
-57.05894499999999
 20
103.4794199999999
 30
0.0
 11
-56.979553
 21
103.4794199999999
 31
0.0
  0
LINE
  5
186
330
6CE
100
AcDbEntity
  8
0
  6
Continuous
 62
     7
100
AcDbLine
 10
-56.68687399999999
 20
103.23553
 30
0.0
 11
-56.68687399999999
 21
102.69893
 31
0.0
  0
LINE
  5
187
330
6CE
100
AcDbEntity
  8
0
  6
Continuous
 62
     7
100
AcDbLine
 10
-56.68687399999999
 20
102.69893
 30
0.0
 11
-53.955185
 21
102.69893
 31
0.0
  0
LINE
  5
188
330
6CE
100
AcDbEntity
  8
0
  6
Continuous
 62
     7
100
AcDbLine
 10
-56.68687399999999
 20
103.2355099999999
 30
0.0
 11
-54.07713300000001
 21
103.2355099999999
 31
0.0
  0
LINE
  5
189
330
6CE
100
AcDbEntity
  8
0
  6
Continuous
 62
     7
100
AcDbLine
 10
-56.49174499999999
 20
104.9428199999999
 30
0.0
 11
-56.49174499999999
 21
104.52819
 31
0.0
  0
LINE
  5
18A
330
6CE
100
AcDbEntity
  8
0
  6
Continuous
 62
     7
100
AcDbLine
 10
-56.49174499999999
 20
104.9428199999999
 30
0.0
 11
-54.32103000000001
 21
104.9428199999999
 31
0.0
  0
LINE
  5
18B
330
6CE
100
AcDbEntity
  8
0
  6
Continuous
 62
     7
100
AcDbLine
 10
-56.49174499999999
 20
104.52819
 30
0.0
 11
-54.199081
 21
104.52819
 31
0.0
  0
LINE
  5
18C
330
6CE
100
AcDbEntity
  8
0
  6
Continuous
 62
     7
100
AcDbLine
 10
-53.955185
 20
103.08918
 30
0.0
 11
-53.955185
 21
102.69893
 31
0.0
  0
LINE
  5
18D
330
6CE
100
AcDbEntity
  8
0
  6
Continuous
 62
     7
100
AcDbLine
 10
-54.199081
 20
104.79648
 30
0.0
 11
-54.199081
 21
104.52819
 31
0.0
  0
LINE
  5
18E
330
6CE
100
AcDbEntity
  8
0
  6
Continuous
 62
     7
100
AcDbLine
 10
-58.53990200000001
 20
104.55258
 30
0.0
 11
-57.90637199999999
 21
104.55258
 31
0.0
  0
LINE
  5
18F
330
6CE
100
AcDbEntity
  8
0
  6
Continuous
 62
     7
100
AcDbLine
 10
-52.93074
 20
140.34024
 30
0.0
 11
-66.93074
 21
140.34024
 31
0.0
  0
LINE
  5
190
330
6CE
100
AcDbEntity
  8
0
  6
Continuous
 62
     7
100
AcDbLine
 10
-52.93074
 20
160.3402299999999
 30
0.0
 11
-66.93074
 21
160.3402299999999
 31
0.0
  0
LINE
  5
191
330
6CE
100
AcDbEntity
  8
0
  6
Continuous
 62
     7
100
AcDbLine
 10
-196.4307599999999
 20
20.34023499999999
 30
0.0
 11
-200.73074
 21
20.34023499999999
 31
0.0
  0
LINE
  5
192
330
6CE
100
AcDbEntity
  8
0
  6
Continuous
 62
     7
100
AcDbLine
 10
-196.4307599999999
 20
190.3402299999999
 30
0.0
 11
-200.73074
 21
190.3402299999999
 31
0.0
  0
LINE
  5
193
330
6CE
100
AcDbEntity
  8
0
  6
Continuous
 62
     7
100
AcDbLine
 10
-196.4307599999999
 20
20.34023499999999
 30
0.0
 11
-196.4307599999999
 21
190.3402299999999
 31
0.0
  0
LINE
  5
194
330
6CE
100
AcDbEntity
  8
0
  6
Continuous
 62
     7
100
AcDbLine
 10
-200.73074
 20
20.34023499999999
 30
0.0
 11
-200.73074
 21
190.3402299999999
 31
0.0
  0
LINE
  5
195
330
6CE
100
AcDbEntity
  8
0
  6
PHANTOM
 62
     7
100
AcDbLine
 10
-176.4307399999999
 20
142.34024
 30
0.0
 11
-176.4307399999999
 21
158.3402299999999
 31
0.0
  0
LINE
  5
196
330
6CE
100
AcDbEntity
  8
0
  6
PHANTOM
 62
     7
100
AcDbLine
 10
-178.4307399999999
 20
140.34024
 30
0.0
 11
-200.73074
 21
140.34024
 31
0.0
  0
LINE
  5
197
330
6CE
100
AcDbEntity
  8
0
  6
PHANTOM
 62
     7
100
AcDbLine
 10
-178.4307399999999
 20
160.3402299999999
 30
0.0
 11
-200.73074
 21
160.3402299999999
 31
0.0
  0
LINE
  5
198
330
6CE
100
AcDbEntity
  8
0
  6
PHANTOM
 62
     7
100
AcDbLine
 10
-176.4307399999999
 20
158.3402299999999
 30
0.0
 11
-178.4307599999999
 21
160.3402299999999
 31
0.0
  0
LINE
  5
199
330
6CE
100
AcDbEntity
  8
0
  6
PHANTOM
 62
     7
100
AcDbLine
 10
-176.4307399999999
 20
142.34023
 30
0.0
 11
-178.4307399999999
 21
140.3402299999999
 31
0.0
  0
LINE
  5
19A
330
6CE
100
AcDbEntity
  8
0
  6
PHANTOM
 62
     7
100
AcDbLine
 10
-180.4307399999999
 20
140.34024
 30
0.0
 11
-180.4307399999999
 21
160.3402299999999
 31
0.0
  0
LINE
  5
19B
330
6CE
100
AcDbEntity
  8
0
  6
Continuous
 62
     7
100
AcDbLine
 10
-56.93074
 20
142.34024
 30
0.0
 11
-62.93074
 21
142.34024
 31
0.0
  0
LINE
  5
19C
330
6CE
100
AcDbEntity
  8
0
  6
Continuous
 62
     7
100
AcDbLine
 10
-56.93074
 20
158.3402299999999
 30
0.0
 11
-62.93074
 21
158.3402299999999
 31
0.0
  0
LINE
  5
19D
330
6CE
100
AcDbEntity
  8
0
  6
Continuous
 62
     7
100
AcDbLine
 10
-56.93074
 20
142.34024
 30
0.0
 11
-56.93074
 21
158.3402299999999
 31
0.0
  0
LINE
  5
19E
330
6CE
100
AcDbEntity
  8
0
  6
Continuous
 62
     7
100
AcDbLine
 10
-62.93074
 20
142.34024
 30
0.0
 11
-62.93074
 21
158.3402299999999
 31
0.0
  0
LINE
  5
19F
330
6CE
100
AcDbEntity
  8
0
  6
Continuous
 62
     7
100
AcDbLine
 10
-54.93074
 20
140.34024
 30
0.0
 11
-54.93074
 21
140.34024
 31
0.0
  0
LINE
  5
1A0
330
6CE
100
AcDbEntity
  8
0
  6
Continuous
 62
     7
100
AcDbLine
 10
-54.930737
 20
140.3402299999999
 30
0.0
 11
-56.93074
 21
142.34024
 31
0.0
  0
LINE
  5
1A1
330
6CE
100
AcDbEntity
  8
0
  6
Continuous
 62
     7
100
AcDbLine
 10
-54.930725
 20
160.34021
 30
0.0
 11
-56.930725
 21
158.34021
 31
0.0
  0
LINE
  5
1A2
330
6CE
100
AcDbEntity
  8
0
  6
Continuous
 62
     7
100
AcDbLine
 10
-64.93073299999998
 20
140.3402299999999
 30
0.0
 11
-62.93072900000001
 21
142.34023
 31
0.0
  0
LINE
  5
1A3
330
6CE
100
AcDbEntity
  8
0
  6
Continuous
 62
     7
100
AcDbLine
 10
-64.93074
 20
160.34024
 30
0.0
 11
-62.930737
 21
158.3402399999999
 31
0.0
  0
LINE
  5
1A4
330
6CE
100
AcDbEntity
  8
0
  6
Continuous
 62
     7
100
AcDbLine
 10
-253.4307599999999
 20
40.340233
 30
0.0
 11
-253.4307599999999
 21
170.3402399999999
 31
0.0
  0
LINE
  5
1A5
330
6CE
100
AcDbEntity
  8
0
  6
Continuous
 62
     7
100
AcDbLine
 10
-200.73074
 20
40.340233
 30
0.0
 11
-253.4307599999999
 21
40.340233
 31
0.0
  0
LINE
  5
1A6
330
6CE
100
AcDbEntity
  8
0
  6
Continuous
 62
     7
100
AcDbLine
 10
-200.73074
 20
170.3402399999999
 30
0.0
 11
-253.4307599999999
 21
170.3402399999999
 31
0.0
  0
LINE
  5
1A7
330
6CE
100
AcDbEntity
  8
0
  6
CENTER
 62
     7
100
AcDbLine
 10
-173.4843099999999
 20
150.3402399999998
 30
0.0
 11
-202.9307399999999
 21
150.3402399999998
 31
0.0
  0
LINE
  5
1A8
330
6CE
100
AcDbEntity
  8
0
  6
Continuous
 62
     7
100
AcDbLine
 10
-226.6307499999999
 20
145.3402399999999
 30
0.0
 11
-246.2307399999999
 21
145.3402399999999
 31
0.0
  0
LINE
  5
1A9
330
6CE
100
AcDbEntity
  8
0
  6
Continuous
 62
     7
100
AcDbLine
 10
-226.6307499999999
 20
155.3402399999999
 30
0.0
 11
-246.2307399999999
 21
155.3402399999999
 31
0.0
  0
LINE
  5
1AA
330
6CE
100
AcDbEntity
  8
0
  6
Continuous
 62
     7
100
AcDbLine
 10
-226.6307499999999
 20
152.89023
 30
0.0
 11
-246.2307399999999
 21
152.89023
 31
0.0
  0
LINE
  5
1AB
330
6CE
100
AcDbEntity
  8
0
  6
Continuous
 62
     7
100
AcDbLine
 10
-226.6307499999999
 20
147.7902399999998
 30
0.0
 11
-246.2307399999999
 21
147.7902399999998
 31
0.0
  0
LINE
  5
1AC
330
6CE
100
AcDbEntity
  8
0
  6
CENTER
 62
     7
100
AcDbLine
 10
-236.4307399999999
 20
129.6616699999999
 30
0.0
 11
-236.4307399999999
 21
137.42625
 31
0.0
  0
LINE
  5
1AD
330
6CE
100
AcDbEntity
  8
0
  6
Continuous
 62
     7
100
AcDbLine
 10
-231.68074
 20
52.340233
 30
0.0
 11
-231.68074
 21
77.340233
 31
0.0
  0
LINE
  5
1AE
330
6CE
100
AcDbEntity
  8
0
  6
Continuous
 62
     7
100
AcDbLine
 10
-236.78075
 20
52.340233
 30
0.0
 11
-236.78075
 21
77.340233
 31
0.0
  0
LINE
  5
1AF
330
6CE
100
AcDbEntity
  8
0
  6
CENTER
 62
     7
100
AcDbLine
 10
-238.73074
 20
81.09623
 30
0.0
 11
-238.73074
 21
115.30628
 31
0.0
  0
LINE
  5
1B0
330
6CE
100
AcDbEntity
  8
0
  6
Continuous
 62
     7
100
AcDbLine
 10
-235.68074
 20
85.34023299999999
 30
0.0
 11
-235.68074
 21
110.34023
 31
0.0
  0
LINE
  5
1B1
330
6CE
100
AcDbEntity
  8
0
  6
Continuous
 62
     7
100
AcDbLine
 10
-241.78075
 20
85.34023299999999
 30
0.0
 11
-241.78075
 21
110.34023
 31
0.0
  0
LINE
  5
1B2
330
6CE
100
AcDbEntity
  8
0
  6
CENTER
 62
     7
100
AcDbLine
 10
-229.4186599999999
 20
77.340233
 30
0.0
 11
-239.3326
 21
77.340233
 31
0.0
  0
LINE
  5
1B3
330
6CE
100
AcDbEntity
  8
0
  6
CENTER
 62
     7
100
AcDbLine
 10
-233.91866
 20
110.34023
 30
0.0
 11
-243.8325999999999
 21
110.34023
 31
0.0
  0
LINE
  5
1B4
330
6CE
100
AcDbEntity
  8
0
  6
CENTER
 62
     7
100
AcDbLine
 10
-233.91866
 20
85.34023299999999
 30
0.0
 11
-243.8325999999999
 21
85.34023299999999
 31
0.0
  0
LINE
  5
1B5
330
6CE
100
AcDbEntity
  8
0
  6
CENTER
 62
     7
100
AcDbLine
 10
-232.70583
 20
133.3402399999999
 30
0.0
 11
-240.19557
 21
133.3402399999999
 31
0.0
  0
LINE
  5
1B6
330
6CE
100
AcDbEntity
  8
0
  6
CENTER
 62
     7
100
AcDbLine
 10
-200.73074
 20
83.440224
 30
0.0
 11
-200.73074
 21
83.440224
 31
0.0
  0
LINE
  5
1B7
330
6CE
100
AcDbEntity
  8
0
  6
Continuous
 62
     7
100
AcDbLine
 10
-200.73074
 20
97.240234
 30
0.0
 11
-200.73074
 21
97.240234
 31
0.0
  0
LINE
  5
1B8
330
6CE
100
AcDbEntity
  8
0
  6
CENTER
 62
     7
100
AcDbLine
 10
-218.3609
 20
150.3402399999998
 30
0.0
 11
-255.0733799999999
 21
150.3402399999998
 31
0.0
  0
LINE
  5
1B9
330
6CE
100
AcDbEntity
  8
0
  6
CENTER
 62
     7
100
AcDbLine
 10
-195.2529299999999
 20
180.3402299999999
 30
0.0
 11
-210.64856
 21
180.3402299999999
 31
0.0
  0
LINE
  5
1BA
330
6CE
100
AcDbEntity
  8
0
  6
Continuous
 62
     7
100
AcDbLine
 10
-198.4307599999999
 20
20.34023499999999
 30
0.0
 11
-198.4307599999999
 21
190.3402299999999
 31
0.0
  0
LINE
  5
1BB
330
6CE
100
AcDbEntity
  8
0
  6
CENTER
 62
     7
100
AcDbLine
 10
-249.0888699999999
 20
110.34023
 30
0.0
 11
-282.65839
 21
110.34023
 31
0.0
  0
LINE
  5
1BC
330
6CE
100
AcDbEntity
  8
0
  6
Continuous
 62
     7
100
AcDbLine
 10
-253.4307599999999
 20
129.3402399999999
 30
0.0
 11
-274.93076
 21
129.3402399999999
 31
0.0
  0
LINE
  5
1BD
330
6CE
100
AcDbEntity
  8
0
  6
Continuous
 62
     7
100
AcDbLine
 10
-267.93076
 20
91.340233
 30
0.0
 11
-267.93076
 21
106.84023
 31
0.0
  0
LINE
  5
1BE
330
6CE
100
AcDbEntity
  8
0
  6
Continuous
 62
     7
100
AcDbLine
 10
-256.43076
 20
106.84023
 30
0.0
 11
-267.93076
 21
106.84023
 31
0.0
  0
LINE
  5
1BF
330
6CE
100
AcDbEntity
  8
0
  6
Continuous
 62
     7
100
AcDbLine
 10
-256.43076
 20
113.84023
 30
0.0
 11
-267.93076
 21
113.84023
 31
0.0
  0
LINE
  5
1C0
330
6CE
100
AcDbEntity
  8
0
  6
Continuous
 62
     7
100
AcDbLine
 10
-267.93076
 20
113.84023
 30
0.0
 11
-267.93076
 21
129.3402399999999
 31
0.0
  0
LINE
  5
1C1
330
6CE
100
AcDbEntity
  8
0
  6
Continuous
 62
     7
100
AcDbLine
 10
-256.43076
 20
106.84023
 30
0.0
 11
-256.43076
 21
113.84023
 31
0.0
  0
LINE
  5
1C2
330
6CE
100
AcDbEntity
  8
0
  6
DASHED
 62
     7
100
AcDbLine
 10
-200.43074
 20
178.3402299999999
 30
0.0
 11
-207.9307599999999
 21
178.3402299999999
 31
0.0
  0
LINE
  5
1C3
330
6CE
100
AcDbEntity
  8
0
  6
DASHED
 62
     7
100
AcDbLine
 10
-200.43074
 20
182.3402299999999
 30
0.0
 11
-207.9307599999999
 21
182.3402299999999
 31
0.0
  0
LINE
  5
1C4
330
6CE
100
AcDbEntity
  8
0
  6
DASHED
 62
     7
100
AcDbLine
 10
-208.4307599999999
 20
178.84023
 30
0.0
 11
-208.4307599999999
 21
181.8402299999999
 31
0.0
  0
LINE
  5
1C5
330
6CE
100
AcDbEntity
  8
0
  6
DASHED
 62
     7
100
AcDbLine
 10
-207.9307599999999
 20
178.3402299999999
 30
0.0
 11
-207.9307599999999
 21
182.3402299999999
 31
0.0
  0
LINE
  5
1C6
330
6CE
100
AcDbEntity
  8
0
  6
DASHED
 62
     7
100
AcDbLine
 10
-207.9307599999999
 20
182.3402299999999
 30
0.0
 11
-208.4307599999999
 21
181.8402299999999
 31
0.0
  0
LINE
  5
1C7
330
6CE
100
AcDbEntity
  8
0
  6
DASHED
 62
     7
100
AcDbLine
 10
-207.9307599999999
 20
178.3402299999999
 30
0.0
 11
-208.4307399999999
 21
178.84021
 31
0.0
  0
LINE
  5
1C8
330
6CE
100
AcDbEntity
  8
0
  6
DASHED
 62
     7
100
AcDbLine
 10
-200.43074
 20
181.96123
 30
0.0
 11
-207.9307599999999
 21
181.96123
 31
0.0
  0
LINE
  5
1C9
330
6CE
100
AcDbEntity
  8
0
  6
DASHED
 62
     7
100
AcDbLine
 10
-200.43074
 20
178.7192399999999
 30
0.0
 11
-207.9307599999999
 21
178.7192399999999
 31
0.0
  0
LINE
  5
1CA
330
6CE
100
AcDbEntity
  8
0
  6
DASHED
 62
     7
100
AcDbLine
 10
-200.43074
 20
182.3402299999999
 30
0.0
 11
-198.4307399999999
 21
184.3402299999999
 31
0.0
  0
LINE
  5
1CB
330
6CE
100
AcDbEntity
  8
0
  6
DASHED
 62
     7
100
AcDbLine
 10
-198.4307599999999
 20
176.3402399999999
 30
0.0
 11
-200.43074
 21
178.3402299999999
 31
0.0
  0
LINE
  5
1CC
330
6CE
100
AcDbEntity
  8
0
  6
DASHED
 62
     7
100
AcDbLine
 10
-200.43074
 20
178.3402299999999
 30
0.0
 11
-200.43074
 21
182.3402299999999
 31
0.0
  0
LINE
  5
1CD
330
6CE
100
AcDbEntity
  8
0
  6
Continuous
 62
     7
100
AcDbLine
 10
-253.4307599999999
 20
91.340233
 30
0.0
 11
-274.93076
 21
91.340233
 31
0.0
  0
LINE
  5
1CE
330
6CE
100
AcDbEntity
  8
0
  6
Continuous
 62
     7
100
AcDbLine
 10
-274.93076
 20
91.340233
 30
0.0
 11
-274.93076
 21
129.3402399999999
 31
0.0
  0
LINE
  5
1CF
330
6CE
100
AcDbEntity
  8
0
  6
DASHED
 62
     7
100
AcDbLine
 10
-200.43074
 20
32.340233
 30
0.0
 11
-200.43074
 21
28.34023499999998
 31
0.0
  0
LINE
  5
1D0
330
6CE
100
AcDbEntity
  8
0
  6
DASHED
 62
     7
100
AcDbLine
 10
-200.43074
 20
28.34025399999999
 30
0.0
 11
-198.4307399999999
 21
26.34025
 31
0.0
  0
LINE
  5
1D1
330
6CE
100
AcDbEntity
  8
0
  6
CENTER
 62
     7
100
AcDbLine
 10
-195.2529299999999
 20
30.34023499999999
 30
0.0
 11
-210.64856
 21
30.34023499999999
 31
0.0
  0
LINE
  5
1D2
330
6CE
100
AcDbEntity
  8
0
  6
DASHED
 62
     7
100
AcDbLine
 10
-198.43077
 20
34.34024799999999
 30
0.0
 11
-200.43077
 21
32.340252
 31
0.0
  0
LINE
  5
1D3
330
6CE
100
AcDbEntity
  8
0
  6
DASHED
 62
     7
100
AcDbLine
 10
-200.43074
 20
32.340233
 30
0.0
 11
-207.9307599999999
 21
32.340233
 31
0.0
  0
LINE
  5
1D4
330
6CE
100
AcDbEntity
  8
0
  6
DASHED
 62
     7
100
AcDbLine
 10
-200.43074
 20
28.34023499999998
 30
0.0
 11
-207.9307599999999
 21
28.34023499999998
 31
0.0
  0
LINE
  5
1D5
330
6CE
100
AcDbEntity
  8
0
  6
DASHED
 62
     7
100
AcDbLine
 10
-208.4307599999999
 20
31.84023499999999
 30
0.0
 11
-208.4307599999999
 21
28.84023499999999
 31
0.0
  0
LINE
  5
1D6
330
6CE
100
AcDbEntity
  8
0
  6
DASHED
 62
     7
100
AcDbLine
 10
-207.9307599999999
 20
32.340233
 30
0.0
 11
-207.9307599999999
 21
28.34023499999998
 31
0.0
  0
LINE
  5
1D7
330
6CE
100
AcDbEntity
  8
0
  6
DASHED
 62
     7
100
AcDbLine
 10
-207.93077
 20
28.340208
 30
0.0
 11
-208.43077
 21
28.840208
 31
0.0
  0
LINE
  5
1D8
330
6CE
100
AcDbEntity
  8
0
  6
DASHED
 62
     7
100
AcDbLine
 10
-207.9307299999999
 20
32.340218
 30
0.0
 11
-208.43073
 21
31.84021599999999
 31
0.0
  0
LINE
  5
1D9
330
6CE
100
AcDbEntity
  8
0
  6
DASHED
 62
     7
100
AcDbLine
 10
-200.43074
 20
28.719233
 30
0.0
 11
-207.9307599999999
 21
28.719233
 31
0.0
  0
LINE
  5
1DA
330
6CE
100
AcDbEntity
  8
0
  6
DASHED
 62
     7
100
AcDbLine
 10
-200.43074
 20
31.961237
 30
0.0
 11
-207.9307599999999
 21
31.961237
 31
0.0
  0
LINE
  5
1DB
330
6CE
100
AcDbEntity
  8
0
  6
CENTER
 62
     7
100
AcDbLine
 10
-234.23074
 20
48.340446
 30
0.0
 11
-234.23074
 21
81.67134899999998
 31
0.0
  0
LINE
  5
1DC
330
6CE
100
AcDbEntity
  8
0
  6
CENTER
 62
     7
100
AcDbLine
 10
-229.4186599999999
 20
52.340233
 30
0.0
 11
-239.3326
 21
52.340233
 31
0.0
  0
LINE
  5
1DD
330
6CE
100
AcDbEntity
  8
0
  6
CENTER
 62
     7
100
AcDbLine
 10
-245.4307599999999
 20
157.72726
 30
0.0
 11
-245.4307599999999
 21
167.7184
 31
0.0
  0
LINE
  5
1DE
330
6CE
100
AcDbEntity
  8
0
  6
CENTER
 62
     7
100
AcDbLine
 10
-240.61865
 20
162.3402399999999
 30
0.0
 11
-250.5325899999998
 21
162.3402399999999
 31
0.0
  0
LINE
  5
1DF
330
6CE
100
AcDbEntity
  8
0
  6
CENTER
 62
     7
100
AcDbLine
 10
-245.4307599999999
 20
43.72727199999999
 30
0.0
 11
-245.4307599999999
 21
53.718399
 31
0.0
  0
LINE
  5
1E0
330
6CE
100
AcDbEntity
  8
0
  6
CENTER
 62
     7
100
AcDbLine
 10
-240.61865
 20
48.34023300000001
 30
0.0
 11
-250.5325899999998
 21
48.34023300000001
 31
0.0
  0
LINE
  5
1E1
330
6CE
100
AcDbEntity
  8
0
  6
CENTER
 62
     7
100
AcDbLine
 10
-245.4307599999999
 20
60.227272
 30
0.0
 11
-245.4307599999999
 21
70.218399
 31
0.0
  0
LINE
  5
1E2
330
6CE
100
AcDbEntity
  8
0
  6
CENTER
 62
     7
100
AcDbLine
 10
-240.61865
 20
64.840233
 30
0.0
 11
-250.5325899999998
 21
64.840233
 31
0.0
  0
LINE
  5
1E3
330
6CE
100
AcDbEntity
  8
0
  6
CENTER
 62
     7
100
AcDbLine
 10
-266.43076
 20
-18.98349599999999
 30
0.0
 11
-266.43076
 21
229.66396
 31
0.0
  0
LINE
  5
1E4
330
6CE
100
AcDbEntity
  8
0
  6
Continuous
 62
     7
100
AcDbLine
 10
-262.43076
 20
129.3402299999999
 30
0.0
 11
-262.43076
 21
170.34023
 31
0.0
  0
LINE
  5
1E5
330
6CE
100
AcDbEntity
  8
0
  6
Continuous
 62
     7
100
AcDbLine
 10
-270.43076
 20
129.3402299999999
 30
0.0
 11
-270.43076
 21
170.34023
 31
0.0
  0
LINE
  5
1E6
330
6CE
100
AcDbEntity
  8
0
  6
Continuous
 62
     7
100
AcDbLine
 10
-63.93074
 20
-18.98349599999999
 30
0.0
 11
-63.93074
 21
5.340232399999998
 31
0.0
  0
LINE
  5
1E7
330
6CE
100
AcDbEntity
  8
0
  6
Continuous
 62
     7
100
AcDbLine
 10
-55.93074
 20
-18.98349599999999
 30
0.0
 11
-55.93074
 21
5.340232399999998
 31
0.0
  0
LINE
  5
1E8
330
6CE
100
AcDbEntity
  8
0
  6
Continuous
 62
     7
100
AcDbLine
 10
-200.73074
 20
19.34023299999999
 30
0.0
 11
-200.73074
 21
37.040234
 31
0.0
  0
LINE
  5
1E9
330
6CE
100
AcDbEntity
  8
0
  6
Continuous
 62
     7
100
AcDbLine
 10
-202.63075
 20
205.34023
 30
0.0
 11
-200.33075
 21
205.34023
 31
0.0
  0
LINE
  5
1EA
330
6CE
100
AcDbEntity
  8
0
  6
Continuous
 62
     7
100
AcDbLine
 10
-200.33075
 20
194.3402299999999
 30
0.0
 11
-200.33075
 21
205.34023
 31
0.0
  0
LINE
  5
1EB
330
6CE
100
AcDbEntity
  8
0
  6
Continuous
 62
     7
100
AcDbLine
 10
-202.63075
 20
194.4928899999999
 30
0.0
 11
-202.63075
 21
205.34023
 31
0.0
  0
LINE
  5
1EC
330
6CE
100
AcDbEntity
  8
0
  6
CENTER
 62
     7
100
AcDbLine
 10
-205.2326499999999
 20
180.3402299999999
 30
0.0
 11
-193.28319
 21
180.3402299999999
 31
0.0
  0
LINE
  5
1ED
330
6CE
100
AcDbEntity
  8
0
  6
Continuous
 62
     7
100
AcDbLine
 10
-200.33075
 20
194.3402299999999
 30
0.0
 11
-200.73074
 21
191.34024
 31
0.0
  0
LINE
  5
1EE
330
6CE
100
AcDbEntity
  8
0
  6
Continuous
 62
     7
100
AcDbLine
 10
-202.63075
 20
194.4928899999999
 30
0.0
 11
-203.03075
 21
191.4928899999999
 31
0.0
  0
LINE
  5
1EF
330
6CE
100
AcDbEntity
  8
0
  6
Continuous
 62
     7
100
AcDbLine
 10
-203.03075
 20
173.6402299999998
 30
0.0
 11
-203.03075
 21
191.4928899999999
 31
0.0
  0
LINE
  5
1F0
330
6CE
100
AcDbEntity
  8
0
  6
CENTER
 62
     7
100
AcDbLine
 10
-205.2326499999999
 20
200.3402299999999
 30
0.0
 11
-193.28319
 21
200.3402299999999
 31
0.0
  0
LINE
  5
1F1
330
6CE
100
AcDbEntity
  8
0
  6
Continuous
 62
     7
100
AcDbLine
 10
-202.63075
 20
5.340232399999998
 30
0.0
 11
-200.33075
 21
5.340232399999998
 31
0.0
  0
LINE
  5
1F2
330
6CE
100
AcDbEntity
  8
0
  6
Continuous
 62
     7
100
AcDbLine
 10
-200.33075
 20
16.34023299999999
 30
0.0
 11
-200.33075
 21
5.340232399999998
 31
0.0
  0
LINE
  5
1F3
330
6CE
100
AcDbEntity
  8
0
  6
Continuous
 62
     7
100
AcDbLine
 10
-202.63075
 20
16.18757399999999
 30
0.0
 11
-202.63075
 21
5.340232399999998
 31
0.0
  0
LINE
  5
1F4
330
6CE
100
AcDbEntity
  8
0
  6
CENTER
 62
     7
100
AcDbLine
 10
-205.2326499999999
 20
10.340232
 30
0.0
 11
-193.28319
 21
10.340232
 31
0.0
  0
LINE
  5
1F5
330
6CE
100
AcDbEntity
  8
0
  6
CENTER
 62
     7
100
AcDbLine
 10
-205.2326499999999
 20
30.340233
 30
0.0
 11
-193.28319
 21
30.340233
 31
0.0
  0
LINE
  5
1F6
330
6CE
100
AcDbEntity
  8
0
  6
Continuous
 62
     7
100
AcDbLine
 10
-200.3307299999999
 20
16.340235
 30
0.0
 11
-200.73074
 21
19.340235
 31
0.0
  0
LINE
  5
1F7
330
6CE
100
AcDbEntity
  8
0
  6
Continuous
 62
     7
100
AcDbLine
 10
-202.6307399999998
 20
16.18757399999999
 30
0.0
 11
-203.03075
 21
19.187576
 31
0.0
  0
LINE
  5
1F8
330
6CE
100
AcDbEntity
  8
0
  6
Continuous
 62
     7
100
AcDbLine
 10
-294.7307399999999
 20
171.34023
 30
0.0
 11
-294.7307399999999
 21
39.34023299999999
 31
0.0
  0
LINE
  5
1F9
330
6CE
100
AcDbEntity
  8
0
  6
Continuous
 62
     7
100
AcDbLine
 10
-292.43076
 20
39.34023299999999
 30
0.0
 11
-203.03075
 21
39.34023299999999
 31
0.0
  0
LINE
  5
1FA
330
6CE
100
AcDbEntity
  8
0
  6
Continuous
 62
     7
100
AcDbLine
 10
-292.43076
 20
171.34023
 30
0.0
 11
-203.03075
 21
171.34023
 31
0.0
  0
LINE
  5
1FB
330
6CE
100
AcDbEntity
  8
0
  6
Continuous
 62
     7
100
AcDbLine
 10
-292.43076
 20
173.6402299999998
 30
0.0
 11
-203.03075
 21
173.6402299999998
 31
0.0
  0
LINE
  5
1FC
330
6CE
100
AcDbEntity
  8
0
  6
Continuous
 62
     7
100
AcDbLine
 10
-292.43076
 20
171.34023
 30
0.0
 11
-292.43076
 21
39.34023299999999
 31
0.0
  0
LINE
  5
1FD
330
6CE
100
AcDbEntity
  8
0
  6
Continuous
 62
     7
100
AcDbLine
 10
-292.43076
 20
37.040234
 30
0.0
 11
-203.03075
 21
37.040234
 31
0.0
  0
LINE
  5
1FE
330
6CE
100
AcDbEntity
  8
0
  6
Continuous
 62
     7
100
AcDbLine
 10
-200.73074
 20
173.6402299999998
 30
0.0
 11
-200.73074
 21
191.3402299999999
 31
0.0
  0
LINE
  5
1FF
330
6CE
100
AcDbEntity
  8
0
  6
Continuous
 62
     7
100
AcDbLine
 10
-203.03075
 20
19.18757399999999
 30
0.0
 11
-203.03075
 21
37.040234
 31
0.0
  0
LINE
  5
200
330
6CE
100
AcDbEntity
  8
0
  6
Continuous
 62
     7
100
AcDbLine
 10
-203.0307599999999
 20
175.94025
 30
0.0
 11
-205.3307499999998
 21
173.6402399999998
 31
0.0
  0
LINE
  5
201
330
6CE
100
AcDbEntity
  8
0
  6
Continuous
 62
     7
100
AcDbLine
 10
-290.1307399999998
 20
171.3402399999999
 30
0.0
 11
-292.43076
 21
169.0402399999999
 31
0.0
  0
LINE
  5
202
330
6CE
100
AcDbEntity
  8
0
  6
Continuous
 62
     7
100
AcDbLine
 10
-292.43076
 20
41.64023199999999
 30
0.0
 11
-290.1307399999998
 21
39.340237
 31
0.0
  0
LINE
  5
203
330
6CE
100
AcDbEntity
  8
0
  6
Continuous
 62
     7
100
AcDbLine
 10
-205.3307499999998
 20
37.04023
 30
0.0
 11
-203.03075
 21
34.740234
 31
0.0
  0
LINE
  5
204
330
6CE
100
AcDbEntity
  8
0
  6
Continuous
 62
     7
100
AcDbLine
 10
-262.43076
 20
130.3402299999999
 30
0.0
 11
-270.43076
 21
130.3402299999999
 31
0.0
  0
LINE
  5
205
330
6CE
100
AcDbEntity
  8
0
  6
Continuous
 62
     7
100
AcDbLine
 10
-63.253742
 20
-18.98349599999999
 30
0.0
 11
-63.253742
 21
5.340232399999998
 31
0.0
  0
LINE
  5
206
330
6CE
100
AcDbEntity
  8
0
  6
Continuous
 62
     7
100
AcDbLine
 10
-263.1077599999999
 20
129.3402299999999
 30
0.0
 11
-263.1077599999999
 21
129.66324
 31
0.0
  0
LINE
  5
207
330
6CE
100
AcDbEntity
  8
0
  6
Continuous
 62
     7
100
AcDbLine
 10
-269.75375
 20
129.3402299999999
 30
0.0
 11
-269.75375
 21
129.66324
 31
0.0
  0
LINE
  5
208
330
6CE
100
AcDbEntity
  8
0
  6
Continuous
 62
     7
100
AcDbLine
 10
-263.1077599999999
 20
129.66324
 30
0.0
 11
-269.75375
 21
129.66324
 31
0.0
  0
LINE
  5
209
330
6CE
100
AcDbEntity
  8
0
  6
Continuous
 62
     7
100
AcDbLine
 10
-263.1077599999999
 20
129.6632199999999
 30
0.0
 11
-262.43076
 21
130.3402299999999
 31
0.0
  0
LINE
  5
20A
330
6CE
100
AcDbEntity
  8
0
  6
Continuous
 62
     7
100
AcDbLine
 10
-270.43076
 20
130.3402399999999
 30
0.0
 11
-269.75375
 21
129.6632199999999
 31
0.0
  0
LINE
  5
20B
330
6CE
100
AcDbEntity
  8
0
  6
Continuous
 62
     7
100
AcDbLine
 10
-273.93076
 20
23.040232
 30
0.0
 11
-273.93076
 21
37.040234
 31
0.0
  0
LINE
  5
20C
330
6CE
100
AcDbEntity
  8
0
  6
Continuous
 62
     7
100
AcDbLine
 10
-258.93076
 20
23.040232
 30
0.0
 11
-258.93076
 21
37.040234
 31
0.0
  0
LINE
  5
20D
330
6CE
100
AcDbEntity
  8
0
  6
Continuous
 62
     7
100
AcDbLine
 10
-273.93076
 20
23.040232
 30
0.0
 11
-258.93076
 21
23.040232
 31
0.0
  0
LINE
  5
20E
330
6CE
100
AcDbEntity
  8
0
  6
Continuous
 62
     7
100
AcDbLine
 10
-270.43076
 20
40.340233
 30
0.0
 11
-270.43076
 21
91.340233
 31
0.0
  0
LINE
  5
20F
330
6CE
100
AcDbEntity
  8
0
  6
Continuous
 62
     7
100
AcDbLine
 10
-269.75375
 20
40.340233
 30
0.0
 11
-269.75375
 21
91.340233
 31
0.0
  0
LINE
  5
210
330
6CE
100
AcDbEntity
  8
0
  6
Continuous
 62
     7
100
AcDbLine
 10
-56.607742
 20
-18.98349599999999
 30
0.0
 11
-56.607742
 21
5.340232399999998
 31
0.0
  0
LINE
  5
211
330
6CE
100
AcDbEntity
  8
0
  6
Continuous
 62
     7
100
AcDbLine
 10
-262.43076
 20
40.340233
 30
0.0
 11
-262.43076
 21
91.340233
 31
0.0
  0
LINE
  5
212
330
6CE
100
AcDbEntity
  8
0
  6
Continuous
 62
     7
100
AcDbLine
 10
-263.1077599999999
 20
40.340233
 30
0.0
 11
-263.1077599999999
 21
91.340233
 31
0.0
  0
LINE
  5
213
330
6CE
100
AcDbEntity
  8
0
  6
Continuous
 62
     7
100
AcDbLine
 10
-272.93076
 20
40.340233
 30
0.0
 11
-259.93076
 21
40.340233
 31
0.0
  0
LINE
  5
214
330
6CE
100
AcDbEntity
  8
0
  6
Continuous
 62
     7
100
AcDbLine
 10
-272.93076
 20
170.34023
 30
0.0
 11
-259.93076
 21
170.34023
 31
0.0
  0
LINE
  5
215
330
6CE
100
AcDbEntity
  8
0
  6
Continuous
 62
     7
100
AcDbLine
 10
-258.93076
 20
187.64023
 30
0.0
 11
-258.93076
 21
173.6402299999998
 31
0.0
  0
LINE
  5
216
330
6CE
100
AcDbEntity
  8
0
  6
Continuous
 62
     7
100
AcDbLine
 10
-273.93076
 20
187.64023
 30
0.0
 11
-273.93076
 21
173.6402299999998
 31
0.0
  0
LINE
  5
217
330
6CE
100
AcDbEntity
  8
0
  6
Continuous
 62
     7
100
AcDbLine
 10
-273.93076
 20
187.64023
 30
0.0
 11
-258.93076
 21
187.64023
 31
0.0
  0
LINE
  5
218
330
6CE
100
AcDbEntity
  8
0
  6
Continuous
 62
     7
100
AcDbLine
 10
-270.43076
 20
187.64023
 30
0.0
 11
-270.43076
 21
229.66396
 31
0.0
  0
LINE
  5
219
330
6CE
100
AcDbEntity
  8
0
  6
Continuous
 62
     7
100
AcDbLine
 10
-262.43076
 20
187.64023
 30
0.0
 11
-262.43076
 21
229.66396
 31
0.0
  0
LINE
  5
21A
330
6CE
100
AcDbEntity
  8
0
  6
Continuous
 62
     7
100
AcDbLine
 10
-74.93074
 20
5.340232399999998
 30
0.0
 11
-44.93074
 21
5.340232399999998
 31
0.0
  0
LINE
  5
21B
330
6CE
100
AcDbEntity
  8
0
  6
Continuous
 62
     7
100
AcDbLine
 10
-74.93074
 20
5.340232399999998
 30
0.0
 11
-74.93074
 21
205.34023
 31
0.0
  0
LINE
  5
21C
330
6CE
100
AcDbEntity
  8
0
  6
Continuous
 62
     7
100
AcDbLine
 10
-44.93074
 20
5.340232399999998
 30
0.0
 11
-44.93074
 21
205.34023
 31
0.0
  0
LINE
  5
21D
330
6CE
100
AcDbEntity
  8
0
  6
PHANTOM
 62
     7
100
AcDbLine
 10
-200.33075
 20
20.34023499999999
 30
0.0
 11
-200.33075
 21
-18.98349599999999
 31
0.0
  0
LINE
  5
21E
330
6CE
100
AcDbEntity
  8
0
  6
PHANTOM
 62
     7
100
AcDbLine
 10
-198.4307599999999
 20
20.34023499999999
 30
0.0
 11
-198.4307599999999
 21
-18.98349599999999
 31
0.0
  0
LINE
  5
21F
330
6CE
100
AcDbEntity
  8
0
  6
PHANTOM
 62
     7
100
AcDbLine
 10
-196.4307599999999
 20
20.34023499999999
 30
0.0
 11
-196.4307599999999
 21
-18.98349599999999
 31
0.0
  0
LINE
  5
220
330
6CE
100
AcDbEntity
  8
0
  6
Continuous
 62
     7
100
AcDbLine
 10
-269.75375
 20
-18.98349599999999
 30
0.0
 11
-269.75375
 21
23.040232
 31
0.0
  0
LINE
  5
221
330
6CE
100
AcDbEntity
  8
0
  6
Continuous
 62
     7
100
AcDbLine
 10
-270.43076
 20
-18.98349599999999
 30
0.0
 11
-270.43076
 21
23.040232
 31
0.0
  0
LINE
  5
222
330
6CE
100
AcDbEntity
  8
0
  6
Continuous
 62
     7
100
AcDbLine
 10
-263.1077599999999
 20
-18.98349599999999
 30
0.0
 11
-263.1077599999999
 21
23.040232
 31
0.0
  0
LINE
  5
223
330
6CE
100
AcDbEntity
  8
0
  6
Continuous
 62
     7
100
AcDbLine
 10
-262.43076
 20
-18.98349599999999
 30
0.0
 11
-262.43076
 21
23.040232
 31
0.0
  0
LINE
  5
224
330
6CE
100
AcDbEntity
  8
0
  6
Continuous
 62
     7
100
AcDbLine
 10
-74.93074
 20
19.34023299999999
 30
0.0
 11
-44.93074
 21
19.34023299999999
 31
0.0
  0
LINE
  5
225
330
6CE
100
AcDbEntity
  8
0
  6
Continuous
 62
     7
100
AcDbLine
 10
-74.93074
 20
16.34023299999999
 30
0.0
 11
-44.93074
 21
16.34023299999999
 31
0.0
  0
LINE
  5
226
330
6CE
100
AcDbEntity
  8
0
  6
CENTER
 62
     7
100
AcDbLine
 10
-64.20534499999999
 20
65.340233
 30
0.0
 11
-55.87453499999998
 21
65.340233
 31
0.0
  0
LINE
  5
227
330
6CE
100
AcDbEntity
  8
0
  6
CENTER
 62
     7
100
AcDbLine
 10
-69.93074
 20
5.340232399999998
 30
0.0
 11
-69.93074
 21
14.730185
 31
0.0
  0
LINE
  5
228
330
6CE
100
AcDbEntity
  8
0
  6
CENTER
 62
     7
100
AcDbLine
 10
-49.93074
 20
5.340232399999998
 30
0.0
 11
-49.93074
 21
14.47773599999999
 31
0.0
  0
LINE
  5
229
330
6CE
100
AcDbEntity
  8
0
  6
CENTER
 62
     7
100
AcDbLine
 10
-53.75699599999999
 20
10.340232
 30
0.0
 11
-45.931087
 21
10.340232
 31
0.0
  0
LINE
  5
22A
330
6CE
100
AcDbEntity
  8
0
  6
Continuous
 62
     7
100
AcDbLine
 10
-74.93074
 20
39.34023299999999
 30
0.0
 11
-72.43074
 21
39.34023299999999
 31
0.0
  0
LINE
  5
22B
330
6CE
100
AcDbEntity
  8
0
  6
Continuous
 62
     7
100
AcDbLine
 10
-47.43074
 20
39.34023299999999
 30
0.0
 11
-44.93074
 21
39.34023299999999
 31
0.0
  0
LINE
  5
22C
330
6CE
100
AcDbEntity
  8
0
  6
CENTER
 62
     7
100
AcDbLine
 10
-49.93074
 20
205.34023
 30
0.0
 11
-49.93074
 21
196.20273
 31
0.0
  0
LINE
  5
22D
330
6CE
100
AcDbEntity
  8
0
  6
CENTER
 62
     7
100
AcDbLine
 10
-53.75699599999999
 20
200.3402299999999
 30
0.0
 11
-45.931087
 21
200.3402299999999
 31
0.0
  0
LINE
  5
22E
330
6CE
100
AcDbEntity
  8
0
  6
CENTER
 62
     7
100
AcDbLine
 10
-74.20534499999998
 20
200.3402299999999
 30
0.0
 11
-65.87453499999999
 21
200.3402299999999
 31
0.0
  0
LINE
  5
22F
330
6CE
100
AcDbEntity
  8
0
  6
CENTER
 62
     7
100
AcDbLine
 10
-69.93074
 20
205.34023
 30
0.0
 11
-69.93074
 21
195.95029
 31
0.0
  0
LINE
  5
230
330
6CE
100
AcDbEntity
  8
0
  6
Continuous
 62
     7
100
AcDbLine
 10
-74.93074
 20
191.3402299999999
 30
0.0
 11
-44.93074
 21
191.3402299999999
 31
0.0
  0
LINE
  5
231
330
6CE
100
AcDbEntity
  8
0
  6
Continuous
 62
     7
100
AcDbLine
 10
-74.93074
 20
194.3402299999999
 30
0.0
 11
-44.93074
 21
194.3402299999999
 31
0.0
  0
LINE
  5
232
330
6CE
100
AcDbEntity
  8
0
  6
Continuous
 62
     7
100
AcDbLine
 10
-74.93074
 20
171.34023
 30
0.0
 11
-72.43074
 21
171.34023
 31
0.0
  0
LINE
  5
233
330
6CE
100
AcDbEntity
  8
0
  6
Continuous
 62
     7
100
AcDbLine
 10
-47.43074
 20
190.3402299999999
 30
0.0
 11
-72.43074
 21
190.3402299999999
 31
0.0
  0
LINE
  5
234
330
6CE
100
AcDbEntity
  8
0
  6
Continuous
 62
     7
100
AcDbLine
 10
-74.93074
 20
205.34023
 30
0.0
 11
-44.93074
 21
205.34023
 31
0.0
  0
LINE
  5
235
330
6CE
100
AcDbEntity
  8
0
  6
CENTER
 62
     7
100
AcDbLine
 10
-54.979446
 20
165.3402299999999
 30
0.0
 11
-65.43074
 21
165.3402299999999
 31
0.0
  0
LINE
  5
236
330
6CE
100
AcDbEntity
  8
0
  6
Continuous
 62
     7
100
AcDbLine
 10
-47.43074
 20
171.34023
 30
0.0
 11
-44.93074
 21
171.34023
 31
0.0
  0
LINE
  5
237
330
6CE
100
AcDbEntity
  8
0
  6
Continuous
 62
     7
100
AcDbLine
 10
-63.93074
 20
229.66396
 30
0.0
 11
-63.93074
 21
205.34023
 31
0.0
  0
LINE
  5
238
330
6CE
100
AcDbEntity
  8
0
  6
Continuous
 62
     7
100
AcDbLine
 10
-55.93074
 20
229.66396
 30
0.0
 11
-55.93074
 21
205.34023
 31
0.0
  0
LINE
  5
239
330
6CE
100
AcDbEntity
  8
0
  6
PHANTOM
 62
     7
100
AcDbLine
 10
-196.4307599999999
 20
190.3402299999999
 30
0.0
 11
-196.4307599999999
 21
229.66396
 31
0.0
  0
LINE
  5
23A
330
6CE
100
AcDbEntity
  8
0
  6
PHANTOM
 62
     7
100
AcDbLine
 10
-200.33075
 20
190.3402299999999
 30
0.0
 11
-200.33075
 21
229.66396
 31
0.0
  0
LINE
  5
23B
330
6CE
100
AcDbEntity
  8
0
  6
PHANTOM
 62
     7
100
AcDbLine
 10
-198.4307599999999
 20
190.3402299999999
 30
0.0
 11
-198.4307599999999
 21
229.66396
 31
0.0
  0
LINE
  5
23C
330
6CE
100
AcDbEntity
  8
0
  6
DASHED
 62
     7
100
AcDbLine
 10
-202.63075
 20
202.8402299999999
 30
0.0
 11
-200.33075
 21
202.8402299999999
 31
0.0
  0
LINE
  5
23D
330
6CE
100
AcDbEntity
  8
0
  6
DASHED
 62
     7
100
AcDbLine
 10
-202.63075
 20
202.4072299999999
 30
0.0
 11
-200.33075
 21
202.4072299999999
 31
0.0
  0
LINE
  5
23E
330
6CE
100
AcDbEntity
  8
0
  6
DASHED
 62
     7
100
AcDbLine
 10
-202.63075
 20
197.8402299999999
 30
0.0
 11
-200.33075
 21
197.8402299999999
 31
0.0
  0
LINE
  5
23F
330
6CE
100
AcDbEntity
  8
0
  6
DASHED
 62
     7
100
AcDbLine
 10
-202.63075
 20
198.2732399999999
 30
0.0
 11
-200.33075
 21
198.2732399999999
 31
0.0
  0
LINE
  5
240
330
6CE
100
AcDbEntity
  8
0
  6
DASHED
 62
     7
100
AcDbLine
 10
-202.63075
 20
12.840232
 30
0.0
 11
-200.33075
 21
12.840232
 31
0.0
  0
LINE
  5
241
330
6CE
100
AcDbEntity
  8
0
  6
DASHED
 62
     7
100
AcDbLine
 10
-202.63075
 20
12.407232
 30
0.0
 11
-200.33075
 21
12.407232
 31
0.0
  0
LINE
  5
242
330
6CE
100
AcDbEntity
  8
0
  6
CENTER
 62
     7
100
AcDbLine
 10
-74.20534499999998
 20
10.340232
 30
0.0
 11
-65.87453499999999
 21
10.340232
 31
0.0
  0
LINE
  5
243
330
6CE
100
AcDbEntity
  8
0
  6
CENTER
 62
     7
100
AcDbLine
 10
-47.43074
 20
180.3402299999999
 30
0.0
 11
-72.43074
 21
180.3402299999999
 31
0.0
  0
ARC
  5
2BB
330
6CE
100
AcDbEntity
  8
0
  6
Continuous
 62
     7
100
AcDbCircle
 10
-60.553741
 20
108.3363399999998
 30
0.0
 40
0.45731252
100
AcDbArc
 50
157.8497699999998
 51
249.86206
  0
ARC
  5
2BC
330
6CE
100
AcDbEntity
  8
0
  6
Continuous
 62
     7
100
AcDbCircle
 10
-61.40428199999998
 20
108.2919399999999
 30
0.0
 40
0.91462505
100
AcDbArc
 50
157.8497999999999
 51
247.84981
  0
ARC
  5
2BD
330
6CE
100
AcDbEntity
  8
0
  6
Continuous
 62
     7
100
AcDbCircle
 10
-60.923248
 20
111.04902
 30
0.0
 40
3.6976447
100
AcDbArc
 50
257.09413
 51
282.3254799999999
  0
ARC
  5
2BE
330
6CE
100
AcDbEntity
  8
0
  6
Continuous
 62
     7
100
AcDbCircle
 10
-60.505768
 20
109.4174399999999
 30
0.0
 40
1.524386599999999
100
AcDbArc
 50
262.25529
 51
294.54357
  0
ARC
  5
2BF
330
6CE
100
AcDbEntity
  8
0
  6
Continuous
 62
     7
100
AcDbCircle
 10
-58.87156700000002
 20
110.54496
 30
0.0
 40
0.045731254
100
AcDbArc
 50
337.84987
 51
85.68752399999999
  0
ARC
  5
2C0
330
6CE
100
AcDbEntity
  8
0
  6
Continuous
 62
     7
100
AcDbCircle
 10
-60.08322099999999
 20
110.58375
 30
0.0
 40
0.045731254
100
AcDbArc
 50
90.612022
 51
157.84988
  0
ARC
  5
2C1
330
6CE
100
AcDbEntity
  8
0
  6
Continuous
 62
     7
100
AcDbCircle
 10
-59.910538
 20
108.11401
 30
0.0
 40
0.091462508
100
AcDbArc
 50
294.5432399999999
 51
337.84971
  0
ARC
  5
2C2
330
6CE
100
AcDbEntity
  8
0
  6
Continuous
 62
     7
100
AcDbCircle
 10
-60.12808199999999
 20
107.4097999999999
 30
0.0
 40
0.027438752
100
AcDbArc
 50
337.8500599999999
 51
102.32275
  0
ARC
  5
2C3
330
6CE
100
AcDbEntity
  8
0
  6
Continuous
 62
     7
100
AcDbCircle
 10
-61.517212
 20
110.51324
 30
0.0
 40
0.027438752
100
AcDbArc
 50
337.8498200000001
 51
96.55938200000001
  0
ARC
  5
2C4
330
6CE
100
AcDbEntity
  8
0
  6
Continuous
 62
     7
100
AcDbCircle
 10
-62.879868
 20
110.2780499999998
 30
0.0
 40
0.027438752
100
AcDbArc
 50
103.29128
 51
157.8481899999998
  0
ARC
  5
2C5
330
6CE
100
AcDbEntity
  8
0
  6
Continuous
 62
     7
100
AcDbCircle
 10
-64.489929
 20
109.72625
 30
0.0
 40
0.027438752
100
AcDbArc
 50
337.8490499999999
 51
115.82871
  0
ARC
  5
2C6
330
6CE
100
AcDbEntity
  8
0
  6
Continuous
 62
     7
100
AcDbCircle
 10
-63.323456
 20
105.93052
 30
0.0
 40
0.027438752
100
AcDbArc
 50
157.8497199999999
 51
254.01616
  0
ARC
  5
2C7
330
6CE
100
AcDbEntity
  8
0
  6
Continuous
 62
     7
100
AcDbCircle
 10
-64.52447499999999
 20
106.3835699999999
 30
0.0
 40
0.027438752
100
AcDbArc
 50
243.7816
 51
337.8497499999999
  0
ARC
  5
2C8
330
6CE
100
AcDbEntity
  8
0
  6
Continuous
 62
     7
100
AcDbCircle
 10
-64.894318
 20
107.1003
 30
0.0
 40
0.64023751
100
AcDbArc
 50
337.8497499999999
 51
22.150247
  0
ARC
  5
2C9
330
6CE
100
AcDbEntity
  8
0
  6
Continuous
 62
     7
100
AcDbCircle
 10
-55.728729
 20
107.3147999999999
 30
0.0
 40
0.64023751
100
AcDbArc
 50
337.8497499999999
 51
22.15026799999999
  0
ARC
  5
2CA
330
6CE
100
AcDbEntity
  8
0
  6
Continuous
 62
     7
100
AcDbCircle
 10
-55.00932299999998
 20
108.94372
 30
0.0
 40
0.64023751
100
AcDbArc
 50
157.8497699999998
 51
202.15019
  0
ARC
  5
2CB
330
6CE
100
AcDbEntity
  8
0
  6
Continuous
 62
     7
100
AcDbCircle
 10
-63.568115
 20
107.1003
 30
0.0
 40
0.64023751
100
AcDbArc
 50
337.8497499999999
 51
22.15026799999999
  0
ARC
  5
2CC
330
6CE
100
AcDbEntity
  8
0
  6
Continuous
 62
     7
100
AcDbCircle
 10
-62.848709
 20
108.7292399999999
 30
0.0
 40
0.64023751
100
AcDbArc
 50
157.8497699999998
 51
202.15019
  0
ARC
  5
2CD
330
6CE
100
AcDbEntity
  8
0
  6
Continuous
 62
     7
100
AcDbCircle
 10
-57.05496199999998
 20
107.3147999999999
 30
0.0
 40
0.64023751
100
AcDbArc
 50
337.8497499999999
 51
22.15026799999999
  0
ARC
  5
2CE
330
6CE
100
AcDbEntity
  8
0
  6
Continuous
 62
     7
100
AcDbCircle
 10
-56.33555600000001
 20
108.94372
 30
0.0
 40
0.64023751
100
AcDbArc
 50
157.8497699999998
 51
202.15019
  0
ARC
  5
2CF
330
6CE
100
AcDbEntity
  8
0
  6
Continuous
 62
     7
100
AcDbCircle
 10
-60.896179
 20
105.52293
 30
0.0
 40
0.027438752
100
AcDbArc
 50
266.08607
 51
337.85005
  0
ARC
  5
2D0
330
6CE
100
AcDbEntity
  8
0
  6
Continuous
 62
     7
100
AcDbCircle
 10
-57.528488
 20
110.3923399999999
 30
0.0
 40
0.027438752
100
AcDbArc
 50
79.626858
 51
157.84956
  0
ARC
  5
2D1
330
6CE
100
AcDbEntity
  8
0
  6
Continuous
 62
     7
100
AcDbCircle
 10
-56.55798299999999
 20
110.16813
 30
0.0
 40
0.027438752
100
AcDbArc
 50
337.85005
 51
74.143466
  0
ARC
  5
2D2
330
6CE
100
AcDbEntity
  8
0
  6
Continuous
 62
     7
100
AcDbCircle
 10
-59.521698
 20
105.49596
 30
0.0
 40
0.027438752
100
AcDbArc
 50
157.84906
 51
271.6438099999999
  0
ARC
  5
2D3
330
6CE
100
AcDbEntity
  8
0
  6
Continuous
 62
     7
100
AcDbCircle
 10
-57.00622599999999
 20
105.80912
 30
0.0
 40
0.027438752
100
AcDbArc
 50
283.14774
 51
337.84866
  0
ARC
  5
2D4
330
6CE
100
AcDbEntity
  8
0
  6
Continuous
 62
     7
100
AcDbCircle
 10
-55.39923100000001
 20
106.3533999999998
 30
0.0
 40
0.027438752
100
AcDbArc
 50
157.85176
 51
295.5131899999999
  0
ARC
  5
2D5
330
6CE
100
AcDbEntity
  8
0
  6
Continuous
 62
     7
100
AcDbCircle
 10
-55.355576
 20
109.7185099999999
 30
0.0
 40
0.027438752
100
AcDbArc
 50
63.990137
 51
157.84906
  0
ARC
  5
2D6
330
6CE
100
AcDbEntity
  8
0
  6
Continuous
 62
     7
100
AcDbCircle
 10
-64.273666
 20
108.7292399999999
 30
0.0
 40
0.54877508
100
AcDbArc
 50
157.84974
 51
202.15024
  0
ARC
  5
2D7
330
6CE
100
AcDbEntity
  8
0
  6
Continuous
 62
     7
100
AcDbCircle
 10
-64.34532199999999
 20
103.82088
 30
0.0
 40
1.1707201
100
AcDbArc
 50
270.00002
 51
0.0
  0
ARC
  5
2D8
330
6CE
100
AcDbEntity
  8
0
  6
Continuous
 62
     7
100
AcDbCircle
 10
-64.71118199999999
 20
103.82088
 30
0.0
 40
0.7804800300000001
100
AcDbArc
 50
270.00002
 51
0.0
  0
ARC
  5
2D9
330
6CE
100
AcDbEntity
  8
0
  6
Continuous
 62
     7
100
AcDbCircle
 10
-61.22341899999999
 20
104.3086699999999
 30
0.0
 40
0.24390002
100
AcDbArc
 50
0.0
 51
89.99998199999996
  0
ARC
  5
2DA
330
6CE
100
AcDbEntity
  8
0
  6
Continuous
 62
     7
100
AcDbCircle
 10
-60.345383
 20
104.4550199999999
 30
0.0
 40
0.097560003
100
AcDbArc
 50
0.0
 51
89.99998199999996
  0
ARC
  5
2DB
330
6CE
100
AcDbEntity
  8
0
  6
Continuous
 62
     7
100
AcDbCircle
 10
-61.75999499999999
 20
103.82088
 30
0.0
 40
0.7804800300000001
100
AcDbArc
 50
270.00002
 51
0.0
  0
ARC
  5
2DC
330
6CE
100
AcDbEntity
  8
0
  6
Continuous
 62
     7
100
AcDbCircle
 10
-60.613663
 20
105.0403799999999
 30
0.0
 40
0.048780002
100
AcDbArc
 50
89.99998199999996
 51
179.9999599999999
  0
ARC
  5
2DD
330
6CE
100
AcDbEntity
  8
0
  6
Continuous
 62
     7
100
AcDbCircle
 10
-60.29659999999999
 20
105.0403799999999
 30
0.0
 40
0.048780002
100
AcDbArc
 50
0.0
 51
89.99998199999996
  0
ARC
  5
2DE
330
6CE
100
AcDbEntity
  8
0
  6
Continuous
 62
     7
100
AcDbCircle
 10
-60.613663
 20
104.7232999999999
 30
0.0
 40
0.048780002
100
AcDbArc
 50
179.9999799999999
 51
270.0000299999999
  0
ARC
  5
2DF
330
6CE
100
AcDbEntity
  8
0
  6
Continuous
 62
     7
100
AcDbCircle
 10
-60.29659999999999
 20
104.7232999999999
 30
0.0
 40
0.048780002
100
AcDbArc
 50
270.00002
 51
0.0
  0
ARC
  5
2E0
330
6CE
100
AcDbEntity
  8
0
  6
Continuous
 62
     7
100
AcDbCircle
 10
-60.052689
 20
105.0403799999999
 30
0.0
 40
0.048780002
100
AcDbArc
 50
89.99998199999996
 51
179.9999599999999
  0
ARC
  5
2E1
330
6CE
100
AcDbEntity
  8
0
  6
Continuous
 62
     7
100
AcDbCircle
 10
-59.73562600000001
 20
105.0403799999999
 30
0.0
 40
0.048780002
100
AcDbArc
 50
0.0
 51
89.99998199999996
  0
ARC
  5
2E2
330
6CE
100
AcDbEntity
  8
0
  6
Continuous
 62
     7
100
AcDbCircle
 10
-60.052689
 20
104.7232999999999
 30
0.0
 40
0.048780002
100
AcDbArc
 50
179.9999799999999
 51
270.0000299999999
  0
ARC
  5
2E3
330
6CE
100
AcDbEntity
  8
0
  6
Continuous
 62
     7
100
AcDbCircle
 10
-59.73562600000001
 20
104.7232999999999
 30
0.0
 40
0.048780002
100
AcDbArc
 50
270.00002
 51
0.0
  0
ARC
  5
2E4
330
6CE
100
AcDbEntity
  8
0
  6
Continuous
 62
     7
100
AcDbCircle
 10
-58.89550799999999
 20
104.0891599999998
 30
0.0
 40
0.024390001
100
AcDbArc
 50
144.0576199999999
 51
270.0
  0
ARC
  5
2E5
330
6CE
100
AcDbEntity
  8
0
  6
Continuous
 62
     7
100
AcDbCircle
 10
-59.00392199999998
 20
104.0309399999999
 30
0.0
 40
0.024390001
100
AcDbArc
 50
0.0
 51
108.43483
  0
ARC
  5
2E6
330
6CE
100
AcDbEntity
  8
0
  6
Continuous
 62
     7
100
AcDbCircle
 10
-58.24783299999999
 20
103.8696599999999
 30
0.0
 40
1.2195001
100
AcDbArc
 50
270.00002
 51
319.67978
  0
ARC
  5
2E7
330
6CE
100
AcDbEntity
  8
0
  6
Continuous
 62
     7
100
AcDbCircle
 10
-58.24783299999999
 20
103.8696599999999
 30
0.0
 40
1.2195001
100
AcDbArc
 50
342.8953799999998
 51
0.0
  0
ARC
  5
2E8
330
6CE
100
AcDbEntity
  8
0
  6
Continuous
 62
     7
100
AcDbCircle
 10
-57.272232
 20
104.69892
 30
0.0
 40
0.24390002
100
AcDbArc
 50
0.0
 51
89.99998199999996
  0
ARC
  5
2E9
330
6CE
100
AcDbEntity
  8
0
  6
Continuous
 62
     7
100
AcDbCircle
 10
-58.03875699999998
 20
103.42255
 30
0.0
 40
0.048780002
100
AcDbArc
 50
324.9136399999998
 51
58.57064799999998
  0
ARC
  5
2EA
330
6CE
100
AcDbEntity
  8
0
  6
Continuous
 62
     7
100
AcDbCircle
 10
-57.84590099999999
 20
103.84773
 30
0.0
 40
0.024390001
100
AcDbArc
 50
238.57029
 51
351.34866
  0
ARC
  5
2EB
330
6CE
100
AcDbEntity
  8
0
  6
Continuous
 62
     7
100
AcDbCircle
 10
-57.05896
 20
103.5038099999999
 30
0.0
 40
0.024390001
100
AcDbArc
 50
162.8947799999999
 51
270.0
  0
ARC
  5
2EC
330
6CE
100
AcDbEntity
  8
0
  6
Continuous
 62
     7
100
AcDbCircle
 10
-57.299438
 20
103.0647899999999
 30
0.0
 40
0.024390001
100
AcDbArc
 50
89.99998199999996
 51
139.67955
  0
ARC
  5
2ED
330
6CE
100
AcDbEntity
  8
0
  6
Continuous
 62
     7
100
AcDbCircle
 10
-58.275284
 20
103.96722
 30
0.0
 40
0.097560003
100
AcDbArc
 50
58.570354
 51
89.99998199999996
  0
ARC
  5
2EE
330
6CE
100
AcDbEntity
  8
0
  6
Continuous
 62
     7
100
AcDbCircle
 10
-58.38507100000001
 20
103.57698
 30
0.0
 40
0.097560003
100
AcDbArc
 50
58.570354
 51
89.99998199999996
  0
ARC
  5
2EF
330
6CE
100
AcDbEntity
  8
0
  6
Continuous
 62
     7
100
AcDbCircle
 10
-59.100494
 20
104.84525
 30
0.0
 40
0.097560003
100
AcDbArc
 50
89.99998199999996
 51
144.0579099999999
  0
ARC
  5
2F0
330
6CE
100
AcDbEntity
  8
0
  6
Continuous
 62
     7
100
AcDbCircle
 10
-59.62442
 20
104.4550199999999
 30
0.0
 40
0.097560003
100
AcDbArc
 50
270.00002
 51
324.0579
  0
ARC
  5
2F1
330
6CE
100
AcDbEntity
  8
0
  6
Continuous
 62
     7
100
AcDbCircle
 10
-58.53990200000001
 20
104.4550199999999
 30
0.0
 40
0.097560003
100
AcDbArc
 50
89.99998199999996
 51
144.0579099999999
  0
ARC
  5
2F2
330
6CE
100
AcDbEntity
  8
0
  6
Continuous
 62
     7
100
AcDbCircle
 10
-57.90637199999999
 20
104.4550199999999
 30
0.0
 40
0.097560003
100
AcDbArc
 50
0.0
 51
89.99998199999996
  0
ARC
  5
2F3
330
6CE
100
AcDbEntity
  8
0
  6
Continuous
 62
     7
100
AcDbCircle
 10
-59.35136400000001
 20
104.4550199999999
 30
0.0
 40
0.48780003
100
AcDbArc
 50
270.00002
 51
288.43495
  0
CIRCLE
  5
2F4
330
6CE
100
AcDbEntity
  8
0
  6
DASHED
 62
     7
100
AcDbCircle
 10
-66.93074
 20
30.34023499999999
 30
0.0
 40
2.25
  0
CIRCLE
  5
2F5
330
6CE
100
AcDbEntity
  8
0
  6
DASHED
 62
     7
100
AcDbCircle
 10
-66.93074
 20
30.34023499999999
 30
0.0
 40
4.25
  0
CIRCLE
  5
2F6
330
6CE
100
AcDbEntity
  8
0
  6
DASHED
 62
     7
100
AcDbCircle
 10
-52.93074
 20
30.34023499999999
 30
0.0
 40
4.25
  0
CIRCLE
  5
2F7
330
6CE
100
AcDbEntity
  8
0
  6
DASHED
 62
     7
100
AcDbCircle
 10
-52.93074
 20
30.34023499999999
 30
0.0
 40
2.25
  0
CIRCLE
  5
2F8
330
6CE
100
AcDbEntity
  8
0
  6
DASHED
 62
     7
100
AcDbCircle
 10
-52.93074
 20
180.3402299999999
 30
0.0
 40
4.25
  0
CIRCLE
  5
2F9
330
6CE
100
AcDbEntity
  8
0
  6
DASHED
 62
     7
100
AcDbCircle
 10
-52.93074
 20
180.3402299999999
 30
0.0
 40
2.25
  0
CIRCLE
  5
2FA
330
6CE
100
AcDbEntity
  8
0
  6
DASHED
 62
     7
100
AcDbCircle
 10
-66.93074
 20
180.3402299999999
 30
0.0
 40
4.25
  0
CIRCLE
  5
2FB
330
6CE
100
AcDbEntity
  8
0
  6
DASHED
 62
     7
100
AcDbCircle
 10
-66.93074
 20
180.3402299999999
 30
0.0
 40
2.25
  0
ARC
  5
2FC
330
6CE
100
AcDbEntity
  8
0
  6
Continuous
 62
     7
100
AcDbCircle
 10
-226.6307499999999
 20
150.3402399999998
 30
0.0
 40
2.549999999999998
100
AcDbArc
 50
270.0
 51
90.00000300000001
  0
ARC
  5
2FD
330
6CE
100
AcDbEntity
  8
0
  6
Continuous
 62
     7
100
AcDbCircle
 10
-226.6307499999999
 20
150.3402399999998
 30
0.0
 40
5.0
100
AcDbArc
 50
270.0
 51
90.00000300000001
  0
ARC
  5
2FE
330
6CE
100
AcDbEntity
  8
0
  6
Continuous
 62
     7
100
AcDbCircle
 10
-246.2307399999999
 20
150.3402399999998
 30
0.0
 40
5.0
100
AcDbArc
 50
89.99998900000001
 51
270.0
  0
ARC
  5
2FF
330
6CE
100
AcDbEntity
  8
0
  6
Continuous
 62
     7
100
AcDbCircle
 10
-246.2307399999999
 20
150.3402399999998
 30
0.0
 40
2.549999999999998
100
AcDbArc
 50
89.99998900000001
 51
270.0
  0
CIRCLE
  5
300
330
6CE
100
AcDbEntity
  8
0
  6
Continuous
 62
     7
100
AcDbCircle
 10
-59.93074
 20
165.3402299999999
 30
0.0
 40
3.25
  0
CIRCLE
  5
301
330
6CE
100
AcDbEntity
  8
0
  6
Continuous
 62
     7
100
AcDbCircle
 10
-59.93074
 20
65.340233
 30
0.0
 40
3.25
  0
CIRCLE
  5
302
330
6CE
100
AcDbEntity
  8
0
  6
Continuous
 62
     7
100
AcDbCircle
 10
-245.4307599999999
 20
64.840233
 30
0.0
 40
2.599999899999998
  0
CIRCLE
  5
303
330
6CE
100
AcDbEntity
  8
0
  6
Continuous
 62
     7
100
AcDbCircle
 10
-236.4307399999999
 20
133.3402399999999
 30
0.0
 40
2.599999899999998
  0
ARC
  5
304
330
6CE
100
AcDbEntity
  8
0
  6
Continuous
 62
     7
100
AcDbCircle
 10
-234.23074
 20
52.340233
 30
0.0
 40
2.549999999999998
100
AcDbArc
 50
180.00001
 51
0.0
  0
ARC
  5
305
330
6CE
100
AcDbEntity
  8
0
  6
Continuous
 62
     7
100
AcDbCircle
 10
-234.23074
 20
77.340233
 30
0.0
 40
2.549999999999998
100
AcDbArc
 50
0.0
 51
180.00001
  0
CIRCLE
  5
306
330
6CE
100
AcDbEntity
  8
0
  6
Continuous
 62
     7
100
AcDbCircle
 10
-234.23074
 20
77.340233
 30
0.0
 40
2.5
  0
ARC
  5
307
330
6CE
100
AcDbEntity
  8
0
  6
Continuous
 62
     7
100
AcDbCircle
 10
-238.73074
 20
85.34023299999999
 30
0.0
 40
3.049999999999998
100
AcDbArc
 50
180.00001
 51
0.0
  0
ARC
  5
308
330
6CE
100
AcDbEntity
  8
0
  6
Continuous
 62
     7
100
AcDbCircle
 10
-238.73074
 20
110.34023
 30
0.0
 40
3.049999999999998
100
AcDbArc
 50
0.0
 51
180.00001
  0
CIRCLE
  5
309
330
6CE
100
AcDbEntity
  8
0
  6
Continuous
 62
     7
100
AcDbCircle
 10
-238.73074
 20
110.34023
 30
0.0
 40
3.0
  0
CIRCLE
  5
30A
330
6CE
100
AcDbEntity
  8
0
  6
Continuous
 62
     7
100
AcDbCircle
 10
-245.4307599999999
 20
162.3402399999999
 30
0.0
 40
2.099999899999998
  0
CIRCLE
  5
30B
330
6CE
100
AcDbEntity
  8
0
  6
Continuous
 62
     7
100
AcDbCircle
 10
-245.4307599999999
 20
162.3402399999999
 30
0.0
 40
3.599999899999998
  0
CIRCLE
  5
30C
330
6CE
100
AcDbEntity
  8
0
  6
Continuous
 62
     7
100
AcDbCircle
 10
-245.4307599999999
 20
48.34023300000001
 30
0.0
 40
2.099999899999998
  0
CIRCLE
  5
30D
330
6CE
100
AcDbEntity
  8
0
  6
Continuous
 62
     7
100
AcDbCircle
 10
-245.4307599999999
 20
48.34023300000001
 30
0.0
 40
3.599999899999998
  0
ARC
  5
30E
330
6CE
100
AcDbEntity
  8
0
  6
Continuous
 62
     7
100
AcDbCircle
 10
-292.43076
 20
171.34023
 30
0.0
 40
2.299999999999998
100
AcDbArc
 50
90.00000300000001
 51
180.00001
  0
ARC
  5
30F
330
6CE
100
AcDbEntity
  8
0
  6
Continuous
 62
     7
100
AcDbCircle
 10
-292.43076
 20
39.34023299999999
 30
0.0
 40
2.299999999999998
100
AcDbArc
 50
179.9999899999999
 51
270.0
  0
ARC
  5
310
330
6CE
100
AcDbEntity
  8
0
  6
Continuous
 62
     7
100
AcDbCircle
 10
-203.03075
 20
173.6402299999998
 30
0.0
 40
2.299999999999998
100
AcDbArc
 50
270.0
 51
0.0
  0
ARC
  5
311
330
6CE
100
AcDbEntity
  8
0
  6
Continuous
 62
     7
100
AcDbCircle
 10
-203.03075
 20
37.040234
 30
0.0
 40
2.299999999999998
100
AcDbArc
 50
0.0
 51
90.00000300000001
  0
ARC
  5
312
330
6CE
100
AcDbEntity
  8
0
  6
Continuous
 62
     7
100
AcDbCircle
 10
-259.93076
 20
39.34023299999999
 30
0.0
 40
1.0
100
AcDbArc
 50
0.0
 51
90.00000300000001
  0
ARC
  5
313
330
6CE
100
AcDbEntity
  8
0
  6
Continuous
 62
     7
100
AcDbCircle
 10
-272.93076
 20
39.34023299999999
 30
0.0
 40
1.0
100
AcDbArc
 50
90.00000300000001
 51
180.00001
  0
ARC
  5
314
330
6CE
100
AcDbEntity
  8
0
  6
Continuous
 62
     7
100
AcDbCircle
 10
-272.93076
 20
171.34023
 30
0.0
 40
1.0
100
AcDbArc
 50
179.9999899999999
 51
270.0
  0
ARC
  5
315
330
6CE
100
AcDbEntity
  8
0
  6
Continuous
 62
     7
100
AcDbCircle
 10
-259.93076
 20
171.34023
 30
0.0
 40
1.0
100
AcDbArc
 50
270.0
 51
0.0
  0
CIRCLE
  5
316
330
6CE
100
AcDbEntity
  8
0
  6
Continuous
 62
     7
100
AcDbCircle
 10
-49.93074
 20
10.340232
 30
0.0
 40
2.5
  0
CIRCLE
  5
317
330
6CE
100
AcDbEntity
  8
0
  6
Continuous
 62
     7
100
AcDbCircle
 10
-69.93074
 20
10.340232
 30
0.0
 40
2.5
  0
CIRCLE
  5
318
330
6CE
100
AcDbEntity
  8
0
  6
Continuous
 62
     7
100
AcDbCircle
 10
-69.93074
 20
10.340232
 30
0.0
 40
2.066999899999999
  0
CIRCLE
  5
319
330
6CE
100
AcDbEntity
  8
0
  6
Continuous
 62
     7
100
AcDbCircle
 10
-49.93074
 20
10.340232
 30
0.0
 40
2.066999899999999
  0
CIRCLE
  5
31A
330
6CE
100
AcDbEntity
  8
0
  6
Continuous
 62
     7
100
AcDbCircle
 10
-49.93074
 20
200.3402299999999
 30
0.0
 40
2.5
  0
CIRCLE
  5
31B
330
6CE
100
AcDbEntity
  8
0
  6
Continuous
 62
     7
100
AcDbCircle
 10
-49.93074
 20
200.3402299999999
 30
0.0
 40
2.066999899999999
  0
CIRCLE
  5
31C
330
6CE
100
AcDbEntity
  8
0
  6
Continuous
 62
     7
100
AcDbCircle
 10
-69.93074
 20
200.3402299999999
 30
0.0
 40
2.5
  0
CIRCLE
  5
31D
330
6CE
100
AcDbEntity
  8
0
  6
Continuous
 62
     7
100
AcDbCircle
 10
-69.93074
 20
200.3402299999999
 30
0.0
 40
2.066999899999999
  0
CIRCLE
  5
31E
330
6CE
100
AcDbEntity
  8
0
  6
Continuous
 62
     7
100
AcDbCircle
 10
-59.93074
 20
65.340233
 30
0.0
 40
2.25
  0
POLYLINE
  5
43C
330
6CE
100
AcDbEntity
  8
0
  6
Continuous
 62
     7
100
AcDb2dPolyline
 66
     1
 10
0.0
 20
0.0
 30
0.0
  0
VERTEX
  5
43D
330
43C
100
AcDbEntity
  8
0
  6
Continuous
 62
     7
100
AcDbVertex
100
AcDb2dVertex
 10
-57.821939
 20
103.84316
 30
0.0
 42
-0.000014195488
  0
VERTEX
  5
43E
330
43C
100
AcDbEntity
  8
0
  6
Continuous
 62
     7
100
AcDbVertex
100
AcDb2dVertex
 10
-57.820317
 20
103.85412
 30
0.0
 42
-0.000013993835
  0
VERTEX
  5
43F
330
43C
100
AcDbEntity
  8
0
  6
Continuous
 62
     7
100
AcDbVertex
100
AcDb2dVertex
 10
-57.81880400000001
 20
103.86508
 30
0.0
 42
-0.000013790976
  0
VERTEX
  5
440
330
43C
100
AcDbEntity
  8
0
  6
Continuous
 62
     7
100
AcDbVertex
100
AcDb2dVertex
 10
-57.8174
 20
103.87604
 30
0.0
 42
-0.000013586979
  0
VERTEX
  5
441
330
43C
100
AcDbEntity
  8
0
  6
Continuous
 62
     7
100
AcDbVertex
100
AcDb2dVertex
 10
-57.816103
 20
103.8869999999999
 30
0.0
 42
-0.000013381909
  0
VERTEX
  5
442
330
43C
100
AcDbEntity
  8
0
  6
Continuous
 62
     7
100
AcDbVertex
100
AcDb2dVertex
 10
-57.814915
 20
103.8979499999998
 30
0.0
 42
-0.000013175833
  0
VERTEX
  5
443
330
43C
100
AcDbEntity
  8
0
  6
Continuous
 62
     7
100
AcDbVertex
100
AcDb2dVertex
 10
-57.813834
 20
103.9089
 30
0.0
 42
-0.000012968817
  0
VERTEX
  5
444
330
43C
100
AcDbEntity
  8
0
  6
Continuous
 62
     7
100
AcDbVertex
100
AcDb2dVertex
 10
-57.81286099999999
 20
103.9198399999999
 30
0.0
 42
-0.000012760926
  0
VERTEX
  5
445
330
43C
100
AcDbEntity
  8
0
  6
Continuous
 62
     7
100
AcDbVertex
100
AcDb2dVertex
 10
-57.811993
 20
103.9307699999999
 30
0.0
 42
-0.000012552225
  0
VERTEX
  5
446
330
43C
100
AcDbEntity
  8
0
  6
Continuous
 62
     7
100
AcDbVertex
100
AcDb2dVertex
 10
-57.81123199999999
 20
103.94168
 30
0.0
 42
-0.00001234278
  0
VERTEX
  5
447
330
43C
100
AcDbEntity
  8
0
  6
Continuous
 62
     7
100
AcDbVertex
100
AcDb2dVertex
 10
-57.810576
 20
103.95258
 30
0.0
 42
-0.000012132653
  0
VERTEX
  5
448
330
43C
100
AcDbEntity
  8
0
  6
Continuous
 62
     7
100
AcDbVertex
100
AcDb2dVertex
 10
-57.810025
 20
103.96347
 30
0.0
 42
-0.000011921909
  0
VERTEX
  5
449
330
43C
100
AcDbEntity
  8
0
  6
Continuous
 62
     7
100
AcDbVertex
100
AcDb2dVertex
 10
-57.809579
 20
103.97434
 30
0.0
 42
-0.000011710611
  0
VERTEX
  5
44A
330
43C
100
AcDbEntity
  8
0
  6
Continuous
 62
     7
100
AcDbVertex
100
AcDb2dVertex
 10
-57.809236
 20
103.9851899999999
 30
0.0
 42
-0.000011498823
  0
VERTEX
  5
44B
330
43C
100
AcDbEntity
  8
0
  6
Continuous
 62
     7
100
AcDbVertex
100
AcDb2dVertex
 10
-57.80899599999999
 20
103.99603
 30
0.0
 42
-0.000011286606
  0
VERTEX
  5
44C
330
43C
100
AcDbEntity
  8
0
  6
Continuous
 62
     7
100
AcDbVertex
100
AcDb2dVertex
 10
-57.808859
 20
104.00684
 30
0.0
 42
-0.0000094179615
  0
VERTEX
  5
44D
330
43C
100
AcDbEntity
  8
0
  6
Continuous
 62
     7
100
AcDbVertex
100
AcDb2dVertex
 10
-57.808823
 20
104.0159999999999
 30
0.0
  0
SEQEND
  5
44E
330
43C
100
AcDbEntity
  8
0
 62
     7
  0
POLYLINE
  5
44F
330
6CE
100
AcDbEntity
  8
0
  6
Continuous
 62
     7
100
AcDb2dPolyline
 66
     1
 10
0.0
 20
0.0
 30
0.0
  0
VERTEX
  5
450
330
44F
100
AcDbEntity
  8
0
  6
Continuous
 62
     7
100
AcDbVertex
100
AcDb2dVertex
 10
-54.199081
 20
104.79648
 30
0.0
 42
-0.000011868103
  0
VERTEX
  5
451
330
44F
100
AcDbEntity
  8
0
  6
Continuous
 62
     7
100
AcDbVertex
100
AcDb2dVertex
 10
-54.199575
 20
104.80963
 30
0.0
 42
-0.000010216126
  0
VERTEX
  5
452
330
44F
100
AcDbEntity
  8
0
  6
Continuous
 62
     7
100
AcDbVertex
100
AcDb2dVertex
 10
-54.201117
 20
104.8231099999999
 30
0.0
 42
-0.0000082622193
  0
VERTEX
  5
453
330
44F
100
AcDbEntity
  8
0
  6
Continuous
 62
     7
100
AcDbVertex
100
AcDb2dVertex
 10
-54.203798
 20
104.83678
 30
0.0
 42
-0.0000060068085
  0
VERTEX
  5
454
330
44F
100
AcDbEntity
  8
0
  6
Continuous
 62
     7
100
AcDbVertex
100
AcDb2dVertex
 10
-54.20768999999999
 20
104.8504899999999
 30
0.0
 42
-0.0000034625366
  0
VERTEX
  5
455
330
44F
100
AcDbEntity
  8
0
  6
Continuous
 62
     7
100
AcDbVertex
100
AcDb2dVertex
 10
-54.21284899999999
 20
104.8640199999999
 30
0.0
 42
-0.0000006569397
  0
VERTEX
  5
456
330
44F
100
AcDbEntity
  8
0
  6
Continuous
 62
     7
100
AcDbVertex
100
AcDb2dVertex
 10
-54.219302
 20
104.87718
 30
0.0
 42
0.0000023652936
  0
VERTEX
  5
457
330
44F
100
AcDbEntity
  8
0
  6
Continuous
 62
     7
100
AcDbVertex
100
AcDb2dVertex
 10
-54.227045
 20
104.8897299999999
 30
0.0
 42
0.0000055409994
  0
VERTEX
  5
458
330
44F
100
AcDbEntity
  8
0
  6
Continuous
 62
     7
100
AcDbVertex
100
AcDb2dVertex
 10
-54.23603700000001
 20
104.90142
 30
0.0
 42
0.0000087887878
  0
VERTEX
  5
459
330
44F
100
AcDbEntity
  8
0
  6
Continuous
 62
     7
100
AcDbVertex
100
AcDb2dVertex
 10
-54.24619200000001
 20
104.9120199999999
 30
0.0
 42
0.000012011521
  0
VERTEX
  5
45A
330
44F
100
AcDbEntity
  8
0
  6
Continuous
 62
     7
100
AcDbVertex
100
AcDb2dVertex
 10
-54.257381
 20
104.9212999999999
 30
0.0
 42
0.000015101499
  0
VERTEX
  5
45B
330
44F
100
AcDbEntity
  8
0
  6
Continuous
 62
     7
100
AcDbVertex
100
AcDb2dVertex
 10
-54.269432
 20
104.92907
 30
0.0
 42
0.000017948397
  0
VERTEX
  5
45C
330
44F
100
AcDbEntity
  8
0
  6
Continuous
 62
     7
100
AcDbVertex
100
AcDb2dVertex
 10
-54.282137
 20
104.9351799999999
 30
0.0
 42
0.000020449259
  0
VERTEX
  5
45D
330
44F
100
AcDbEntity
  8
0
  6
Continuous
 62
     7
100
AcDbVertex
100
AcDb2dVertex
 10
-54.295262
 20
104.93951
 30
0.0
 42
0.000022519045
  0
VERTEX
  5
45E
330
44F
100
AcDbEntity
  8
0
  6
Continuous
 62
     7
100
AcDbVertex
100
AcDb2dVertex
 10
-54.308559
 20
104.9420499999999
 30
0.0
 42
0.000022685924
  0
VERTEX
  5
45F
330
44F
100
AcDbEntity
  8
0
  6
Continuous
 62
     7
100
AcDbVertex
100
AcDb2dVertex
 10
-54.32103000000001
 20
104.9428199999999
 30
0.0
 42
0.000024819442
  0
VERTEX
  5
460
330
44F
100
AcDbEntity
  8
0
  6
Continuous
 62
     7
100
AcDbVertex
100
AcDb2dVertex
 10
-54.333822
 20
104.94201
 30
0.0
  0
SEQEND
  5
461
330
44F
100
AcDbEntity
  8
0
 62
     7
  0
POLYLINE
  5
462
330
6CE
100
AcDbEntity
  8
0
  6
Continuous
 62
     7
100
AcDb2dPolyline
 66
     1
 10
0.0
 20
0.0
 30
0.0
  0
VERTEX
  5
463
330
462
100
AcDbEntity
  8
0
  6
Continuous
 62
     7
100
AcDbVertex
100
AcDb2dVertex
 10
-53.955185
 20
103.08918
 30
0.0
 42
-0.000012158616
  0
VERTEX
  5
464
330
462
100
AcDbEntity
  8
0
  6
Continuous
 62
     7
100
AcDbVertex
100
AcDb2dVertex
 10
-53.95567800000001
 20
103.1023299999999
 30
0.0
 42
-0.000010491542
  0
VERTEX
  5
465
330
462
100
AcDbEntity
  8
0
  6
Continuous
 62
     7
100
AcDbVertex
100
AcDb2dVertex
 10
-53.957221
 20
103.11581
 30
0.0
 42
-0.0000085174284
  0
VERTEX
  5
466
330
462
100
AcDbEntity
  8
0
  6
Continuous
 62
     7
100
AcDbVertex
100
AcDb2dVertex
 10
-53.959901
 20
103.1294799999999
 30
0.0
 42
-0.0000062364039
  0
VERTEX
  5
467
330
462
100
AcDbEntity
  8
0
  6
Continuous
 62
     7
100
AcDbVertex
100
AcDb2dVertex
 10
-53.96379399999999
 20
103.14319
 30
0.0
 42
-0.0000036609706
  0
VERTEX
  5
468
330
462
100
AcDbEntity
  8
0
  6
Continuous
 62
     7
100
AcDbVertex
100
AcDb2dVertex
 10
-53.968952
 20
103.15672
 30
0.0
 42
-0.00000081873275
  0
VERTEX
  5
469
330
462
100
AcDbEntity
  8
0
  6
Continuous
 62
     7
100
AcDbVertex
100
AcDb2dVertex
 10
-53.975405
 20
103.16988
 30
0.0
 42
0.000002245292
  0
VERTEX
  5
46A
330
462
100
AcDbEntity
  8
0
  6
Continuous
 62
     7
100
AcDbVertex
100
AcDb2dVertex
 10
-53.98314899999999
 20
103.18243
 30
0.0
 42
0.0000054673063
  0
VERTEX
  5
46B
330
462
100
AcDbEntity
  8
0
  6
Continuous
 62
     7
100
AcDbVertex
100
AcDb2dVertex
 10
-53.992141
 20
103.1941199999999
 30
0.0
 42
0.0000087649567
  0
VERTEX
  5
46C
330
462
100
AcDbEntity
  8
0
  6
Continuous
 62
     7
100
AcDbVertex
100
AcDb2dVertex
 10
-54.002295
 20
103.20472
 30
0.0
 42
0.000012039817
  0
VERTEX
  5
46D
330
462
100
AcDbEntity
  8
0
  6
Continuous
 62
     7
100
AcDbVertex
100
AcDb2dVertex
 10
-54.01348399999999
 20
103.214
 30
0.0
 42
0.000015182624
  0
VERTEX
  5
46E
330
462
100
AcDbEntity
  8
0
  6
Continuous
 62
     7
100
AcDbVertex
100
AcDb2dVertex
 10
-54.02553499999999
 20
103.2217699999999
 30
0.0
 42
0.000018081303
  0
VERTEX
  5
46F
330
462
100
AcDbEntity
  8
0
  6
Continuous
 62
     7
100
AcDbVertex
100
AcDb2dVertex
 10
-54.03824
 20
103.2278699999999
 30
0.0
 42
0.00002063111
  0
VERTEX
  5
470
330
462
100
AcDbEntity
  8
0
  6
Continuous
 62
     7
100
AcDbVertex
100
AcDb2dVertex
 10
-54.05136500000001
 20
103.23221
 30
0.0
 42
0.000022745334
  0
VERTEX
  5
471
330
462
100
AcDbEntity
  8
0
  6
Continuous
 62
     7
100
AcDbVertex
100
AcDb2dVertex
 10
-54.064661
 20
103.23474
 30
0.0
 42
0.0000229375
  0
VERTEX
  5
472
330
462
100
AcDbEntity
  8
0
  6
Continuous
 62
     7
100
AcDbVertex
100
AcDb2dVertex
 10
-54.07713300000001
 20
103.2355099999999
 30
0.0
 42
0.000025111271
  0
VERTEX
  5
473
330
462
100
AcDbEntity
  8
0
  6
Continuous
 62
     7
100
AcDbVertex
100
AcDb2dVertex
 10
-54.089926
 20
103.2347
 30
0.0
  0
SEQEND
  5
474
330
462
100
AcDbEntity
  8
0
 62
     7
  0
POLYLINE
  5
475
330
6CE
100
AcDbEntity
  8
0
  6
Continuous
 62
     7
100
AcDb2dPolyline
 66
     1
 10
0.0
 20
0.0
 30
0.0
  0
VERTEX
  5
476
330
475
100
AcDbEntity
  8
0
  6
Continuous
 62
     7
100
AcDbVertex
100
AcDb2dVertex
 10
-56.54991500000001
 20
110.1943699999999
 30
0.0
 42
0.000092279463
  0
VERTEX
  5
477
330
475
100
AcDbEntity
  8
0
  6
Continuous
 62
     7
100
AcDbVertex
100
AcDb2dVertex
 10
-56.609961
 20
110.21121
 30
0.0
 42
0.000091392681
  0
VERTEX
  5
478
330
475
100
AcDbEntity
  8
0
  6
Continuous
 62
     7
100
AcDbVertex
100
AcDb2dVertex
 10
-56.669218
 20
110.2273999999999
 30
0.0
 42
0.000090701587
  0
VERTEX
  5
479
330
475
100
AcDbEntity
  8
0
  6
Continuous
 62
     7
100
AcDbVertex
100
AcDb2dVertex
 10
-56.727826
 20
110.24302
 30
0.0
 42
0.0000914765
  0
VERTEX
  5
47A
330
475
100
AcDbEntity
  8
0
  6
Continuous
 62
     7
100
AcDbVertex
100
AcDb2dVertex
 10
-56.78673899999999
 20
110.25833
 30
0.0
 42
0.000092233387
  0
VERTEX
  5
47B
330
475
100
AcDbEntity
  8
0
  6
Continuous
 62
     7
100
AcDbVertex
100
AcDb2dVertex
 10
-56.845946
 20
110.27332
 30
0.0
 42
0.000092972307
  0
VERTEX
  5
47C
330
475
100
AcDbEntity
  8
0
  6
Continuous
 62
     7
100
AcDbVertex
100
AcDb2dVertex
 10
-56.905439
 20
110.288
 30
0.0
 42
0.000093693318
  0
VERTEX
  5
47D
330
475
100
AcDbEntity
  8
0
  6
Continuous
 62
     7
100
AcDbVertex
100
AcDb2dVertex
 10
-56.96520600000001
 20
110.30237
 30
0.0
 42
0.000094396486
  0
VERTEX
  5
47E
330
475
100
AcDbEntity
  8
0
  6
Continuous
 62
     7
100
AcDbVertex
100
AcDb2dVertex
 10
-57.025238
 20
110.31643
 30
0.0
 42
0.000095081876
  0
VERTEX
  5
47F
330
475
100
AcDbEntity
  8
0
  6
Continuous
 62
     7
100
AcDbVertex
100
AcDb2dVertex
 10
-57.08552499999999
 20
110.33017
 30
0.0
 42
0.000095749559
  0
VERTEX
  5
480
330
475
100
AcDbEntity
  8
0
  6
Continuous
 62
     7
100
AcDbVertex
100
AcDb2dVertex
 10
-57.14605699999999
 20
110.34359
 30
0.0
 42
0.000096399606
  0
VERTEX
  5
481
330
475
100
AcDbEntity
  8
0
  6
Continuous
 62
     7
100
AcDbVertex
100
AcDb2dVertex
 10
-57.206825
 20
110.3566999999999
 30
0.0
 42
0.000097032093
  0
VERTEX
  5
482
330
475
100
AcDbEntity
  8
0
  6
Continuous
 62
     7
100
AcDbVertex
100
AcDb2dVertex
 10
-57.26781899999998
 20
110.3695
 30
0.0
 42
0.000097647098
  0
VERTEX
  5
483
330
475
100
AcDbEntity
  8
0
  6
Continuous
 62
     7
100
AcDbVertex
100
AcDb2dVertex
 10
-57.329029
 20
110.3819799999999
 30
0.0
 42
0.000098244701
  0
VERTEX
  5
484
330
475
100
AcDbEntity
  8
0
  6
Continuous
 62
     7
100
AcDbVertex
100
AcDb2dVertex
 10
-57.39044499999999
 20
110.3941499999999
 30
0.0
 42
0.000098824985
  0
VERTEX
  5
485
330
475
100
AcDbEntity
  8
0
  6
Continuous
 62
     7
100
AcDbVertex
100
AcDb2dVertex
 10
-57.452059
 20
110.4060099999999
 30
0.0
 42
0.000099388036
  0
VERTEX
  5
486
330
475
100
AcDbEntity
  8
0
  6
Continuous
 62
     7
100
AcDbVertex
100
AcDb2dVertex
 10
-57.51386
 20
110.4175499999999
 30
0.0
  0
SEQEND
  5
487
330
475
100
AcDbEntity
  8
0
 62
     7
  0
POLYLINE
  5
488
330
6CE
100
AcDbEntity
  8
0
  6
Continuous
 62
     7
100
AcDb2dPolyline
 66
     1
 10
0.0
 20
0.0
 30
0.0
  0
VERTEX
  5
489
330
488
100
AcDbEntity
  8
0
  6
Continuous
 62
     7
100
AcDbVertex
100
AcDb2dVertex
 10
-55.38777099999999
 20
106.3284799999999
 30
0.0
 42
0.01427454
  0
VERTEX
  5
48A
330
488
100
AcDbEntity
  8
0
  6
Continuous
 62
     7
100
AcDbVertex
100
AcDb2dVertex
 10
-55.11903199999999
 20
106.46602
 30
0.0
 42
0.01699853
  0
VERTEX
  5
48B
330
488
100
AcDbEntity
  8
0
  6
Continuous
 62
     7
100
AcDbVertex
100
AcDb2dVertex
 10
-54.85927499999998
 20
106.6200999999998
 30
0.0
 42
0.020759332
  0
VERTEX
  5
48C
330
488
100
AcDbEntity
  8
0
  6
Continuous
 62
     7
100
AcDbVertex
100
AcDb2dVertex
 10
-54.611795
 20
106.79328
 30
0.0
 42
0.02605696
  0
VERTEX
  5
48D
330
488
100
AcDbEntity
  8
0
  6
Continuous
 62
     7
100
AcDbVertex
100
AcDb2dVertex
 10
-54.381579
 20
106.98866
 30
0.0
 42
0.033573069
  0
VERTEX
  5
48E
330
488
100
AcDbEntity
  8
0
  6
Continuous
 62
     7
100
AcDbVertex
100
AcDb2dVertex
 10
-54.17632499999999
 20
107.2096399999998
 30
0.0
 42
0.043908549
  0
VERTEX
  5
48F
330
488
100
AcDbEntity
  8
0
  6
Continuous
 62
     7
100
AcDbVertex
100
AcDb2dVertex
 10
-54.007794
 20
107.4589899999998
 30
0.0
 42
0.056363231
  0
VERTEX
  5
490
330
488
100
AcDbEntity
  8
0
  6
Continuous
 62
     7
100
AcDbVertex
100
AcDb2dVertex
 10
-53.892533
 20
107.73607
 30
0.0
 42
0.066496631
  0
VERTEX
  5
491
330
488
100
AcDbEntity
  8
0
  6
Continuous
 62
     7
100
AcDbVertex
100
AcDb2dVertex
 10
-53.84857
 20
108.03246
 30
0.0
 42
0.06665546
  0
VERTEX
  5
492
330
488
100
AcDbEntity
  8
0
  6
Continuous
 62
     7
100
AcDbVertex
100
AcDb2dVertex
 10
-53.884703
 20
108.3280599999999
 30
0.0
 42
0.057337688
  0
VERTEX
  5
493
330
488
100
AcDbEntity
  8
0
  6
Continuous
 62
     7
100
AcDbVertex
100
AcDb2dVertex
 10
-53.99295099999999
 20
108.6062899999999
 30
0.0
 42
0.044851864
  0
VERTEX
  5
494
330
488
100
AcDbEntity
  8
0
  6
Continuous
 62
     7
100
AcDbVertex
100
AcDb2dVertex
 10
-54.155381
 20
108.85688
 30
0.0
 42
0.034275707
  0
VERTEX
  5
495
330
488
100
AcDbEntity
  8
0
  6
Continuous
 62
     7
100
AcDbVertex
100
AcDb2dVertex
 10
-54.35498599999998
 20
109.0787699999999
 30
0.0
 42
0.026585388
  0
VERTEX
  5
496
330
488
100
AcDbEntity
  8
0
  6
Continuous
 62
     7
100
AcDbVertex
100
AcDb2dVertex
 10
-54.580096
 20
109.2751
 30
0.0
 42
0.02116719
  0
VERTEX
  5
497
330
488
100
AcDbEntity
  8
0
  6
Continuous
 62
     7
100
AcDbVertex
100
AcDb2dVertex
 10
-54.823051
 20
109.44936
 30
0.0
 42
0.017337903
  0
VERTEX
  5
498
330
488
100
AcDbEntity
  8
0
  6
Continuous
 62
     7
100
AcDbVertex
100
AcDb2dVertex
 10
-55.079205
 20
109.60483
 30
0.0
 42
0.014495231
  0
VERTEX
  5
499
330
488
100
AcDbEntity
  8
0
  6
Continuous
 62
     7
100
AcDbVertex
100
AcDb2dVertex
 10
-55.34395400000001
 20
109.74336
 30
0.0
  0
SEQEND
  5
49A
330
488
100
AcDbEntity
  8
0
 62
     7
  0
POLYLINE
  5
49B
330
6CE
100
AcDbEntity
  8
0
  6
Continuous
 62
     7
100
AcDb2dPolyline
 66
     1
 10
0.0
 20
0.0
 30
0.0
  0
VERTEX
  5
49C
330
49B
100
AcDbEntity
  8
0
  6
Continuous
 62
     7
100
AcDbVertex
100
AcDb2dVertex
 10
-58.868425
 20
110.5905899999999
 30
0.0
 42
0.00013117019
  0
VERTEX
  5
49D
330
49B
100
AcDbEntity
  8
0
  6
Continuous
 62
     7
100
AcDbVertex
100
AcDb2dVertex
 10
-58.945907
 20
110.59621
 30
0.0
 42
0.00013144382
  0
VERTEX
  5
49E
330
49B
100
AcDbEntity
  8
0
  6
Continuous
 62
     7
100
AcDbVertex
100
AcDb2dVertex
 10
-59.02336
 20
110.6013899999999
 30
0.0
 42
0.00013169123
  0
VERTEX
  5
49F
330
49B
100
AcDbEntity
  8
0
  6
Continuous
 62
     7
100
AcDbVertex
100
AcDb2dVertex
 10
-59.10077
 20
110.6061299999999
 30
0.0
 42
0.0001319127
  0
VERTEX
  5
4A0
330
49B
100
AcDbEntity
  8
0
  6
Continuous
 62
     7
100
AcDbVertex
100
AcDb2dVertex
 10
-59.178122
 20
110.6104399999999
 30
0.0
 42
0.00013210852
  0
VERTEX
  5
4A1
330
49B
100
AcDbEntity
  8
0
  6
Continuous
 62
     7
100
AcDbVertex
100
AcDb2dVertex
 10
-59.255403
 20
110.61433
 30
0.0
 42
0.00013227896
  0
VERTEX
  5
4A2
330
49B
100
AcDbEntity
  8
0
  6
Continuous
 62
     7
100
AcDbVertex
100
AcDb2dVertex
 10
-59.3326
 20
110.61778
 30
0.0
 42
0.00013242431
  0
VERTEX
  5
4A3
330
49B
100
AcDbEntity
  8
0
  6
Continuous
 62
     7
100
AcDbVertex
100
AcDb2dVertex
 10
-59.409698
 20
110.6208
 30
0.0
 42
0.00013254486
  0
VERTEX
  5
4A4
330
49B
100
AcDbEntity
  8
0
  6
Continuous
 62
     7
100
AcDbVertex
100
AcDb2dVertex
 10
-59.48668399999998
 20
110.6234099999998
 30
0.0
 42
0.00013264091
  0
VERTEX
  5
4A5
330
49B
100
AcDbEntity
  8
0
  6
Continuous
 62
     7
100
AcDbVertex
100
AcDb2dVertex
 10
-59.56354499999999
 20
110.6255899999998
 30
0.0
 42
0.00013271273
  0
VERTEX
  5
4A6
330
49B
100
AcDbEntity
  8
0
  6
Continuous
 62
     7
100
AcDbVertex
100
AcDb2dVertex
 10
-59.640269
 20
110.62735
 30
0.0
 42
0.00013276062
  0
VERTEX
  5
4A7
330
49B
100
AcDbEntity
  8
0
  6
Continuous
 62
     7
100
AcDbVertex
100
AcDb2dVertex
 10
-59.71684200000001
 20
110.6287
 30
0.0
 42
0.00013278489
  0
VERTEX
  5
4A8
330
49B
100
AcDbEntity
  8
0
  6
Continuous
 62
     7
100
AcDbVertex
100
AcDb2dVertex
 10
-59.793251
 20
110.6296399999999
 30
0.0
 42
0.00013278581
  0
VERTEX
  5
4A9
330
49B
100
AcDbEntity
  8
0
  6
Continuous
 62
     7
100
AcDbVertex
100
AcDb2dVertex
 10
-59.869484
 20
110.6301699999998
 30
0.0
 42
0.00013279433
  0
VERTEX
  5
4AA
330
49B
100
AcDbEntity
  8
0
  6
Continuous
 62
     7
100
AcDbVertex
100
AcDb2dVertex
 10
-59.945547
 20
110.6302899999999
 30
0.0
 42
0.00013301406
  0
VERTEX
  5
4AB
330
49B
100
AcDbEntity
  8
0
  6
Continuous
 62
     7
100
AcDbVertex
100
AcDb2dVertex
 10
-60.021561
 20
110.63001
 30
0.0
 42
0.00013331642
  0
VERTEX
  5
4AC
330
49B
100
AcDbEntity
  8
0
  6
Continuous
 62
     7
100
AcDbVertex
100
AcDb2dVertex
 10
-60.097572
 20
110.62933
 30
0.0
  0
SEQEND
  5
4AD
330
49B
100
AcDbEntity
  8
0
 62
     7
  0
POLYLINE
  5
4AE
330
6CE
100
AcDbEntity
  8
0
  6
Continuous
 62
     7
100
AcDb2dPolyline
 66
     1
 10
0.0
 20
0.0
 30
0.0
  0
VERTEX
  5
4AF
330
4AE
100
AcDbEntity
  8
0
  6
Continuous
 62
     7
100
AcDbVertex
100
AcDb2dVertex
 10
-59.520151
 20
105.46858
 30
0.0
 42
0.0027978648
  0
VERTEX
  5
4B0
330
4AE
100
AcDbEntity
  8
0
  6
Continuous
 62
     7
100
AcDbVertex
100
AcDb2dVertex
 10
-59.36129300000001
 20
105.4740299999999
 30
0.0
 42
0.0028149605
  0
VERTEX
  5
4B1
330
4AE
100
AcDbEntity
  8
0
  6
Continuous
 62
     7
100
AcDbVertex
100
AcDb2dVertex
 10
-59.202501
 20
105.48127
 30
0.0
 42
0.0028370625
  0
VERTEX
  5
4B2
330
4AE
100
AcDbEntity
  8
0
  6
Continuous
 62
     7
100
AcDbVertex
100
AcDb2dVertex
 10
-59.04379300000001
 20
105.4903
 30
0.0
 42
0.0028643524
  0
VERTEX
  5
4B3
330
4AE
100
AcDbEntity
  8
0
  6
Continuous
 62
     7
100
AcDbVertex
100
AcDb2dVertex
 10
-58.88519
 20
105.5011499999999
 30
0.0
 42
0.0028970586
  0
VERTEX
  5
4B4
330
4AE
100
AcDbEntity
  8
0
  6
Continuous
 62
     7
100
AcDbVertex
100
AcDb2dVertex
 10
-58.726714
 20
105.51382
 30
0.0
 42
0.0029354602
  0
VERTEX
  5
4B5
330
4AE
100
AcDbEntity
  8
0
  6
Continuous
 62
     7
100
AcDbVertex
100
AcDb2dVertex
 10
-58.568385
 20
105.52833
 30
0.0
 42
0.0029798928
  0
VERTEX
  5
4B6
330
4AE
100
AcDbEntity
  8
0
  6
Continuous
 62
     7
100
AcDbVertex
100
AcDb2dVertex
 10
-58.41022699999999
 20
105.5447199999999
 30
0.0
 42
0.0030307549
  0
VERTEX
  5
4B7
330
4AE
100
AcDbEntity
  8
0
  6
Continuous
 62
     7
100
AcDbVertex
100
AcDb2dVertex
 10
-58.252264
 20
105.5630199999999
 30
0.0
 42
0.0030885163
  0
VERTEX
  5
4B8
330
4AE
100
AcDbEntity
  8
0
  6
Continuous
 62
     7
100
AcDbVertex
100
AcDb2dVertex
 10
-58.094523
 20
105.5832399999999
 30
0.0
 42
0.0031537281
  0
VERTEX
  5
4B9
330
4AE
100
AcDbEntity
  8
0
  6
Continuous
 62
     7
100
AcDbVertex
100
AcDb2dVertex
 10
-57.93703
 20
105.6054399999998
 30
0.0
 42
0.0032270351
  0
VERTEX
  5
4BA
330
4AE
100
AcDbEntity
  8
0
  6
Continuous
 62
     7
100
AcDbVertex
100
AcDb2dVertex
 10
-57.779817
 20
105.6296399999999
 30
0.0
 42
0.0033091906
  0
VERTEX
  5
4BB
330
4AE
100
AcDbEntity
  8
0
  6
Continuous
 62
     7
100
AcDbVertex
100
AcDb2dVertex
 10
-57.62291499999999
 20
105.6559
 30
0.0
 42
0.0034010748
  0
VERTEX
  5
4BC
330
4AE
100
AcDbEntity
  8
0
  6
Continuous
 62
     7
100
AcDbVertex
100
AcDb2dVertex
 10
-57.46635999999998
 20
105.68427
 30
0.0
 42
0.0035037169
  0
VERTEX
  5
4BD
330
4AE
100
AcDbEntity
  8
0
  6
Continuous
 62
     7
100
AcDbVertex
100
AcDb2dVertex
 10
-57.310192
 20
105.7147999999999
 30
0.0
 42
0.0036183232
  0
VERTEX
  5
4BE
330
4AE
100
AcDbEntity
  8
0
  6
Continuous
 62
     7
100
AcDbVertex
100
AcDb2dVertex
 10
-57.15445299999999
 20
105.7475599999999
 30
0.0
 42
0.0037463101
  0
VERTEX
  5
4BF
330
4AE
100
AcDbEntity
  8
0
  6
Continuous
 62
     7
100
AcDbVertex
100
AcDb2dVertex
 10
-56.99919000000001
 20
105.7826099999999
 30
0.0
  0
SEQEND
  5
4C0
330
4AE
100
AcDbEntity
  8
0
 62
     7
  0
POLYLINE
  5
4C1
330
6CE
100
AcDbEntity
  8
0
  6
Continuous
 62
     7
100
AcDb2dPolyline
 66
     1
 10
0.0
 20
0.0
 30
0.0
  0
VERTEX
  5
4C2
330
4C1
100
AcDbEntity
  8
0
  6
Continuous
 62
     7
100
AcDbVertex
100
AcDb2dVertex
 10
-61.521163
 20
110.5404099999999
 30
0.0
 42
0.00015838334
  0
VERTEX
  5
4C3
330
4C1
100
AcDbEntity
  8
0
  6
Continuous
 62
     7
100
AcDbVertex
100
AcDb2dVertex
 10
-61.607236
 20
110.53021
 30
0.0
 42
0.00015873679
  0
VERTEX
  5
4C4
330
4C1
100
AcDbEntity
  8
0
  6
Continuous
 62
     7
100
AcDbVertex
100
AcDb2dVertex
 10
-61.69324200000001
 20
110.51944
 30
0.0
 42
0.0001590895
  0
VERTEX
  5
4C5
330
4C1
100
AcDbEntity
  8
0
  6
Continuous
 62
     7
100
AcDbVertex
100
AcDb2dVertex
 10
-61.779175
 20
110.5080899999999
 30
0.0
 42
0.00015944156
  0
VERTEX
  5
4C6
330
4C1
100
AcDbEntity
  8
0
  6
Continuous
 62
     7
100
AcDbVertex
100
AcDb2dVertex
 10
-61.86503199999999
 20
110.4961599999999
 30
0.0
 42
0.00015979306
  0
VERTEX
  5
4C7
330
4C1
100
AcDbEntity
  8
0
  6
Continuous
 62
     7
100
AcDbVertex
100
AcDb2dVertex
 10
-61.950807
 20
110.48363
 30
0.0
 42
0.00016014409
  0
VERTEX
  5
4C8
330
4C1
100
AcDbEntity
  8
0
  6
Continuous
 62
     7
100
AcDbVertex
100
AcDb2dVertex
 10
-62.036495
 20
110.47051
 30
0.0
 42
0.00016049472
  0
VERTEX
  5
4C9
330
4C1
100
AcDbEntity
  8
0
  6
Continuous
 62
     7
100
AcDbVertex
100
AcDb2dVertex
 10
-62.12209099999999
 20
110.4567799999999
 30
0.0
 42
0.00016084501
  0
VERTEX
  5
4CA
330
4C1
100
AcDbEntity
  8
0
  6
Continuous
 62
     7
100
AcDbVertex
100
AcDb2dVertex
 10
-62.20759000000001
 20
110.44243
 30
0.0
 42
0.00016119501
  0
VERTEX
  5
4CB
330
4C1
100
AcDbEntity
  8
0
  6
Continuous
 62
     7
100
AcDbVertex
100
AcDb2dVertex
 10
-62.29298499999998
 20
110.4274699999999
 30
0.0
 42
0.00016154476
  0
VERTEX
  5
4CC
330
4C1
100
AcDbEntity
  8
0
  6
Continuous
 62
     7
100
AcDbVertex
100
AcDb2dVertex
 10
-62.37826999999999
 20
110.4118699999998
 30
0.0
 42
0.00016189427
  0
VERTEX
  5
4CD
330
4C1
100
AcDbEntity
  8
0
  6
Continuous
 62
     7
100
AcDbVertex
100
AcDb2dVertex
 10
-62.463439
 20
110.3956399999999
 30
0.0
 42
0.00016224356
  0
VERTEX
  5
4CE
330
4C1
100
AcDbEntity
  8
0
  6
Continuous
 62
     7
100
AcDbVertex
100
AcDb2dVertex
 10
-62.54848599999998
 20
110.3787499999999
 30
0.0
 42
0.00016259261
  0
VERTEX
  5
4CF
330
4C1
100
AcDbEntity
  8
0
  6
Continuous
 62
     7
100
AcDbVertex
100
AcDb2dVertex
 10
-62.633403
 20
110.3612
 30
0.0
 42
0.00016294139
  0
VERTEX
  5
4D0
330
4C1
100
AcDbEntity
  8
0
  6
Continuous
 62
     7
100
AcDbVertex
100
AcDb2dVertex
 10
-62.71818199999999
 20
110.3429899999998
 30
0.0
 42
0.00016328985
  0
VERTEX
  5
4D1
330
4C1
100
AcDbEntity
  8
0
  6
Continuous
 62
     7
100
AcDbVertex
100
AcDb2dVertex
 10
-62.802815
 20
110.3240899999998
 30
0.0
 42
0.00016363792
  0
VERTEX
  5
4D2
330
4C1
100
AcDbEntity
  8
0
  6
Continuous
 62
     7
100
AcDbVertex
100
AcDb2dVertex
 10
-62.88729499999998
 20
110.3045
 30
0.0
  0
SEQEND
  5
4D3
330
4C1
100
AcDbEntity
  8
0
 62
     7
  0
POLYLINE
  5
4D4
330
6CE
100
AcDbEntity
  8
0
  6
Continuous
 62
     7
100
AcDb2dPolyline
 66
     1
 10
0.0
 20
0.0
 30
0.0
  0
VERTEX
  5
4D5
330
4D4
100
AcDbEntity
  8
0
  6
Continuous
 62
     7
100
AcDbVertex
100
AcDb2dVertex
 10
-64.50291899999999
 20
109.75046
 30
0.0
 42
0.01437579
  0
VERTEX
  5
4D6
330
4D4
100
AcDbEntity
  8
0
  6
Continuous
 62
     7
100
AcDbVertex
100
AcDb2dVertex
 10
-64.76825799999999
 20
109.6126699999998
 30
0.0
 42
0.017129439
  0
VERTEX
  5
4D7
330
4D4
100
AcDbEntity
  8
0
  6
Continuous
 62
     7
100
AcDbVertex
100
AcDb2dVertex
 10
-65.024527
 20
109.45845
 30
0.0
 42
0.020927097
  0
VERTEX
  5
4D8
330
4D4
100
AcDbEntity
  8
0
  6
Continuous
 62
     7
100
AcDbVertex
100
AcDb2dVertex
 10
-65.268407
 20
109.28525
 30
0.0
 42
0.026265929
  0
VERTEX
  5
4D9
330
4D4
100
AcDbEntity
  8
0
  6
Continuous
 62
     7
100
AcDbVertex
100
AcDb2dVertex
 10
-65.49488199999998
 20
109.0900199999999
 30
0.0
 42
0.033811781
  0
VERTEX
  5
4DA
330
4D4
100
AcDbEntity
  8
0
  6
Continuous
 62
     7
100
AcDbVertex
100
AcDb2dVertex
 10
-65.69623599999999
 20
108.86945
 30
0.0
 42
0.044113888
  0
VERTEX
  5
4DB
330
4D4
100
AcDbEntity
  8
0
  6
Continuous
 62
     7
100
AcDbVertex
100
AcDb2dVertex
 10
-65.86075799999999
 20
108.6209699999999
 30
0.0
 42
0.056363335
  0
VERTEX
  5
4DC
330
4D4
100
AcDbEntity
  8
0
  6
Continuous
 62
     7
100
AcDbVertex
100
AcDb2dVertex
 10
-65.97214699999999
 20
108.3454499999999
 30
0.0
 42
0.066039518
  0
VERTEX
  5
4DD
330
4D4
100
AcDbEntity
  8
0
  6
Continuous
 62
     7
100
AcDbVertex
100
AcDb2dVertex
 10
-66.01298800000001
 20
108.05166
 30
0.0
 42
0.06587356
  0
VERTEX
  5
4DE
330
4D4
100
AcDbEntity
  8
0
  6
Continuous
 62
     7
100
AcDbVertex
100
AcDb2dVertex
 10
-65.97528199999999
 20
107.7591799999999
 30
0.0
 42
0.056504605
  0
VERTEX
  5
4DF
330
4D4
100
AcDbEntity
  8
0
  6
Continuous
 62
     7
100
AcDbVertex
100
AcDb2dVertex
 10
-65.86737600000001
 20
107.48447
 30
0.0
 42
0.044377186
  0
VERTEX
  5
4E0
330
4D4
100
AcDbEntity
  8
0
  6
Continuous
 62
     7
100
AcDbVertex
100
AcDb2dVertex
 10
-65.70634
 20
107.23641
 30
0.0
 42
0.033998282
  0
VERTEX
  5
4E1
330
4D4
100
AcDbEntity
  8
0
  6
Continuous
 62
     7
100
AcDbVertex
100
AcDb2dVertex
 10
-65.508842
 20
107.0164899999999
 30
0.0
 42
0.026427794
  0
VERTEX
  5
4E2
330
4D4
100
AcDbEntity
  8
0
  6
Continuous
 62
     7
100
AcDbVertex
100
AcDb2dVertex
 10
-65.28624
 20
106.8217
 30
0.0
 42
0.021076377
  0
VERTEX
  5
4E3
330
4D4
100
AcDbEntity
  8
0
  6
Continuous
 62
     7
100
AcDbVertex
100
AcDb2dVertex
 10
-65.04601700000001
 20
106.6486199999998
 30
0.0
 42
0.017283957
  0
VERTEX
  5
4E4
330
4D4
100
AcDbEntity
  8
0
  6
Continuous
 62
     7
100
AcDbVertex
100
AcDb2dVertex
 10
-64.792722
 20
106.4940399999998
 30
0.0
 42
0.014459958
  0
VERTEX
  5
4E5
330
4D4
100
AcDbEntity
  8
0
  6
Continuous
 62
     7
100
AcDbVertex
100
AcDb2dVertex
 10
-64.530923
 20
106.35618
 30
0.0
  0
SEQEND
  5
4E6
330
4D4
100
AcDbEntity
  8
0
 62
     7
  0
POLYLINE
  5
4E7
330
6CE
100
AcDbEntity
  8
0
  6
Continuous
 62
     7
100
AcDb2dPolyline
 66
     1
 10
0.0
 20
0.0
 30
0.0
  0
VERTEX
  5
4E8
330
4E7
100
AcDbEntity
  8
0
  6
Continuous
 62
     7
100
AcDbVertex
100
AcDb2dVertex
 10
-63.330704
 20
105.9040699999999
 30
0.0
 42
0.004107553
  0
VERTEX
  5
4E9
330
4E7
100
AcDbEntity
  8
0
  6
Continuous
 62
     7
100
AcDbVertex
100
AcDb2dVertex
 10
-63.18202199999999
 20
105.86282
 30
0.0
 42
0.0039403577
  0
VERTEX
  5
4EA
330
4E7
100
AcDbEntity
  8
0
  6
Continuous
 62
     7
100
AcDbVertex
100
AcDb2dVertex
 10
-63.03261800000001
 20
105.8239499999999
 30
0.0
 42
0.0037899691
  0
VERTEX
  5
4EB
330
4E7
100
AcDbEntity
  8
0
  6
Continuous
 62
     7
100
AcDbVertex
100
AcDb2dVertex
 10
-62.88258199999999
 20
105.78737
 30
0.0
 42
0.0036197814
  0
VERTEX
  5
4EC
330
4E7
100
AcDbEntity
  8
0
  6
Continuous
 62
     7
100
AcDbVertex
100
AcDb2dVertex
 10
-62.73345299999999
 20
105.7533499999999
 30
0.0
 42
0.0035224164
  0
VERTEX
  5
4ED
330
4E7
100
AcDbEntity
  8
0
  6
Continuous
 62
     7
100
AcDbVertex
100
AcDb2dVertex
 10
-62.582873
 20
105.72126
 30
0.0
 42
0.0034326301
  0
VERTEX
  5
4EE
330
4E7
100
AcDbEntity
  8
0
  6
Continuous
 62
     7
100
AcDbVertex
100
AcDb2dVertex
 10
-62.430987
 20
105.69108
 30
0.0
 42
0.0033498685
  0
VERTEX
  5
4EF
330
4E7
100
AcDbEntity
  8
0
  6
Continuous
 62
     7
100
AcDbVertex
100
AcDb2dVertex
 10
-62.277942
 20
105.66283
 30
0.0
 42
0.0032736313
  0
VERTEX
  5
4F0
330
4E7
100
AcDbEntity
  8
0
  6
Continuous
 62
     7
100
AcDbVertex
100
AcDb2dVertex
 10
-62.123879
 20
105.6364999999999
 30
0.0
 42
0.0031553753
  0
VERTEX
  5
4F1
330
4E7
100
AcDbEntity
  8
0
  6
Continuous
 62
     7
100
AcDbVertex
100
AcDb2dVertex
 10
-61.97129499999999
 20
105.61243
 30
0.0
 42
0.00308418
  0
VERTEX
  5
4F2
330
4E7
100
AcDbEntity
  8
0
  6
Continuous
 62
     7
100
AcDbVertex
100
AcDb2dVertex
 10
-61.818422
 20
105.5902699999998
 30
0.0
 42
0.003020563
  0
VERTEX
  5
4F3
330
4E7
100
AcDbEntity
  8
0
  6
Continuous
 62
     7
100
AcDbVertex
100
AcDb2dVertex
 10
-61.665289
 20
105.5699799999999
 30
0.0
 42
0.0029639252
  0
VERTEX
  5
4F4
330
4E7
100
AcDbEntity
  8
0
  6
Continuous
 62
     7
100
AcDbVertex
100
AcDb2dVertex
 10
-61.511924
 20
105.5515199999999
 30
0.0
 42
0.002913752
  0
VERTEX
  5
4F5
330
4E7
100
AcDbEntity
  8
0
  6
Continuous
 62
     7
100
AcDbVertex
100
AcDb2dVertex
 10
-61.358351
 20
105.5348699999999
 30
0.0
 42
0.0028696018
  0
VERTEX
  5
4F6
330
4E7
100
AcDbEntity
  8
0
  6
Continuous
 62
     7
100
AcDbVertex
100
AcDb2dVertex
 10
-61.20459499999999
 20
105.5199899999998
 30
0.0
 42
0.0028310975
  0
VERTEX
  5
4F7
330
4E7
100
AcDbEntity
  8
0
  6
Continuous
 62
     7
100
AcDbVertex
100
AcDb2dVertex
 10
-61.050679
 20
105.50686
 30
0.0
 42
0.0027979186
  0
VERTEX
  5
4F8
330
4E7
100
AcDbEntity
  8
0
  6
Continuous
 62
     7
100
AcDbVertex
100
AcDb2dVertex
 10
-60.89662399999999
 20
105.4954699999999
 30
0.0
  0
SEQEND
  5
4F9
330
4E7
100
AcDbEntity
  8
0
 62
     7
  0
POLYLINE
  5
4FA
330
6CE
100
AcDbEntity
  8
0
  6
Continuous
 62
     7
100
AcDb2dPolyline
 66
     1
 10
0.0
 20
0.0
 30
0.0
  0
VERTEX
  5
4FB
330
4FA
100
AcDbEntity
  8
0
  6
Continuous
 62
     7
100
AcDbVertex
100
AcDb2dVertex
 10
-63.174606
 20
104.2599
 30
0.0
 42
-0.000013297302
  0
VERTEX
  5
4FC
330
4FA
100
AcDbEntity
  8
0
  6
Continuous
 62
     7
100
AcDbVertex
100
AcDb2dVertex
 10
-63.175002
 20
104.27306
 30
0.0
 42
-0.000012247112
  0
VERTEX
  5
4FD
330
4FA
100
AcDbEntity
  8
0
  6
Continuous
 62
     7
100
AcDbVertex
100
AcDb2dVertex
 10
-63.176251
 20
104.2866499999999
 30
0.0
 42
-0.000010164202
  0
VERTEX
  5
4FE
330
4FA
100
AcDbEntity
  8
0
  6
Continuous
 62
     7
100
AcDbVertex
100
AcDb2dVertex
 10
-63.178251
 20
104.29952
 30
0.0
 42
-0.0000080190666
  0
VERTEX
  5
4FF
330
4FA
100
AcDbEntity
  8
0
  6
Continuous
 62
     7
100
AcDbVertex
100
AcDb2dVertex
 10
-63.18083099999999
 20
104.3113299999999
 30
0.0
 42
-0.0000065670139
  0
VERTEX
  5
500
330
4FA
100
AcDbEntity
  8
0
  6
Continuous
 62
     7
100
AcDbVertex
100
AcDb2dVertex
 10
-63.184132
 20
104.3229599999999
 30
0.0
 42
-0.0000050020899
  0
VERTEX
  5
501
330
4FA
100
AcDbEntity
  8
0
  6
Continuous
 62
     7
100
AcDbVertex
100
AcDb2dVertex
 10
-63.188183
 20
104.33436
 30
0.0
 42
-0.0000032990517
  0
VERTEX
  5
502
330
4FA
100
AcDbEntity
  8
0
  6
Continuous
 62
     7
100
AcDbVertex
100
AcDb2dVertex
 10
-63.19302
 20
104.34546
 30
0.0
 42
-0.0000014284299
  0
VERTEX
  5
503
330
4FA
100
AcDbEntity
  8
0
  6
Continuous
 62
     7
100
AcDbVertex
100
AcDb2dVertex
 10
-63.198686
 20
104.35616
 30
0.0
 42
0.0000006430713
  0
VERTEX
  5
504
330
4FA
100
AcDbEntity
  8
0
  6
Continuous
 62
     7
100
AcDbVertex
100
AcDb2dVertex
 10
-63.205227
 20
104.36635
 30
0.0
 42
0.0000029503629
  0
VERTEX
  5
505
330
4FA
100
AcDbEntity
  8
0
  6
Continuous
 62
     7
100
AcDbVertex
100
AcDb2dVertex
 10
-63.21268899999999
 20
104.3759
 30
0.0
 42
0.0000060769064
  0
VERTEX
  5
506
330
4FA
100
AcDbEntity
  8
0
  6
Continuous
 62
     7
100
AcDbVertex
100
AcDb2dVertex
 10
-63.221819
 20
104.38524
 30
0.0
 42
0.0000099543176
  0
VERTEX
  5
507
330
4FA
100
AcDbEntity
  8
0
  6
Continuous
 62
     7
100
AcDbVertex
100
AcDb2dVertex
 10
-63.232599
 20
104.3936599999998
 30
0.0
 42
0.000013398745
  0
VERTEX
  5
508
330
4FA
100
AcDbEntity
  8
0
  6
Continuous
 62
     7
100
AcDbVertex
100
AcDb2dVertex
 10
-63.244125
 20
104.4000599999999
 30
0.0
 42
0.000016567502
  0
VERTEX
  5
509
330
4FA
100
AcDbEntity
  8
0
  6
Continuous
 62
     7
100
AcDbVertex
100
AcDb2dVertex
 10
-63.256117
 20
104.4042499999999
 30
0.0
 42
0.000019261606
  0
VERTEX
  5
50A
330
4FA
100
AcDbEntity
  8
0
  6
Continuous
 62
     7
100
AcDbVertex
100
AcDb2dVertex
 10
-63.268252
 20
104.40612
 30
0.0
 42
0.000019568248
  0
VERTEX
  5
50B
330
4FA
100
AcDbEntity
  8
0
  6
Continuous
 62
     7
100
AcDbVertex
100
AcDb2dVertex
 10
-63.279263
 20
104.40586
 30
0.0
  0
SEQEND
  5
50C
330
4FA
100
AcDbEntity
  8
0
 62
     7
  0
POLYLINE
  5
50D
330
6CE
100
AcDbEntity
  8
0
  6
Continuous
 62
     7
100
AcDb2dPolyline
 66
     1
 10
0.0
 20
0.0
 30
0.0
  0
VERTEX
  5
50E
330
50D
100
AcDbEntity
  8
0
  6
Continuous
 62
     7
100
AcDbVertex
100
AcDb2dVertex
 10
-64.101425
 20
104.84525
 30
0.0
 42
-0.000010154062
  0
VERTEX
  5
50F
330
50D
100
AcDbEntity
  8
0
  6
Continuous
 62
     7
100
AcDbVertex
100
AcDb2dVertex
 10
-64.10238099999999
 20
104.8563899999999
 30
0.0
 42
-0.0000066929355
  0
VERTEX
  5
510
330
50D
100
AcDbEntity
  8
0
  6
Continuous
 62
     7
100
AcDbVertex
100
AcDb2dVertex
 10
-64.10523000000001
 20
104.86736
 30
0.0
 42
-0.0000031468497
  0
VERTEX
  5
511
330
50D
100
AcDbEntity
  8
0
  6
Continuous
 62
     7
100
AcDbVertex
100
AcDb2dVertex
 10
-64.10986
 20
104.8778999999999
 30
0.0
 42
0.00000027846498
  0
VERTEX
  5
512
330
50D
100
AcDbEntity
  8
0
  6
Continuous
 62
     7
100
AcDbVertex
100
AcDb2dVertex
 10
-64.116072
 20
104.8877999999999
 30
0.0
 42
0.0000028232254
  0
VERTEX
  5
513
330
50D
100
AcDbEntity
  8
0
  6
Continuous
 62
     7
100
AcDbVertex
100
AcDb2dVertex
 10
-64.122578
 20
104.8957799999999
 30
0.0
 42
0.0000051632164
  0
VERTEX
  5
514
330
50D
100
AcDbEntity
  8
0
  6
Continuous
 62
     7
100
AcDbVertex
100
AcDb2dVertex
 10
-64.130161
 20
104.90331
 30
0.0
 42
0.0000074306939
  0
VERTEX
  5
515
330
50D
100
AcDbEntity
  8
0
  6
Continuous
 62
     7
100
AcDbVertex
100
AcDb2dVertex
 10
-64.138731
 20
104.91032
 30
0.0
 42
0.0000095891088
  0
VERTEX
  5
516
330
50D
100
AcDbEntity
  8
0
  6
Continuous
 62
     7
100
AcDbVertex
100
AcDb2dVertex
 10
-64.14818299999999
 20
104.9167399999999
 30
0.0
 42
0.000011607722
  0
VERTEX
  5
517
330
50D
100
AcDbEntity
  8
0
  6
Continuous
 62
     7
100
AcDbVertex
100
AcDb2dVertex
 10
-64.158405
 20
104.92251
 30
0.0
 42
0.000013461678
  0
VERTEX
  5
518
330
50D
100
AcDbEntity
  8
0
  6
Continuous
 62
     7
100
AcDbVertex
100
AcDb2dVertex
 10
-64.16927499999999
 20
104.92759
 30
0.0
 42
0.00001513183
  0
VERTEX
  5
519
330
50D
100
AcDbEntity
  8
0
  6
Continuous
 62
     7
100
AcDbVertex
100
AcDb2dVertex
 10
-64.18066899999999
 20
104.93196
 30
0.0
 42
0.000016604425
  0
VERTEX
  5
51A
330
50D
100
AcDbEntity
  8
0
  6
Continuous
 62
     7
100
AcDbVertex
100
AcDb2dVertex
 10
-64.192464
 20
104.93558
 30
0.0
 42
0.000017870687
  0
VERTEX
  5
51B
330
50D
100
AcDbEntity
  8
0
  6
Continuous
 62
     7
100
AcDbVertex
100
AcDb2dVertex
 10
-64.20453499999999
 20
104.93846
 30
0.0
 42
0.000018926362
  0
VERTEX
  5
51C
330
50D
100
AcDbEntity
  8
0
  6
Continuous
 62
     7
100
AcDbVertex
100
AcDb2dVertex
 10
-64.216763
 20
104.9406
 30
0.0
 42
0.000019771237
  0
VERTEX
  5
51D
330
50D
100
AcDbEntity
  8
0
  6
Continuous
 62
     7
100
AcDbVertex
100
AcDb2dVertex
 10
-64.229035
 20
104.94201
 30
0.0
 42
0.000020408652
  0
VERTEX
  5
51E
330
50D
100
AcDbEntity
  8
0
  6
Continuous
 62
     7
100
AcDbVertex
100
AcDb2dVertex
 10
-64.241244
 20
104.94272
 30
0.0
  0
SEQEND
  5
51F
330
50D
100
AcDbEntity
  8
0
 62
     7
  0
POLYLINE
  5
520
330
6CE
100
AcDbEntity
  8
0
  6
Continuous
 62
     7
100
AcDb2dPolyline
 66
     1
 10
0.0
 20
0.0
 30
0.0
  0
VERTEX
  5
521
330
520
100
AcDbEntity
  8
0
  6
Continuous
 62
     7
100
AcDbVertex
100
AcDb2dVertex
 10
-60.78439300000001
 20
104.69892
 30
0.0
 42
0.000012945558
  0
VERTEX
  5
522
330
520
100
AcDbEntity
  8
0
  6
Continuous
 62
     7
100
AcDbVertex
100
AcDb2dVertex
 10
-60.78399799999999
 20
104.6857499999999
 30
0.0
 42
0.000011861925
  0
VERTEX
  5
523
330
520
100
AcDbEntity
  8
0
  6
Continuous
 62
     7
100
AcDbVertex
100
AcDb2dVertex
 10
-60.782749
 20
104.6721699999998
 30
0.0
 42
0.0000097769835
  0
VERTEX
  5
524
330
520
100
AcDbEntity
  8
0
  6
Continuous
 62
     7
100
AcDbVertex
100
AcDb2dVertex
 10
-60.78074799999999
 20
104.6593
 30
0.0
 42
0.0000076426046
  0
VERTEX
  5
525
330
520
100
AcDbEntity
  8
0
  6
Continuous
 62
     7
100
AcDbVertex
100
AcDb2dVertex
 10
-60.778168
 20
104.6474899999999
 30
0.0
 42
0.0000061737477
  0
VERTEX
  5
526
330
520
100
AcDbEntity
  8
0
  6
Continuous
 62
     7
100
AcDbVertex
100
AcDb2dVertex
 10
-60.77486700000001
 20
104.6358499999999
 30
0.0
 42
0.0000045916112
  0
VERTEX
  5
527
330
520
100
AcDbEntity
  8
0
  6
Continuous
 62
     7
100
AcDbVertex
100
AcDb2dVertex
 10
-60.770816
 20
104.62445
 30
0.0
 42
0.0000028709126
  0
VERTEX
  5
528
330
520
100
AcDbEntity
  8
0
  6
Continuous
 62
     7
100
AcDbVertex
100
AcDb2dVertex
 10
-60.765979
 20
104.61336
 30
0.0
 42
0.00000098225671
  0
VERTEX
  5
529
330
520
100
AcDbEntity
  8
0
  6
Continuous
 62
     7
100
AcDbVertex
100
AcDb2dVertex
 10
-60.760313
 20
104.60266
 30
0.0
 42
-0.0000011073876
  0
VERTEX
  5
52A
330
520
100
AcDbEntity
  8
0
  6
Continuous
 62
     7
100
AcDbVertex
100
AcDb2dVertex
 10
-60.753772
 20
104.59247
 30
0.0
 42
-0.0000034323492
  0
VERTEX
  5
52B
330
520
100
AcDbEntity
  8
0
  6
Continuous
 62
     7
100
AcDbVertex
100
AcDb2dVertex
 10
-60.74630899999998
 20
104.58292
 30
0.0
 42
-0.0000066147461
  0
VERTEX
  5
52C
330
520
100
AcDbEntity
  8
0
  6
Continuous
 62
     7
100
AcDbVertex
100
AcDb2dVertex
 10
-60.73718
 20
104.57358
 30
0.0
 42
-0.0000105325
  0
VERTEX
  5
52D
330
520
100
AcDbEntity
  8
0
  6
Continuous
 62
     7
100
AcDbVertex
100
AcDb2dVertex
 10
-60.72639999999999
 20
104.56516
 30
0.0
 42
-0.000013961902
  0
VERTEX
  5
52E
330
520
100
AcDbEntity
  8
0
  6
Continuous
 62
     7
100
AcDbVertex
100
AcDb2dVertex
 10
-60.714874
 20
104.5587599999998
 30
0.0
 42
-0.000017101575
  0
VERTEX
  5
52F
330
520
100
AcDbEntity
  8
0
  6
Continuous
 62
     7
100
AcDbVertex
100
AcDb2dVertex
 10
-60.702882
 20
104.5545799999999
 30
0.0
 42
-0.000019752685
  0
VERTEX
  5
530
330
520
100
AcDbEntity
  8
0
  6
Continuous
 62
     7
100
AcDbVertex
100
AcDb2dVertex
 10
-60.690748
 20
104.5527
 30
0.0
 42
-0.000019972438
  0
VERTEX
  5
531
330
520
100
AcDbEntity
  8
0
  6
Continuous
 62
     7
100
AcDbVertex
100
AcDb2dVertex
 10
-60.679737
 20
104.55297
 30
0.0
  0
SEQEND
  5
532
330
520
100
AcDbEntity
  8
0
 62
     7
  0
POLYLINE
  5
533
330
6CE
100
AcDbEntity
  8
0
  6
Continuous
 62
     7
100
AcDb2dPolyline
 66
     1
 10
0.0
 20
0.0
 30
0.0
  0
VERTEX
  5
534
330
533
100
AcDbEntity
  8
0
  6
Continuous
 62
     7
100
AcDbVertex
100
AcDb2dVertex
 10
-61.46731599999999
 20
102.6501499999999
 30
0.0
 42
0.035565416
  0
VERTEX
  5
535
330
533
100
AcDbEntity
  8
0
  6
Continuous
 62
     7
100
AcDbVertex
100
AcDb2dVertex
 10
-61.331825
 20
102.65982
 30
0.0
 42
0.034842828
  0
VERTEX
  5
536
330
533
100
AcDbEntity
  8
0
  6
Continuous
 62
     7
100
AcDbVertex
100
AcDb2dVertex
 10
-61.19868
 20
102.6885
 30
0.0
 42
0.033422482
  0
VERTEX
  5
537
330
533
100
AcDbEntity
  8
0
  6
Continuous
 62
     7
100
AcDbVertex
100
AcDb2dVertex
 10
-61.070408
 20
102.73514
 30
0.0
 42
0.031372419
  0
VERTEX
  5
538
330
533
100
AcDbEntity
  8
0
  6
Continuous
 62
     7
100
AcDbVertex
100
AcDb2dVertex
 10
-60.949698
 20
102.79774
 30
0.0
 42
0.029244604
  0
VERTEX
  5
539
330
533
100
AcDbEntity
  8
0
  6
Continuous
 62
     7
100
AcDbVertex
100
AcDb2dVertex
 10
-60.83753299999999
 20
102.8744099999999
 30
0.0
 42
0.027255918
  0
VERTEX
  5
53A
330
533
100
AcDbEntity
  8
0
  6
Continuous
 62
     7
100
AcDbVertex
100
AcDb2dVertex
 10
-60.734299
 20
102.96361
 30
0.0
 42
0.025338798
  0
VERTEX
  5
53B
330
533
100
AcDbEntity
  8
0
  6
Continuous
 62
     7
100
AcDbVertex
100
AcDb2dVertex
 10
-60.640762
 20
103.0633899999999
 30
0.0
 42
0.023467003
  0
VERTEX
  5
53C
330
533
100
AcDbEntity
  8
0
  6
Continuous
 62
     7
100
AcDbVertex
100
AcDb2dVertex
 10
-60.557724
 20
103.17137
 30
0.0
 42
0.022117014
  0
VERTEX
  5
53D
330
533
100
AcDbEntity
  8
0
  6
Continuous
 62
     7
100
AcDbVertex
100
AcDb2dVertex
 10
-60.48424699999999
 20
103.2874099999998
 30
0.0
 42
0.02088799
  0
VERTEX
  5
53E
330
533
100
AcDbEntity
  8
0
  6
Continuous
 62
     7
100
AcDbVertex
100
AcDb2dVertex
 10
-60.42073399999999
 20
103.4098399999999
 30
0.0
 42
0.019664567
  0
VERTEX
  5
53F
330
533
100
AcDbEntity
  8
0
  6
Continuous
 62
     7
100
AcDbVertex
100
AcDb2dVertex
 10
-60.367714
 20
103.5361299999999
 30
0.0
 42
0.018803814
  0
VERTEX
  5
540
330
533
100
AcDbEntity
  8
0
  6
Continuous
 62
     7
100
AcDbVertex
100
AcDb2dVertex
 10
-60.324546
 20
103.6661199999999
 30
0.0
 42
0.018137815
  0
VERTEX
  5
541
330
533
100
AcDbEntity
  8
0
  6
Continuous
 62
     7
100
AcDbVertex
100
AcDb2dVertex
 10
-60.29108199999999
 20
103.7989599999998
 30
0.0
 42
0.017651018
  0
VERTEX
  5
542
330
533
100
AcDbEntity
  8
0
  6
Continuous
 62
     7
100
AcDbVertex
100
AcDb2dVertex
 10
-60.26719499999999
 20
103.93385
 30
0.0
 42
0.017331147
  0
VERTEX
  5
543
330
533
100
AcDbEntity
  8
0
  6
Continuous
 62
     7
100
AcDbVertex
100
AcDb2dVertex
 10
-60.252791
 20
104.0700799999999
 30
0.0
 42
0.017246755
  0
VERTEX
  5
544
330
533
100
AcDbEntity
  8
0
  6
Continuous
 62
     7
100
AcDbVertex
100
AcDb2dVertex
 10
-60.24780599999999
 20
104.2075799999999
 30
0.0
  0
SEQEND
  5
545
330
533
100
AcDbEntity
  8
0
 62
     7
  0
POLYLINE
  5
546
330
6CE
100
AcDbEntity
  8
0
  6
Continuous
 62
     7
100
AcDb2dPolyline
 66
     1
 10
0.0
 20
0.0
 30
0.0
  0
VERTEX
  5
547
330
546
100
AcDbEntity
  8
0
  6
Continuous
 62
     7
100
AcDbVertex
100
AcDb2dVertex
 10
-58.638077
 20
103.0404
 30
0.0
 42
0.016373987
  0
VERTEX
  5
548
330
546
100
AcDbEntity
  8
0
  6
Continuous
 62
     7
100
AcDbVertex
100
AcDb2dVertex
 10
-58.591924
 20
103.04191
 30
0.0
 42
0.016387537
  0
VERTEX
  5
549
330
546
100
AcDbEntity
  8
0
  6
Continuous
 62
     7
100
AcDbVertex
100
AcDb2dVertex
 10
-58.54576699999999
 20
103.0464599999999
 30
0.0
 42
0.016337517
  0
VERTEX
  5
54A
330
546
100
AcDbEntity
  8
0
  6
Continuous
 62
     7
100
AcDbVertex
100
AcDb2dVertex
 10
-58.49982199999999
 20
103.05405
 30
0.0
 42
0.016226446
  0
VERTEX
  5
54B
330
546
100
AcDbEntity
  8
0
  6
Continuous
 62
     7
100
AcDbVertex
100
AcDb2dVertex
 10
-58.454302
 20
103.06466
 30
0.0
 42
0.016058802
  0
VERTEX
  5
54C
330
546
100
AcDbEntity
  8
0
  6
Continuous
 62
     7
100
AcDbVertex
100
AcDb2dVertex
 10
-58.409415
 20
103.0782199999999
 30
0.0
 42
0.015840697
  0
VERTEX
  5
54D
330
546
100
AcDbEntity
  8
0
  6
Continuous
 62
     7
100
AcDbVertex
100
AcDb2dVertex
 10
-58.36535699999998
 20
103.0946699999998
 30
0.0
 42
0.015579466
  0
VERTEX
  5
54E
330
546
100
AcDbEntity
  8
0
  6
Continuous
 62
     7
100
AcDbVertex
100
AcDb2dVertex
 10
-58.322313
 20
103.1138899999999
 30
0.0
 42
0.015283185
  0
VERTEX
  5
54F
330
546
100
AcDbEntity
  8
0
  6
Continuous
 62
     7
100
AcDbVertex
100
AcDb2dVertex
 10
-58.28045
 20
103.13578
 30
0.0
 42
0.014960214
  0
VERTEX
  5
550
330
546
100
AcDbEntity
  8
0
  6
Continuous
 62
     7
100
AcDbVertex
100
AcDb2dVertex
 10
-58.23992
 20
103.1602099999999
 30
0.0
 42
0.014618775
  0
VERTEX
  5
551
330
546
100
AcDbEntity
  8
0
  6
Continuous
 62
     7
100
AcDbVertex
100
AcDb2dVertex
 10
-58.200853
 20
103.1870199999999
 30
0.0
 42
0.013794293
  0
VERTEX
  5
552
330
546
100
AcDbEntity
  8
0
  6
Continuous
 62
     7
100
AcDbVertex
100
AcDb2dVertex
 10
-58.16459399999999
 20
103.21506
 30
0.0
 42
0.01360575
  0
VERTEX
  5
553
330
546
100
AcDbEntity
  8
0
  6
Continuous
 62
     7
100
AcDbVertex
100
AcDb2dVertex
 10
-58.129528
 20
103.2453899999999
 30
0.0
 42
0.013404042
  0
VERTEX
  5
554
330
546
100
AcDbEntity
  8
0
  6
Continuous
 62
     7
100
AcDbVertex
100
AcDb2dVertex
 10
-58.095792
 20
103.2779099999999
 30
0.0
 42
0.013192883
  0
VERTEX
  5
555
330
546
100
AcDbEntity
  8
0
  6
Continuous
 62
     7
100
AcDbVertex
100
AcDb2dVertex
 10
-58.063516
 20
103.3125199999999
 30
0.0
 42
0.012975741
  0
VERTEX
  5
556
330
546
100
AcDbEntity
  8
0
  6
Continuous
 62
     7
100
AcDbVertex
100
AcDb2dVertex
 10
-58.03281899999999
 20
103.3491
 30
0.0
 42
0.012755771
  0
VERTEX
  5
557
330
546
100
AcDbEntity
  8
0
  6
Continuous
 62
     7
100
AcDbVertex
100
AcDb2dVertex
 10
-58.003812
 20
103.3875199999999
 30
0.0
  0
SEQEND
  5
558
330
546
100
AcDbEntity
  8
0
 62
     7
  0
CIRCLE
  5
5C1
330
6CE
100
AcDbEntity
  8
0
  6
Continuous
 62
     7
100
AcDbCircle
 10
-71.18074
 20
202.5052899999999
 30
0.0
 40
0.4000000100000002
  0
CIRCLE
  5
5C2
330
6CE
100
AcDbEntity
  8
0
  6
Continuous
 62
     7
100
AcDbCircle
 10
-69.05574
 20
26.659626
 30
0.0
 40
0.4000000100000002
  0
TEXT
  5
5C3
330
6CE
100
AcDbEntity
  8
0
  6
Continuous
 62
     7
100
AcDbText
 10
-72.073598
 20
-13.85976799999999
 30
0.0
 40
3.2
  1
8
 41
1.0714291
100
AcDbText
  0
LINE
  5
5C4
330
6CE
100
AcDbEntity
  8
0
  6
Continuous
 62
     7
100
AcDbLine
 10
-74.93074
 20
-14.65976799999999
 30
0.0
 11
-70.93074
 21
-14.65976799999999
 31
0.0
  0
CIRCLE
  5
5C5
330
6CE
100
AcDbEntity
  8
0
  6
Continuous
 62
     7
100
AcDbCircle
 10
-74.93074
 20
-14.65976799999999
 30
0.0
 40
0.3
  0
LINE
  5
5C6
330
6CE
100
AcDbEntity
  8
0
  6
Continuous
 62
     7
100
AcDbLine
 10
-66.93074
 20
-14.65976799999999
 30
0.0
 11
-70.93074
 21
-14.65976799999999
 31
0.0
  0
CIRCLE
  5
5C7
330
6CE
100
AcDbEntity
  8
0
  6
Continuous
 62
     7
100
AcDbCircle
 10
-66.93074
 20
-14.65976799999999
 30
0.0
 40
0.3
  0
LINE
  5
5C8
330
6CE
100
AcDbEntity
  8
0
  6
Continuous
 62
     7
100
AcDbLine
 10
-74.93074
 20
5.340232399999998
 30
0.0
 11
-74.93074
 21
-16.159767
 31
0.0
  0
LINE
  5
5C9
330
6CE
100
AcDbEntity
  8
0
  6
Continuous
 62
     7
100
AcDbLine
 10
-66.93074
 20
23.14162599999999
 30
0.0
 11
-66.93074
 21
-16.159767
 31
0.0
  0
TEXT
  5
5CA
330
6CE
100
AcDbEntity
  8
0
  6
Continuous
 62
     7
100
AcDbText
 10
-50.07359799999999
 20
-13.85976799999999
 30
0.0
 40
3.2
  1
8
 41
1.0714291
100
AcDbText
  0
LINE
  5
5CB
330
6CE
100
AcDbEntity
  8
0
  6
Continuous
 62
     7
100
AcDbLine
 10
-52.93074
 20
-14.65976799999999
 30
0.0
 11
-48.93074
 21
-14.65976799999999
 31
0.0
  0
CIRCLE
  5
5CC
330
6CE
100
AcDbEntity
  8
0
  6
Continuous
 62
     7
100
AcDbCircle
 10
-52.93074
 20
-14.65976799999999
 30
0.0
 40
0.3
  0
LINE
  5
5CD
330
6CE
100
AcDbEntity
  8
0
  6
Continuous
 62
     7
100
AcDbLine
 10
-44.93074
 20
-14.65976799999999
 30
0.0
 11
-48.93074
 21
-14.65976799999999
 31
0.0
  0
CIRCLE
  5
5CE
330
6CE
100
AcDbEntity
  8
0
  6
Continuous
 62
     7
100
AcDbCircle
 10
-44.93074
 20
-14.65976799999999
 30
0.0
 40
0.3
  0
LINE
  5
5CF
330
6CE
100
AcDbEntity
  8
0
  6
Continuous
 62
     7
100
AcDbLine
 10
-52.93074
 20
23.14162599999999
 30
0.0
 11
-52.93074
 21
-16.159767
 31
0.0
  0
LINE
  5
5D0
330
6CE
100
AcDbEntity
  8
0
  6
Continuous
 62
     7
100
AcDbLine
 10
-44.93074
 20
5.340232399999998
 30
0.0
 11
-44.93074
 21
-16.159767
 31
0.0
  0
TEXT
  5
5D1
330
6CE
100
AcDbEntity
  8
0
  6
Continuous
 62
     7
100
AcDbText
 10
-62.673598
 20
-13.85976799999999
 30
0.0
 40
3.2
  1
14
 41
1.2857145
100
AcDbText
  0
LINE
  5
5D2
330
6CE
100
AcDbEntity
  8
0
  6
Continuous
 62
     7
100
AcDbLine
 10
-66.93074
 20
-14.65976799999999
 30
0.0
 11
-59.93074
 21
-14.65976799999999
 31
0.0
  0
CIRCLE
  5
5D3
330
6CE
100
AcDbEntity
  8
0
  6
Continuous
 62
     7
100
AcDbCircle
 10
-66.93074
 20
-14.65976799999999
 30
0.0
 40
0.3
  0
LINE
  5
5D4
330
6CE
100
AcDbEntity
  8
0
  6
Continuous
 62
     7
100
AcDbLine
 10
-52.93074
 20
-14.65976799999999
 30
0.0
 11
-59.93074
 21
-14.65976799999999
 31
0.0
  0
CIRCLE
  5
5D5
330
6CE
100
AcDbEntity
  8
0
  6
Continuous
 62
     7
100
AcDbCircle
 10
-52.93074
 20
-14.65976799999999
 30
0.0
 40
0.3
  0
TEXT
  5
5D6
330
6CE
100
AcDbEntity
  8
0
  6
Continuous
 62
     7
100
AcDbText
 10
-62.673598
 20
-3.859767599999999
 30
0.0
 40
3.2
  1
25
 41
1.0285716
100
AcDbText
  0
LINE
  5
5D7
330
6CE
100
AcDbEntity
  8
0
  6
Continuous
 62
     7
100
AcDbLine
 10
-47.43074
 20
-4.6597676
 30
0.0
 11
-59.93074
 21
-4.6597676
 31
0.0
  0
CIRCLE
  5
5D8
330
6CE
100
AcDbEntity
  8
0
  6
Continuous
 62
     7
100
AcDbCircle
 10
-47.43074
 20
-4.6597676
 30
0.0
 40
0.3
  0
LINE
  5
5D9
330
6CE
100
AcDbEntity
  8
0
  6
Continuous
 62
     7
100
AcDbLine
 10
-72.43074
 20
-4.6597676
 30
0.0
 11
-59.93074
 21
-4.6597676
 31
0.0
  0
CIRCLE
  5
5DA
330
6CE
100
AcDbEntity
  8
0
  6
Continuous
 62
     7
100
AcDbCircle
 10
-72.43074
 20
-4.6597676
 30
0.0
 40
0.3
  0
LINE
  5
5DB
330
6CE
100
AcDbEntity
  8
0
  6
Continuous
 62
     7
100
AcDbLine
 10
-47.43074
 20
20.34023499999999
 30
0.0
 11
-47.43074
 21
-6.1597676
 31
0.0
  0
LINE
  5
5DC
330
6CE
100
AcDbEntity
  8
0
  6
Continuous
 62
     7
100
AcDbLine
 10
-72.43074
 20
20.34023499999999
 30
0.0
 11
-72.43074
 21
-6.1597676
 31
0.0
  0
TEXT
  5
5DD
330
6CE
100
AcDbEntity
  8
0
  6
Continuous
 62
     7
100
AcDbText
 10
-25.730742
 20
100.99738
 30
0.0
 40
3.2
  1
200
 50
90.00000300000001
 41
1.1362128
100
AcDbText
  0
LINE
  5
5DE
330
6CE
100
AcDbEntity
  8
0
  6
Continuous
 62
     7
100
AcDbLine
 10
-24.930742
 20
5.340232399999998
 30
0.0
 11
-24.930742
 21
105.34023
 31
0.0
  0
CIRCLE
  5
5DF
330
6CE
100
AcDbEntity
  8
0
  6
Continuous
 62
     7
100
AcDbCircle
 10
-24.930742
 20
5.340232399999998
 30
0.0
 40
0.3
  0
LINE
  5
5E0
330
6CE
100
AcDbEntity
  8
0
  6
Continuous
 62
     7
100
AcDbLine
 10
-24.930742
 20
205.34023
 30
0.0
 11
-24.930742
 21
105.34023
 31
0.0
  0
CIRCLE
  5
5E1
330
6CE
100
AcDbEntity
  8
0
  6
Continuous
 62
     7
100
AcDbCircle
 10
-24.930742
 20
205.34023
 30
0.0
 40
0.3
  0
LINE
  5
5E2
330
6CE
100
AcDbEntity
  8
0
  6
Continuous
 62
     7
100
AcDbLine
 10
-44.93074
 20
5.340232399999998
 30
0.0
 11
-23.43074199999999
 21
5.340232399999998
 31
0.0
  0
LINE
  5
5E3
330
6CE
100
AcDbEntity
  8
0
  6
Continuous
 62
     7
100
AcDbLine
 10
-44.93074
 20
205.34023
 30
0.0
 11
-23.43074199999999
 21
205.34023
 31
0.0
  0
TEXT
  5
5E4
330
6CE
100
AcDbEntity
  8
0
  6
Continuous
 62
     7
100
AcDbText
 10
-35.73074
 20
6.6973747
 30
0.0
 40
3.2
  1
5
 50
90.00000300000001
 41
1.0714291
100
AcDbText
  0
LINE
  5
5E5
330
6CE
100
AcDbEntity
  8
0
  6
Continuous
 62
     7
100
AcDbLine
 10
-34.93074
 20
5.340232399999998
 30
0.0
 11
-34.93074
 21
7.840232099999999
 31
0.0
  0
CIRCLE
  5
5E6
330
6CE
100
AcDbEntity
  8
0
  6
Continuous
 62
     7
100
AcDbCircle
 10
-34.93074
 20
5.340232399999998
 30
0.0
 40
0.3
  0
LINE
  5
5E7
330
6CE
100
AcDbEntity
  8
0
  6
Continuous
 62
     7
100
AcDbLine
 10
-34.93074
 20
10.340232
 30
0.0
 11
-34.93074
 21
7.840232099999999
 31
0.0
  0
CIRCLE
  5
5E8
330
6CE
100
AcDbEntity
  8
0
  6
Continuous
 62
     7
100
AcDbCircle
 10
-34.93074
 20
10.340232
 30
0.0
 40
0.3
  0
LINE
  5
5E9
330
6CE
100
AcDbEntity
  8
0
  6
Continuous
 62
     7
100
AcDbLine
 10
-44.93074
 20
10.340232
 30
0.0
 11
-33.43074
 21
10.340232
 31
0.0
  0
TEXT
  5
5EA
330
6CE
100
AcDbEntity
  8
0
  6
Continuous
 62
     7
100
AcDbText
 10
-35.73074
 20
17.59737499999999
 30
0.0
 40
3.2
  1
20
 50
90.00000300000001
 41
1.102041
100
AcDbText
  0
LINE
  5
5EB
330
6CE
100
AcDbEntity
  8
0
  6
Continuous
 62
     7
100
AcDbLine
 10
-34.93074
 20
10.340232
 30
0.0
 11
-34.93074
 21
20.34023299999999
 31
0.0
  0
CIRCLE
  5
5EC
330
6CE
100
AcDbEntity
  8
0
  6
Continuous
 62
     7
100
AcDbCircle
 10
-34.93074
 20
10.340232
 30
0.0
 40
0.3
  0
LINE
  5
5ED
330
6CE
100
AcDbEntity
  8
0
  6
Continuous
 62
     7
100
AcDbLine
 10
-34.93074
 20
30.34023499999999
 30
0.0
 11
-34.93074
 21
20.34023299999999
 31
0.0
  0
CIRCLE
  5
5EE
330
6CE
100
AcDbEntity
  8
0
  6
Continuous
 62
     7
100
AcDbCircle
 10
-34.93074
 20
30.34023499999999
 30
0.0
 40
0.3
  0
LINE
  5
5EF
330
6CE
100
AcDbEntity
  8
0
  6
Continuous
 62
     7
100
AcDbLine
 10
-44.93074
 20
30.34023499999999
 30
0.0
 11
-33.43074
 21
30.34023499999999
 31
0.0
  0
TEXT
  5
5F0
330
6CE
100
AcDbEntity
  8
0
  6
Continuous
 62
     7
100
AcDbText
 10
-35.73074
 20
201.69737
 30
0.0
 40
3.2
  1
5
 50
90.00000300000001
 41
1.0714291
100
AcDbText
  0
LINE
  5
5F1
330
6CE
100
AcDbEntity
  8
0
  6
Continuous
 62
     7
100
AcDbLine
 10
-34.93074
 20
200.3402299999999
 30
0.0
 11
-34.93074
 21
202.8402299999999
 31
0.0
  0
CIRCLE
  5
5F2
330
6CE
100
AcDbEntity
  8
0
  6
Continuous
 62
     7
100
AcDbCircle
 10
-34.93074
 20
200.3402299999999
 30
0.0
 40
0.3
  0
LINE
  5
5F3
330
6CE
100
AcDbEntity
  8
0
  6
Continuous
 62
     7
100
AcDbLine
 10
-34.93074
 20
205.34023
 30
0.0
 11
-34.93074
 21
202.8402299999999
 31
0.0
  0
CIRCLE
  5
5F4
330
6CE
100
AcDbEntity
  8
0
  6
Continuous
 62
     7
100
AcDbCircle
 10
-34.93074
 20
205.34023
 30
0.0
 40
0.3
  0
LINE
  5
5F5
330
6CE
100
AcDbEntity
  8
0
  6
Continuous
 62
     7
100
AcDbLine
 10
-44.93074
 20
200.3402299999999
 30
0.0
 11
-33.43074
 21
200.3402299999999
 31
0.0
  0
TEXT
  5
5F6
330
6CE
100
AcDbEntity
  8
0
  6
Continuous
 62
     7
100
AcDbText
 10
-35.73074
 20
187.5973699999999
 30
0.0
 40
3.2
  1
20
 50
90.00000300000001
 41
1.102041
100
AcDbText
  0
LINE
  5
5F7
330
6CE
100
AcDbEntity
  8
0
  6
Continuous
 62
     7
100
AcDbLine
 10
-34.93074
 20
180.3402299999999
 30
0.0
 11
-34.93074
 21
190.3402299999999
 31
0.0
  0
CIRCLE
  5
5F8
330
6CE
100
AcDbEntity
  8
0
  6
Continuous
 62
     7
100
AcDbCircle
 10
-34.93074
 20
180.3402299999999
 30
0.0
 40
0.3
  0
LINE
  5
5F9
330
6CE
100
AcDbEntity
  8
0
  6
Continuous
 62
     7
100
AcDbLine
 10
-34.93074
 20
200.3402299999999
 30
0.0
 11
-34.93074
 21
190.3402299999999
 31
0.0
  0
CIRCLE
  5
5FA
330
6CE
100
AcDbEntity
  8
0
  6
Continuous
 62
     7
100
AcDbCircle
 10
-34.93074
 20
200.3402299999999
 30
0.0
 40
0.3
  0
LINE
  5
5FB
330
6CE
100
AcDbEntity
  8
0
  6
Continuous
 62
     7
100
AcDbLine
 10
-44.93074
 20
180.3402299999999
 30
0.0
 11
-33.43074
 21
180.3402299999999
 31
0.0
  0
TEXT
  5
5FC
330
6CE
100
AcDbEntity
  8
0
  6
Continuous
 62
     7
100
AcDbText
 10
-105.73074
 20
100.99738
 30
0.0
 40
3.2
  1
190
 50
90.00000300000001
 41
1.221428699999999
100
AcDbText
  0
LINE
  5
5FD
330
6CE
100
AcDbEntity
  8
0
  6
Continuous
 62
     7
100
AcDbLine
 10
-104.9307399999999
 20
10.340232
 30
0.0
 11
-104.9307399999999
 21
105.34023
 31
0.0
  0
CIRCLE
  5
5FE
330
6CE
100
AcDbEntity
  8
0
  6
Continuous
 62
     7
100
AcDbCircle
 10
-104.9307399999999
 20
10.340232
 30
0.0
 40
0.3
  0
LINE
  5
5FF
330
6CE
100
AcDbEntity
  8
0
  6
Continuous
 62
     7
100
AcDbLine
 10
-104.9307399999999
 20
200.3402299999999
 30
0.0
 11
-104.9307399999999
 21
105.34023
 31
0.0
  0
CIRCLE
  5
600
330
6CE
100
AcDbEntity
  8
0
  6
Continuous
 62
     7
100
AcDbCircle
 10
-104.9307399999999
 20
200.3402299999999
 30
0.0
 40
0.3
  0
LINE
  5
601
330
6CE
100
AcDbEntity
  8
0
  6
Continuous
 62
     7
100
AcDbLine
 10
-74.93074
 20
10.340232
 30
0.0
 11
-106.4307399999999
 21
10.340232
 31
0.0
  0
LINE
  5
602
330
6CE
100
AcDbEntity
  8
0
  6
Continuous
 62
     7
100
AcDbLine
 10
-74.93074
 20
200.3402299999999
 30
0.0
 11
-106.4307399999999
 21
200.3402299999999
 31
0.0
  0
TEXT
  5
603
330
6CE
100
AcDbEntity
  8
0
  6
Continuous
 62
     7
100
AcDbText
 10
-95.730739
 20
80.19737499999997
 30
0.0
 40
3.2
  1
１７０切欠１７０．５ｘ２５．５）
 50
90.00000300000001
 41
0.8428903599999999
100
AcDbText
  0
LINE
  5
604
330
6CE
100
AcDbEntity
  8
0
  6
Continuous
 62
     7
100
AcDbLine
 10
-94.93074
 20
20.34023499999999
 30
0.0
 11
-94.93074
 21
105.34023
 31
0.0
  0
CIRCLE
  5
605
330
6CE
100
AcDbEntity
  8
0
  6
Continuous
 62
     7
100
AcDbCircle
 10
-94.93074
 20
20.34023499999999
 30
0.0
 40
0.3
  0
LINE
  5
606
330
6CE
100
AcDbEntity
  8
0
  6
Continuous
 62
     7
100
AcDbLine
 10
-94.93074
 20
190.3402299999999
 30
0.0
 11
-94.93074
 21
105.34023
 31
0.0
  0
CIRCLE
  5
607
330
6CE
100
AcDbEntity
  8
0
  6
Continuous
 62
     7
100
AcDbCircle
 10
-94.93074
 20
190.3402299999999
 30
0.0
 40
0.3
  0
LINE
  5
608
330
6CE
100
AcDbEntity
  8
0
  6
Continuous
 62
     7
100
AcDbLine
 10
-74.93074
 20
20.34023499999999
 30
0.0
 11
-96.43074
 21
20.34023499999999
 31
0.0
  0
LINE
  5
609
330
6CE
100
AcDbEntity
  8
0
  6
Continuous
 62
     7
100
AcDbLine
 10
-74.93074
 20
190.3402299999999
 30
0.0
 11
-96.43074
 21
190.3402299999999
 31
0.0
  0
TEXT
  5
60A
330
6CE
100
AcDbEntity
  8
0
  6
Continuous
 62
     7
100
AcDbText
 10
-85.73073999999998
 20
100.99738
 30
0.0
 40
3.2
  1
150
 50
90.00000300000001
 41
1.221428699999999
100
AcDbText
  0
LINE
  5
60B
330
6CE
100
AcDbEntity
  8
0
  6
Continuous
 62
     7
100
AcDbLine
 10
-84.93074
 20
30.34023499999999
 30
0.0
 11
-84.93074
 21
105.34023
 31
0.0
  0
CIRCLE
  5
60C
330
6CE
100
AcDbEntity
  8
0
  6
Continuous
 62
     7
100
AcDbCircle
 10
-84.93074
 20
30.34023499999999
 30
0.0
 40
0.3
  0
LINE
  5
60D
330
6CE
100
AcDbEntity
  8
0
  6
Continuous
 62
     7
100
AcDbLine
 10
-84.93074
 20
180.3402299999999
 30
0.0
 11
-84.93074
 21
105.34023
 31
0.0
  0
CIRCLE
  5
60E
330
6CE
100
AcDbEntity
  8
0
  6
Continuous
 62
     7
100
AcDbCircle
 10
-84.93074
 20
180.3402299999999
 30
0.0
 40
0.3
  0
LINE
  5
60F
330
6CE
100
AcDbEntity
  8
0
  6
Continuous
 62
     7
100
AcDbLine
 10
-74.93074
 20
30.34023499999999
 30
0.0
 11
-86.43074
 21
30.34023499999999
 31
0.0
  0
LINE
  5
610
330
6CE
100
AcDbEntity
  8
0
  6
Continuous
 62
     7
100
AcDbLine
 10
-74.93074
 20
180.3402299999999
 30
0.0
 11
-86.43074
 21
180.3402299999999
 31
0.0
  0
TEXT
  5
611
330
6CE
100
AcDbEntity
  8
0
  6
Continuous
 62
     7
100
AcDbText
 10
-62.673598
 20
216.1402299999998
 30
0.0
 40
3.2
  1
20
 41
1.102041
100
AcDbText
  0
LINE
  5
612
330
6CE
100
AcDbEntity
  8
0
  6
Continuous
 62
     7
100
AcDbLine
 10
-69.93074
 20
215.3402299999999
 30
0.0
 11
-59.93074
 21
215.3402299999999
 31
0.0
  0
CIRCLE
  5
613
330
6CE
100
AcDbEntity
  8
0
  6
Continuous
 62
     7
100
AcDbCircle
 10
-69.93074
 20
215.3402299999999
 30
0.0
 40
0.3
  0
LINE
  5
614
330
6CE
100
AcDbEntity
  8
0
  6
Continuous
 62
     7
100
AcDbLine
 10
-49.93074
 20
215.3402299999999
 30
0.0
 11
-59.93074
 21
215.3402299999999
 31
0.0
  0
CIRCLE
  5
615
330
6CE
100
AcDbEntity
  8
0
  6
Continuous
 62
     7
100
AcDbCircle
 10
-49.93074
 20
215.3402299999999
 30
0.0
 40
0.3
  0
LINE
  5
616
330
6CE
100
AcDbEntity
  8
0
  6
Continuous
 62
     7
100
AcDbLine
 10
-69.93074
 20
205.34023
 30
0.0
 11
-69.93074
 21
216.8402299999999
 31
0.0
  0
LINE
  5
617
330
6CE
100
AcDbEntity
  8
0
  6
Continuous
 62
     7
100
AcDbLine
 10
-49.93074
 20
205.34023
 30
0.0
 11
-49.93074
 21
216.8402299999999
 31
0.0
  0
TEXT
  5
618
330
6CE
100
AcDbEntity
  8
0
  6
Continuous
 62
     7
100
AcDbText
 10
-62.673598
 20
226.1402299999998
 30
0.0
 40
3.2
  1
30
 41
1.102041
100
AcDbText
  0
LINE
  5
619
330
6CE
100
AcDbEntity
  8
0
  6
Continuous
 62
     7
100
AcDbLine
 10
-74.93074
 20
225.3402299999999
 30
0.0
 11
-59.93074
 21
225.3402299999999
 31
0.0
  0
CIRCLE
  5
61A
330
6CE
100
AcDbEntity
  8
0
  6
Continuous
 62
     7
100
AcDbCircle
 10
-74.93074
 20
225.3402299999999
 30
0.0
 40
0.3
  0
LINE
  5
61B
330
6CE
100
AcDbEntity
  8
0
  6
Continuous
 62
     7
100
AcDbLine
 10
-44.93074
 20
225.3402299999999
 30
0.0
 11
-59.93074
 21
225.3402299999999
 31
0.0
  0
CIRCLE
  5
61C
330
6CE
100
AcDbEntity
  8
0
  6
Continuous
 62
     7
100
AcDbCircle
 10
-44.93074
 20
225.3402299999999
 30
0.0
 40
0.3
  0
LINE
  5
61D
330
6CE
100
AcDbEntity
  8
0
  6
Continuous
 62
     7
100
AcDbLine
 10
-74.93074
 20
205.34023
 30
0.0
 11
-74.93074
 21
226.8402299999999
 31
0.0
  0
LINE
  5
61E
330
6CE
100
AcDbEntity
  8
0
  6
Continuous
 62
     7
100
AcDbLine
 10
-44.93074
 20
205.34023
 30
0.0
 11
-44.93074
 21
226.8402299999999
 31
0.0
  0
TEXT
  5
61F
330
6CE
100
AcDbEntity
  8
0
  6
Continuous
 62
     7
100
AcDbText
 10
-73.57359800000001
 20
216.1402299999998
 30
0.0
 40
3.2
  1
5
 41
1.0714291
100
AcDbText
  0
LINE
  5
620
330
6CE
100
AcDbEntity
  8
0
  6
Continuous
 62
     7
100
AcDbLine
 10
-74.93074
 20
215.3402299999999
 30
0.0
 11
-72.43074
 21
215.3402299999999
 31
0.0
  0
CIRCLE
  5
621
330
6CE
100
AcDbEntity
  8
0
  6
Continuous
 62
     7
100
AcDbCircle
 10
-74.93074
 20
215.3402299999999
 30
0.0
 40
0.3
  0
LINE
  5
622
330
6CE
100
AcDbEntity
  8
0
  6
Continuous
 62
     7
100
AcDbLine
 10
-69.93074
 20
215.3402299999999
 30
0.0
 11
-72.43074
 21
215.3402299999999
 31
0.0
  0
CIRCLE
  5
623
330
6CE
100
AcDbEntity
  8
0
  6
Continuous
 62
     7
100
AcDbCircle
 10
-69.93074
 20
215.3402299999999
 30
0.0
 40
0.3
  0
TEXT
  5
624
330
6CE
100
AcDbEntity
  8
0
  6
Continuous
 62
     7
100
AcDbText
 10
-48.573598
 20
216.1402299999998
 30
0.0
 40
3.2
  1
5
 41
1.0714291
100
AcDbText
  0
LINE
  5
625
330
6CE
100
AcDbEntity
  8
0
  6
Continuous
 62
     7
100
AcDbLine
 10
-49.93074
 20
215.3402299999999
 30
0.0
 11
-47.43074
 21
215.3402299999999
 31
0.0
  0
CIRCLE
  5
626
330
6CE
100
AcDbEntity
  8
0
  6
Continuous
 62
     7
100
AcDbCircle
 10
-49.93074
 20
215.3402299999999
 30
0.0
 40
0.3
  0
LINE
  5
627
330
6CE
100
AcDbEntity
  8
0
  6
Continuous
 62
     7
100
AcDbLine
 10
-44.93074
 20
215.3402299999999
 30
0.0
 11
-47.43074
 21
215.3402299999999
 31
0.0
  0
CIRCLE
  5
628
330
6CE
100
AcDbEntity
  8
0
  6
Continuous
 62
     7
100
AcDbCircle
 10
-44.93074
 20
215.3402299999999
 30
0.0
 40
0.3
  0
LINE
  5
629
330
6CE
100
AcDbEntity
  8
0
  6
Continuous
 62
     7
100
AcDbLine
 10
-68.68074
 20
198.17517
 30
0.0
 11
-78.59099599999997
 21
215.34024
 31
0.0
  0
LINE
  5
62A
330
6CE
100
AcDbEntity
  8
0
  6
Continuous
 62
     7
100
AcDbLine
 10
-78.59099599999997
 20
215.34024
 30
0.0
 11
-93.98581699999999
 21
215.34024
 31
0.0
  0
CIRCLE
  5
62B
330
6CE
100
AcDbEntity
  8
0
  6
Continuous
 62
     7
100
AcDbCircle
 10
-68.68074
 20
198.17517
 30
0.0
 40
0.3
  0
TEXT
  5
62C
330
6CE
100
AcDbEntity
  8
0
  6
Continuous
 62
     7
100
AcDbText
 10
-93.07152999999999
 20
216.1402299999998
 30
0.0
 40
3.2
  1
4-M5
 41
1.012987099999999
100
AcDbText
  0
LINE
  5
62D
330
6CE
100
AcDbEntity
  8
0
  6
Continuous
 62
     7
100
AcDbLine
 10
-64.80574
 20
34.02084399999999
 30
0.0
 11
-87.13799999999997
 21
-4.659764299999999
 31
0.0
  0
LINE
  5
62E
330
6CE
100
AcDbEntity
  8
0
  6
Continuous
 62
     7
100
AcDbLine
 10
-87.13799999999997
 20
-4.659764299999999
 30
0.0
 11
-124.9316399999998
 21
-4.659764299999999
 31
0.0
  0
CIRCLE
  5
62F
330
6CE
100
AcDbEntity
  8
0
  6
Continuous
 62
     7
100
AcDbCircle
 10
-64.80574
 20
34.02084399999999
 30
0.0
 40
0.3
  0
TEXT
  5
630
330
6CE
100
AcDbEntity
  8
0
  6
Continuous
 62
     7
100
AcDbText
 10
-124.01735
 20
-3.859767599999999
 30
0.0
 40
3.2
  1
4-%%C4.5x%%C8.5
 41
1.147959199999998
100
AcDbText
  0
TEXT
  5
631
330
6CE
100
AcDbEntity
  8
0
  6
Continuous
 62
     7
100
AcDbText
 10
-237.37361
 20
-13.85976799999999
 30
0.0
 40
3.2
  1
BS70
 41
1.044642899999999
100
AcDbText
  0
LINE
  5
632
330
6CE
100
AcDbEntity
  8
0
  6
Continuous
 62
     7
100
AcDbLine
 10
-266.43076
 20
-14.65976799999999
 30
0.0
 11
-231.4307599999999
 21
-14.65976799999999
 31
0.0
  0
CIRCLE
  5
633
330
6CE
100
AcDbEntity
  8
0
  6
Continuous
 62
     7
100
AcDbCircle
 10
-266.43076
 20
-14.65976799999999
 30
0.0
 40
0.3
  0
LINE
  5
634
330
6CE
100
AcDbEntity
  8
0
  6
Continuous
 62
     7
100
AcDbLine
 10
-196.4307599999999
 20
-14.65976799999999
 30
0.0
 11
-231.4307599999999
 21
-14.65976799999999
 31
0.0
  0
CIRCLE
  5
635
330
6CE
100
AcDbEntity
  8
0
  6
Continuous
 62
     7
100
AcDbCircle
 10
-196.4307599999999
 20
-14.65976799999999
 30
0.0
 40
0.3
  0
TEXT
  5
636
330
6CE
100
AcDbEntity
  8
0
  6
Continuous
 62
     7
100
AcDbText
 10
-241.62361
 20
-3.859767599999999
 30
0.0
 40
3.2
  1
78.5
 41
1.238095299999999
100
AcDbText
  0
LINE
  5
637
330
6CE
100
AcDbEntity
  8
0
  6
Continuous
 62
     7
100
AcDbLine
 10
-274.93076
 20
-4.6597676
 30
0.0
 11
-235.6807599999999
 21
-4.6597676
 31
0.0
  0
CIRCLE
  5
638
330
6CE
100
AcDbEntity
  8
0
  6
Continuous
 62
     7
100
AcDbCircle
 10
-274.93076
 20
-4.6597676
 30
0.0
 40
0.3
  0
LINE
  5
639
330
6CE
100
AcDbEntity
  8
0
  6
Continuous
 62
     7
100
AcDbLine
 10
-196.4307599999999
 20
-4.6597676
 30
0.0
 11
-235.6807599999999
 21
-4.6597676
 31
0.0
  0
CIRCLE
  5
63A
330
6CE
100
AcDbEntity
  8
0
  6
Continuous
 62
     7
100
AcDbCircle
 10
-196.4307599999999
 20
-4.6597676
 30
0.0
 40
0.3
  0
LINE
  5
63B
330
6CE
100
AcDbEntity
  8
0
  6
Continuous
 62
     7
100
AcDbLine
 10
-274.93076
 20
91.340233
 30
0.0
 11
-274.93076
 21
-6.1597676
 31
0.0
  0
TEXT
  5
63C
330
6CE
100
AcDbEntity
  8
0
  6
Continuous
 62
     7
100
AcDbText
 10
-210.6672899999999
 20
131.1402399999998
 30
0.0
 40
3.2
  1
4.3
 41
1.357142999999999
100
AcDbText
  0
LINE
  5
63D
330
6CE
100
AcDbEntity
  8
0
  6
Continuous
 62
     7
100
AcDbLine
 10
-200.73074
 20
130.3402399999999
 30
0.0
 11
-198.5807499999999
 21
130.3402399999999
 31
0.0
  0
LINE
  5
63E
330
6CE
100
AcDbEntity
  8
0
  6
Continuous
 62
     7
100
AcDbLine
 10
-198.5807499999999
 20
130.3402399999999
 30
0.0
 11
-210.6672799999998
 21
130.3402399999999
 31
0.0
  0
CIRCLE
  5
63F
330
6CE
100
AcDbEntity
  8
0
  6
Continuous
 62
     7
100
AcDbCircle
 10
-200.73074
 20
130.3402399999999
 30
0.0
 40
0.3
  0
LINE
  5
640
330
6CE
100
AcDbEntity
  8
0
  6
Continuous
 62
     7
100
AcDbLine
 10
-196.4307599999999
 20
130.3402399999999
 30
0.0
 11
-198.5807499999999
 21
130.3402399999999
 31
0.0
  0
CIRCLE
  5
641
330
6CE
100
AcDbEntity
  8
0
  6
Continuous
 62
     7
100
AcDbCircle
 10
-196.4307599999999
 20
130.3402399999999
 30
0.0
 40
0.3
  0
TEXT
  5
642
330
6CE
100
AcDbEntity
  8
0
  6
Continuous
 62
     7
100
AcDbText
 10
-189.1735999999999
 20
131.1402399999998
 30
0.0
 40
3.2
  1
20
 41
1.102041
100
AcDbText
  0
LINE
  5
643
330
6CE
100
AcDbEntity
  8
0
  6
Continuous
 62
     7
100
AcDbLine
 10
-196.4307599999999
 20
130.3402399999999
 30
0.0
 11
-186.4307499999999
 21
130.3402399999999
 31
0.0
  0
CIRCLE
  5
644
330
6CE
100
AcDbEntity
  8
0
  6
Continuous
 62
     7
100
AcDbCircle
 10
-196.4307599999999
 20
130.3402399999999
 30
0.0
 40
0.3
  0
LINE
  5
645
330
6CE
100
AcDbEntity
  8
0
  6
Continuous
 62
     7
100
AcDbLine
 10
-176.4307399999999
 20
130.3402399999999
 30
0.0
 11
-186.4307499999999
 21
130.3402399999999
 31
0.0
  0
CIRCLE
  5
646
330
6CE
100
AcDbEntity
  8
0
  6
Continuous
 62
     7
100
AcDbCircle
 10
-176.4307399999999
 20
130.3402399999999
 30
0.0
 40
0.3
  0
LINE
  5
647
330
6CE
100
AcDbEntity
  8
0
  6
Continuous
 62
     7
100
AcDbLine
 10
-176.4307399999999
 20
142.34024
 30
0.0
 11
-176.4307399999999
 21
128.84024
 31
0.0
  0
ENDSEC
  0
SECTION
  2
OBJECTS
  0
DICTIONARY
  5
6BC
330
0
100
AcDbDictionary
281
     1
  3
ACAD_GROUP
350
6BD
  3
ACAD_LAYOUT
350
6C9
  3
ACAD_MLINESTYLE
350
6C6
  3
ACAD_PLOTSETTINGS
350
6C8
  3
ACAD_PLOTSTYLENAME
350
6BE
  3
AcDbVariableDictionary
350
73A
  3
AcmDictionary
350
716
  3
AMG
350
6FF
  3
AMGSNAPSETTINGS
350
72F
  3
DWGPROPS
350
719
  0
DICTIONARY
  5
736
330
6CE
100
AcDbDictionary
280
     1
281
     1
  3
ACAD_INDEX
360
737
  0
DICTIONARY
  5
6BD
102
{ACAD_REACTORS
330
6BC
102
}
330
6BC
100
AcDbDictionary
281
     1
  0
DICTIONARY
  5
6C9
102
{ACAD_REACTORS
330
6BC
102
}
330
6BC
100
AcDbDictionary
281
     1
  3
Model
350
6D1
  3
ﾚｲｱｳﾄ1
350
6CD
  0
DICTIONARY
  5
6C6
102
{ACAD_REACTORS
330
6BC
102
}
330
6BC
100
AcDbDictionary
281
     1
  3
Standard
350
6C7
  0
DICTIONARY
  5
6C8
102
{ACAD_REACTORS
330
6BC
102
}
330
6BC
100
AcDbDictionary
281
     1
  0
ACDBDICTIONARYWDFLT
  5
6BE
102
{ACAD_REACTORS
330
6BC
102
}
330
6BC
100
AcDbDictionary
281
     1
  3
Normal
350
6BF
100
AcDbDictionaryWithDefault
340
6BF
  0
DICTIONARY
  5
73A
102
{ACAD_REACTORS
330
6BC
102
}
330
6BC
100
AcDbDictionary
281
     1
  3
DIMASSOC
350
73C
  3
INDEXCTL
350
73B
  0
DICTIONARY
  5
716
102
{ACAD_REACTORS
330
6BC
102
}
330
6BC
100
AcDbDictionary
281
     1
  3
AcmBOMDATA
350
717
  3
AcmStdDictionary
350
71C
  0
DICTIONARY
  5
6FF
102
{ACAD_REACTORS
330
6BC
102
}
330
6BC
100
AcDbDictionary
281
     1
  3
AcMgSettings
350
700
  3
AMGLAYCFG
350
71E
  0
DICTIONARY
  5
72F
102
{ACAD_REACTORS
330
6BC
102
}
330
6BC
100
AcDbDictionary
281
     1
  3
DIMENSION
350
734
  3
FEA
350
733
  3
HATCH (1)
350
730
  3
HATCH (2)
350
731
  3
SIMPLE WELD
350
735
  3
SYMBOLS
350
732
  0
XRECORD
  5
719
102
{ACAD_REACTORS
330
6BC
102
}
330
6BC
100
AcDbXrecord
280
     1
  1
DWGPROPS COOKIE
  2

  3

  4

  6

  7

  8

  9

300
AmdtFileType=84
301
=
302
=
303
=
304
=
305
=
306
=
307
=
308
=
309
=
 40
0.0014929282407407
 41
2452877.627853183
 42
2452877.629337916
  1

 90
        1
  0
DICTIONARY
  5
737
102
{ACAD_REACTORS
330
736
102
}
330
736
100
AcDbDictionary
281
     1
  3
*A1
350
738
  0
LAYOUT
  5
6D1
102
{ACAD_REACTORS
330
6C9
102
}
330
6C9
100
AcDbPlotSettings
  1

  2
\\CAD-SRV01\FX DocuColor 1250 PLW
  4

  6

 40
0.0
 41
0.0
 42
0.0
 43
0.0
 44
0.0
 45
0.0
 46
0.0
 47
0.0
 48
0.0
 49
0.0
140
0.0
141
0.0
142
1.0
143
1.0
 70
  1712
 72
     0
 73
     0
 74
     0
  7

 75
     0
147
1.0
148
0.0
149
0.0
100
AcDbLayout
  1
Model
 70
     1
 71
     0
 10
0.0
 20
0.0
 11
12.0
 21
9.0
 12
0.0
 22
0.0
 32
0.0
 14
0.0
 24
0.0
 34
0.0
 15
0.0
 25
0.0
 35
0.0
146
0.0
 13
0.0
 23
0.0
 33
0.0
 16
1.0
 26
0.0
 36
0.0
 17
0.0
 27
1.0
 37
0.0
 76
     0
330
6CE
  0
LAYOUT
  5
6CD
102
{ACAD_REACTORS
330
6C9
102
}
330
6C9
100
AcDbPlotSettings
  1

  2
\\CAD-SRV01\FX DocuColor 1250 PLW
  4

  6

 40
0.0
 41
0.0
 42
0.0
 43
0.0
 44
0.0
 45
0.0
 46
0.0
 47
0.0
 48
0.0
 49
0.0
140
0.0
141
0.0
142
1.0
143
1.0
 70
   688
 72
     0
 73
     0
 74
     5
  7

 75
    16
147
1.0
148
0.0
149
0.0
100
AcDbLayout
  1
ﾚｲｱｳﾄ1
 70
     1
 71
     1
 10
0.0
 20
0.0
 11
12.0
 21
9.0
 12
0.0
 22
0.0
 32
0.0
 14
1.000000000000000E+20
 24
1.000000000000000E+20
 34
1.000000000000000E+20
 15
-1.000000000000000E+20
 25
-1.000000000000000E+20
 35
-1.000000000000000E+20
146
0.0
 13
0.0
 23
0.0
 33
0.0
 16
1.0
 26
0.0
 36
0.0
 17
0.0
 27
1.0
 37
0.0
 76
     0
330
6CA
  0
MLINESTYLE
  5
6C7
102
{ACAD_REACTORS
330
6C6
102
}
330
6C6
100
AcDbMlineStyle
  2
STANDARD
 70
     0
  3

 62
   256
 51
90.0
 52
90.0
 71
     2
 49
0.5
 62
   256
  6
BYLAYER
 49
-0.5
 62
   256
  6
BYLAYER
  0
ACDBPLACEHOLDER
  5
6BF
102
{ACAD_REACTORS
330
6BE
102
}
330
6BE
  0
DICTIONARYVAR
  5
73C
102
{ACAD_REACTORS
330
73A
102
}
330
73A
100
DictionaryVariables
280
     0
  1
1
  0
DICTIONARYVAR
  5
73B
102
{ACAD_REACTORS
330
73A
102
}
330
73A
100
DictionaryVariables
280
     0
  1
1
  0
ACMDATADICTIONARY
  5
717
102
{ACAD_REACTORS
330
716
102
}
330
716
100
AcDbDictionary
281
     1
  3
*A1
350
718
100
AcmDataDictionary
  0
DICTIONARY
  5
71C
102
{ACAD_REACTORS
330
716
102
}
330
716
100
AcDbDictionary
281
     1
  3
ANSI
350
71D
  0
DICTIONARY
  5
700
102
{ACAD_REACTORS
330
6FF
102
}
330
6FF
100
AcDbDictionary
281
     1
  3
DWGSETTINGS
350
701
  3
TRANSSETTINGS
350
702
  0
ACAMGFILTERDAT
  5
734
102
{ACAD_REACTORS
330
72F
102
}
330
72F
100
AcAmgFilterDat
 70
    15
  1
DIMENSION,AMDT_*_DIM
  2
*
  3
*
  4
*
  5
*
290
     1
  0
ACAMGFILTERDAT
  5
733
102
{ACAD_REACTORS
330
72F
102
}
330
72F
100
AcAmgFilterDat
 70
    15
  1
*
  2
AM_FEA-AM_*
  3
*
  4
*
  5
*
290
     1
  0
ACAMGFILTERDAT
  5
730
102
{ACAD_REACTORS
330
72F
102
}
330
72F
100
AcAmgFilterDat
 70
    15
  1
HATCH
  2
*
  3
*
  4
*
  5
*
290
     1
  0
ACAMGFILTERDAT
  5
731
102
{ACAD_REACTORS
330
72F
102
}
330
72F
100
AcAmgFilterDat
 70
    15
  1
LINE
  2
8,8N,*-8,*-8N,AM_8,AM_8N,*-AM_8,*-AM_8N
  3
*
  4
*
  5
INSERT,STDPART2D
290
     1
  0
ACAMGFILTERDAT
  5
735
102
{ACAD_REACTORS
330
72F
102
}
330
72F
100
AcAmgFilterDat
 70
    15
  1
ARC
  2
AM_5
  3
*
  4
2
  5
INSERT
290
     0
  0
ACAMGFILTERDAT
  5
732
102
{ACAD_REACTORS
330
72F
102
}
330
72F
100
AcAmgFilterDat
 70
    15
  1
ACMFCFRAME,ACMDATUMTARGET,ACMDATUMID,ACMWELDSYM,ACMSURFSYM,ACMFEATID,ACMPARTREF,ACMBALLOON,AMDTEDGESYM,AMGSCREWCALCTABLE
  2
*
  3
*
  4
*
  5
*
290
     1
  0
LAYER_INDEX
  5
738
102
{ACAD_REACTORS
330
737
102
}
330
737
100
AcDbIndex
 40
2453040.736231736
100
AcDbLayerIndex
  8
0
360
739
 90
      523
  0
ACMDATAENTRYBLOCK
  5
718
102
{ACAD_REACTORS
330
717
102
}
330
717
100
AcmDataEntry
100
AcmDataEntryBlock
  0
IDBUFFER
  5
739
330
0
100
AcDbIdBuffer
330
62D
330
62E
330
62F
330
630
330
631
330
632
330
633
330
634
330
635
330
636
330
637
330
638
330
639
330
63A
330
63B
330
63C
330
63D
330
63E
330
63F
330
640
330
641
330
642
330
643
330
644
330
645
330
646
330
647
330
133
330
134
330
135
330
136
330
137
330
138
330
139
330
13A
330
13B
330
13C
330
13D
330
13E
330
13F
330
140
330
141
330
142
330
143
330
144
330
145
330
146
330
147
330
148
330
149
330
14A
330
14B
330
14C
330
14D
330
14E
330
14F
330
150
330
151
330
152
330
153
330
154
330
155
330
156
330
157
330
158
330
159
330
15A
330
15B
330
15C
330
15D
330
15E
330
15F
330
160
330
161
330
162
330
163
330
164
330
165
330
166
330
167
330
168
330
169
330
16A
330
16B
330
16C
330
16D
330
16E
330
16F
330
170
330
171
330
172
330
173
330
174
330
175
330
176
330
177
330
178
330
179
330
17A
330
17B
330
17C
330
17D
330
17E
330
17F
330
180
330
181
330
182
330
183
330
184
330
185
330
186
330
187
330
188
330
189
330
18A
330
18B
330
18C
330
18D
330
18E
330
18F
330
190
330
191
330
192
330
193
330
194
330
195
330
196
330
197
330
198
330
199
330
19A
330
19B
330
19C
330
19D
330
19E
330
19F
330
1A0
330
1A1
330
1A2
330
1A3
330
1A4
330
1A5
330
1A6
330
1A7
330
1A8
330
1A9
330
1AA
330
1AB
330
1AC
330
1AD
330
1AE
330
1AF
330
1B0
330
1B1
330
1B2
330
1B3
330
1B4
330
1B5
330
1B6
330
1B7
330
1B8
330
1B9
330
1BA
330
1BB
330
1BC
330
1BD
330
1BE
330
1BF
330
1C0
330
1C1
330
1C2
330
1C3
330
1C4
330
1C5
330
1C6
330
1C7
330
1C8
330
1C9
330
1CA
330
1CB
330
1CC
330
1CD
330
1CE
330
1CF
330
1D0
330
1D1
330
1D2
330
1D3
330
1D4
330
1D5
330
1D6
330
1D7
330
1D8
330
1D9
330
1DA
330
1DB
330
1DC
330
1DD
330
1DE
330
1DF
330
1E0
330
1E1
330
1E2
330
1E3
330
1E4
330
1E5
330
1E6
330
1E7
330
1E8
330
1E9
330
1EA
330
1EB
330
1EC
330
1ED
330
1EE
330
1EF
330
1F0
330
1F1
330
1F2
330
1F3
330
1F4
330
1F5
330
1F6
330
1F7
330
1F8
330
1F9
330
1FA
330
1FB
330
1FC
330
1FD
330
1FE
330
1FF
330
200
330
201
330
202
330
203
330
204
330
205
330
206
330
207
330
208
330
209
330
20A
330
20B
330
20C
330
20D
330
20E
330
20F
330
210
330
211
330
212
330
213
330
214
330
215
330
216
330
217
330
218
330
219
330
21A
330
21B
330
21C
330
21D
330
21E
330
21F
330
220
330
221
330
222
330
223
330
224
330
225
330
226
330
227
330
228
330
229
330
22A
330
22B
330
22C
330
22D
330
22E
330
22F
330
230
330
231
330
232
330
233
330
234
330
235
330
236
330
237
330
238
330
239
330
23A
330
23B
330
23C
330
23D
330
23E
330
23F
330
240
330
241
330
242
330
243
330
2BB
330
2BC
330
2BD
330
2BE
330
2BF
330
2C0
330
2C1
330
2C2
330
2C3
330
2C4
330
2C5
330
2C6
330
2C7
330
2C8
330
2C9
330
2CA
330
2CB
330
2CC
330
2CD
330
2CE
330
2CF
330
2D0
330
2D1
330
2D2
330
2D3
330
2D4
330
2D5
330
2D6
330
2D7
330
2D8
330
2D9
330
2DA
330
2DB
330
2DC
330
2DD
330
2DE
330
2DF
330
2E0
330
2E1
330
2E2
330
2E3
330
2E4
330
2E5
330
2E6
330
2E7
330
2E8
330
2E9
330
2EA
330
2EB
330
2EC
330
2ED
330
2EE
330
2EF
330
2F0
330
2F1
330
2F2
330
2F3
330
2F4
330
2F5
330
2F6
330
2F7
330
2F8
330
2F9
330
2FA
330
2FB
330
2FC
330
2FD
330
2FE
330
2FF
330
300
330
301
330
302
330
303
330
304
330
305
330
306
330
307
330
308
330
309
330
30A
330
30B
330
30C
330
30D
330
30E
330
30F
330
310
330
311
330
312
330
313
330
314
330
315
330
316
330
317
330
318
330
319
330
31A
330
31B
330
31C
330
31D
330
31E
330
43C
330
44F
330
462
330
475
330
488
330
49B
330
4AE
330
4C1
330
4D4
330
4E7
330
4FA
330
50D
330
520
330
533
330
546
330
5C1
330
5C2
330
5C3
330
5C4
330
5C5
330
5C6
330
5C7
330
5C8
330
5C9
330
5CA
330
5CB
330
5CC
330
5CD
330
5CE
330
5CF
330
5D0
330
5D1
330
5D2
330
5D3
330
5D4
330
5D5
330
5D6
330
5D7
330
5D8
330
5D9
330
5DA
330
5DB
330
5DC
330
5DD
330
5DE
330
5DF
330
5E0
330
5E1
330
5E2
330
5E3
330
5E4
330
5E5
330
5E6
330
5E7
330
5E8
330
5E9
330
5EA
330
5EB
330
5EC
330
5ED
330
5EE
330
5EF
330
5F0
330
5F1
330
5F2
330
5F3
330
5F4
330
5F5
330
5F6
330
5F7
330
5F8
330
5F9
330
5FA
330
5FB
330
5FC
330
5FD
330
5FE
330
5FF
330
600
330
601
330
602
330
603
330
604
330
605
330
606
330
607
330
608
330
609
330
60A
330
60B
330
60C
330
60D
330
60E
330
60F
330
610
330
611
330
612
330
613
330
614
330
615
330
616
330
617
330
618
330
619
330
61A
330
61B
330
61C
330
61D
330
61E
330
61F
330
620
330
621
330
622
330
623
330
624
330
625
330
626
330
627
330
628
330
629
330
62A
330
62B
330
62C
  0
ENDSEC
  0
EOF
