  0
SECTION
  2
HEADER
  9
$ACADVER
  1
AC1009
  9
$INSBASE
 10
0.0
 20
0.0
 30
0.0
  9
$EXTMIN
 10
-331.79160936362058
 20
-88.875792525564066
 30
-0.0015258207003583
  9
$EXTMAX
 10
8.7742625791279352
 20
260.14016811484493
 30
0.0000000349246037
  9
$LIMMIN
 10
0.0
 20
0.0
  9
$LIMMAX
 10
12.0
 20
9.0
  9
$ORTHOMODE
 70
     0
  9
$REGENMODE
 70
     1
  9
$FILLMODE
 70
     1
  9
$QTEXTMODE
 70
     0
  9
$MIRRTEXT
 70
     1
  9
$DRAGMODE
 70
     2
  9
$LTSCALE
 40
1.0
  9
$OSMODE
 70
    63
  9
$ATTMODE
 70
     1
  9
$TEXTSIZE
 40
0.2
  9
$TRACEWID
 40
0.05
  9
$TEXTSTYLE
  7
STANDARD
  9
$CLAYER
  8
0
  9
$CELTYPE
  6
CONTINUOUS
  9
$CECOLOR
 62
   256
  9
$DIMSCALE
 40
1.0
  9
$DIMASZ
 40
0.18
  9
$DIMEXO
 40
0.0625
  9
$DIMDLI
 40
0.38
  9
$DIMRND
 40
0.0
  9
$DIMDLE
 40
0.0
  9
$DIMEXE
 40
0.18
  9
$DIMTP
 40
0.0
  9
$DIMTM
 40
0.0
  9
$DIMTXT
 40
0.18
  9
$DIMCEN
 40
0.09
  9
$DIMTSZ
 40
0.0
  9
$DIMTOL
 70
     0
  9
$DIMLIM
 70
     0
  9
$DIMTIH
 70
     1
  9
$DIMTOH
 70
     1
  9
$DIMSE1
 70
     0
  9
$DIMSE2
 70
     0
  9
$DIMTAD
 70
     0
  9
$DIMZIN
 70
     0
  9
$DIMBLK
  1

  9
$DIMASO
 70
     1
  9
$DIMSHO
 70
     1
  9
$DIMPOST
  1

  9
$DIMAPOST
  1

  9
$DIMALT
 70
     0
  9
$DIMALTD
 70
     2
  9
$DIMALTF
 40
25.399999999999999
  9
$DIMLFAC
 40
1.0
  9
$DIMTOFL
 70
     0
  9
$DIMTVP
 40
0.0
  9
$DIMTIX
 70
     0
  9
$DIMSOXD
 70
     0
  9
$DIMSAH
 70
     0
  9
$DIMBLK1
  1

  9
$DIMBLK2
  1

  9
$DIMSTYLE
  2
STANDARD
  9
$DIMCLRD
 70
     0
  9
$DIMCLRE
 70
     0
  9
$DIMCLRT
 70
     0
  9
$DIMTFAC
 40
1.0
  9
$DIMGAP
 40
0.09
  9
$LUNITS
 70
     2
  9
$LUPREC
 70
     4
  9
$SKETCHINC
 40
0.1
  9
$FILLETRAD
 40
0.0
  9
$AUNITS
 70
     0
  9
$AUPREC
 70
     0
  9
$MENU
  1
.
  9
$ELEVATION
 40
0.0
  9
$PELEVATION
 40
0.0
  9
$THICKNESS
 40
0.0
  9
$LIMCHECK
 70
     0
  9
$BLIPMODE
 70
     0
  9
$CHAMFERA
 40
0.0
  9
$CHAMFERB
 40
0.0
  9
$SKPOLY
 70
     0
  9
$TDCREATE
 40
2452878.5022847918
  9
$TDUPDATE
 40
2452878.5027222559
  9
$TDINDWG
 40
0.0004378241
  9
$TDUSRTIMER
 40
0.0004378241
  9
$USRTIMER
 70
     1
  9
$ANGBASE
 50
0.0
  9
$ANGDIR
 70
     0
  9
$PDMODE
 70
     0
  9
$PDSIZE
 40
0.0
  9
$PLINEWID
 40
0.0
  9
$COORDS
 70
     0
  9
$SPLFRAME
 70
     0
  9
$SPLINETYPE
 70
     6
  9
$SPLINESEGS
 70
     8
  9
$ATTDIA
 70
     1
  9
$ATTREQ
 70
     1
  9
$HANDLING
 70
     1
  9
$HANDSEED
  5
5A9
  9
$SURFTAB1
 70
     6
  9
$SURFTAB2
 70
     6
  9
$SURFTYPE
 70
     6
  9
$SURFU
 70
     6
  9
$SURFV
 70
     6
  9
$UCSNAME
  2

  9
$UCSORG
 10
0.0
 20
0.0
 30
0.0
  9
$UCSXDIR
 10
1.0
 20
0.0
 30
0.0
  9
$UCSYDIR
 10
0.0
 20
1.0
 30
0.0
  9
$PUCSNAME
  2

  9
$PUCSORG
 10
0.0
 20
0.0
 30
0.0
  9
$PUCSXDIR
 10
1.0
 20
0.0
 30
0.0
  9
$PUCSYDIR
 10
0.0
 20
1.0
 30
0.0
  9
$USERI1
 70
     0
  9
$USERI2
 70
     0
  9
$USERI3
 70
     0
  9
$USERI4
 70
     0
  9
$USERI5
 70
     0
  9
$USERR1
 40
0.0
  9
$USERR2
 40
0.0
  9
$USERR3
 40
0.0
  9
$USERR4
 40
0.0
  9
$USERR5
 40
0.0
  9
$WORLDVIEW
 70
     1
  9
$SHADEDGE
 70
     3
  9
$SHADEDIF
 70
    70
  9
$TILEMODE
 70
     1
  9
$MAXACTVP
 70
    64
  9
$PLIMCHECK
 70
     0
  9
$PEXTMIN
 10
1.0000000000000000E+020
 20
1.0000000000000000E+020
 30
1.0000000000000000E+020
  9
$PEXTMAX
 10
-1.0000000000000000E+020
 20
-1.0000000000000000E+020
 30
-1.0000000000000000E+020
  9
$PLIMMIN
 10
0.0
 20
0.0
  9
$PLIMMAX
 10
12.0
 20
9.0
  9
$UNITMODE
 70
     0
  9
$VISRETAIN
 70
     1
  9
$PLINEGEN
 70
     0
  9
$PSLTSCALE
 70
     1
  0
ENDSEC
  0
SECTION
  2
TABLES
  0
TABLE
  2
VPORT
 70
     3
  0
VPORT
  2
*ACTIVE
 70
     0
 10
0.0
 20
0.0
 11
1.0
 21
1.0
 12
-161.50867339224629
 22
85.632187794640444
 13
0.0
 23
0.0
 14
1.0
 24
1.0
 15
0.0
 25
0.0
 16
0.0
 26
0.0
 36
1.0
 17
0.0
 27
0.0
 37
0.0
 40
351.54811996790897
 41
1.5242130750605321
 42
50.0
 43
0.0
 44
0.0
 50
0.0
 51
0.0
 71
     0
 72
   100
 73
     1
 74
     1
 75
     0
 76
     0
 77
     0
 78
     0
  0
ENDTAB
  0
TABLE
  2
LTYPE
 70
    19
  0
LTYPE
  2
CONTINUOUS
 70
     0
  3
Solid line
 72
    65
 73
     0
 40
0.0
  0
LTYPE
  2
DASHED
 70
     0
  3
__ __ __ __ __ __ __ __ __ __ __ __ __ __ __
 72
    65
 73
     2
 40
3.5
 49
2.0
 49
-1.5
  0
LTYPE
  2
CENTER
 70
     0
  3
____ _ ____ _ ____ _ ____ _ ____ _ ____ _ ____
 72
    65
 73
     4
 40
17.5
 49
13.0
 49
-1.5
 49
1.5
 49
-1.5
  0
LTYPE
  2
PHANTOM
 70
     0
  3
_____ _ _ _____ _ _ _____ _ _ _____ _ _ ____  
 72
    65
 73
     6
 40
15.5
 49
8.0
 49
-1.5
 49
1.5
 49
-1.5
 49
1.5
 49
-1.5
  0
LTYPE
  2
DOT
 70
     0
  3
. . . . . . . . . . . . . . . . . . . . . . . .
 72
    65
 73
     2
 40
0.25
 49
0.0
 49
-0.25
  0
LTYPE
  2
AM_ISO02W050
 70
     0
  3
__ __ __ __ __ __ __ __ __ __ __ __ __ __ __
 72
    65
 73
     2
 40
7.5
 49
6.0
 49
-1.5
  0
LTYPE
  2
AM_ISO08W050
 70
     0
  3
____ . ____ . ____ . ____ . ____ . ____ . ____
 72
    65
 73
     4
 40
18.0
 49
12.0
 49
-1.5
 49
3.0
 49
-1.5
  0
LTYPE
  2
AM_ISO09W050
 70
     0
  3
_____ . . _____ . . _____ . . ____ .. ____
 72
    65
 73
     6
 40
22.5
 49
12.0
 49
-1.5
 49
3.0
 49
-1.5
 49
3.0
 49
-1.5
  0
LTYPE
  2
AMCONSTR
 70
     0
  3
_______________________
 72
    65
 73
     2
 40
9999.0
 49
9999.0
 49
0.0
  0
LTYPE
  2
AM_ISO08W050X2
 70
     0
  3
__ . __ . __ . __ . __ . __
 72
    65
 73
     4
 40
9.0
 49
6.0
 49
-0.75
 49
1.5
 49
-0.75
  0
LTYPE
  2
AM_ISO02W050X2
 70
     0
  3
 _ _ _ _ _ _ _ _ _ _ _ _
 72
    65
 73
     2
 40
3.75
 49
3.0
 49
-0.75
  0
LTYPE
  2
AMZIGZAG
 70
     0
  3
/\/-/\/-/\/-/\/-/\/-/\/
 72
    65
 73
     2
 40
11.000099999999991
 49
0.0001
 49
-11.0
  0
LTYPE
  2
HIDDEN
 70
     0
  3
Hidden __ __ __ __ __ __ __ __ __ __ __ __ __ _
 72
    65
 73
     2
 40
0.375
 49
0.25
 49
-0.125
  0
LTYPE
  2
PHANTOM2
 70
     0
  3
Phantom (.5x) ___ _ _ ___ _ _ ___ _ _ ___ _ _
 72
    65
 73
     6
 40
1.25
 49
0.625
 49
-0.125
 49
0.125
 49
-0.125
 49
0.125
 49
-0.125
  0
LTYPE
  2
CENTER2
 70
     0
  3
Center (.5x) ___ _ ___ _ ___ _ ___ _ ___ _ ___
 72
    65
 73
     4
 40
1.125
 49
0.75
 49
-0.125
 49
0.125
 49
-0.125
  0
LTYPE
  2
HIDDEN2
 70
     0
  3
Hidden (.5x) _ _ _ _ _ _ _ _ _ _ _ _ _ _ _ _ _
 72
    65
 73
     2
 40
0.1875
 49
0.125
 49
-0.0625
  0
LTYPE
  2
AMZIGZAG2
 70
     0
  3
/\/-/\/-/\/-/\/-/\/-/\/
 72
    65
 73
     2
 40
0.4401
 49
0.0001
 49
-0.4400000000000001
  0
LTYPE
  2
ACANSTGB
 70
     0
  3
__ . . __ . .
 72
    65
 73
     6
 40
0.35433070866
 49
0.15748031496
 49
-0.03937007874
 49
0.03937007874
 49
-0.03937007874
 49
0.03937007874
 49
-0.03937007874
  0
LTYPE
  2
ACANSTGL
 70
     0
  3
_ _ _ _ _
 72
    65
 73
     2
 40
0.11811023622
 49
0.07874015748
 49
-0.03937007874
  0
ENDTAB
  0
TABLE
  2
LAYER
 70
     1
  0
LAYER
  2
0
 70
     0
 62
     7
  6
CONTINUOUS
  0
ENDTAB
  0
TABLE
  2
STYLE
 70
     4
  0
STYLE
  2
STANDARD
 70
     0
 40
0.0
 41
1.0
 50
0.0
 71
     0
 42
0.2
  3
txt
  4
BIGFONT
  0
STYLE
  2

 70
     1
 40
0.0
 41
1.0
 50
0.0
 71
     0
 42
0.2
  3
ltypeshp.shx
  4

  0
STYLE
  2
ACANSTS
 70
     0
 40
1.0
 41
1.0
 50
0.0
 71
     0
 42
0.2
  3
romans.shx
  4
extfont.shx
  0
STYLE
  2
ACANSGDT
 70
     0
 40
0.0
 41
1.0
 50
0.0
 71
     0
 42
0.2
  3
amgdtans.shx
  4

  0
ENDTAB
  0
TABLE
  2
VIEW
 70
     0
  0
ENDTAB
  0
TABLE
  2
UCS
 70
     0
  0
ENDTAB
  0
TABLE
  2
APPID
 70
     4
  0
APPID
  2
ACAD
 70
     0
  0
APPID
  2
MCAD_NO_VIS
 70
     0
  0
APPID
  2
ACAD_TEMP_GRAPHIC
 70
     0
  0
APPID
  2
ACATTRIBSERVICES
 70
     0
  0
ENDTAB
  0
TABLE
  2
DIMSTYLE
 70
     7
  0
DIMSTYLE
  2
STANDARD
 70
     0
  3

  4

  5

  6

  7

 40
1.0
 41
0.18
 42
0.0625
 43
0.38
 44
0.18
 45
0.0
 46
0.0
 47
0.0
 48
0.0
140
0.18
141
0.09
142
0.0
143
25.399999999999999
144
1.0
145
0.0
146
1.0
147
0.09
 71
     0
 72
     0
 73
     1
 74
     1
 75
     0
 76
     0
 77
     0
 78
     0
170
     0
171
     2
172
     0
173
     0
174
     0
175
     0
176
     0
177
     0
178
     0
  0
DIMSTYLE
  2
AM_ANSI
 70
     0
  3

  4
mm
  5

  6

  7

 40
1.0
 41
0.1
 42
0.05
 43
0.5
 44
0.1
 45
0.0
 46
0.0
 47
0.1
 48
0.1
140
0.12
141
0.0
142
0.0
143
25.399999999999999
144
1.0
145
0.0
146
0.71
147
0.06
 71
     0
 72
     0
 73
     1
 74
     1
 75
     0
 76
     0
 77
     0
 78
     7
170
     0
171
     2
172
     0
173
     0
174
     0
175
     0
176
   256
177
   256
178
     2
  0
DIMSTYLE
  2
AM_ANSI$3
 70
     0
  3

  4
mm
  5

  6

  7

 40
1.0
 41
0.1
 42
0.05
 43
0.5
 44
0.1
 45
0.0
 46
0.0
 47
0.1
 48
0.1
140
0.12
141
0.0
142
0.0
143
25.399999999999999
144
1.0
145
0.0
146
0.71
147
0.06
 71
     0
 72
     0
 73
     1
 74
     1
 75
     0
 76
     0
 77
     0
 78
     7
170
     0
171
     2
172
     0
173
     0
174
     0
175
     0
176
   256
177
   256
178
     2
  0
DIMSTYLE
  2
AM_ANSI$4
 70
     0
  3

  4
mm
  5

  6

  7

 40
1.0
 41
0.1
 42
0.05
 43
0.5
 44
0.1
 45
0.0
 46
0.0
 47
0.1
 48
0.1
140
0.12
141
0.0
142
0.0
143
25.399999999999999
144
1.0
145
0.0
146
0.71
147
0.06
 71
     0
 72
     0
 73
     1
 74
     1
 75
     0
 76
     0
 77
     0
 78
     7
170
     0
171
     2
172
     0
173
     0
174
     0
175
     0
176
   256
177
   256
178
     2
  0
DIMSTYLE
  2
AM_ANSI$7
 70
     0
  3

  4
mm
  5

  6

  7

 40
1.0
 41
0.1
 42
0.05
 43
0.5
 44
0.1
 45
0.0
 46
0.0
 47
0.1
 48
0.1
140
0.24
141
0.0
142
0.0
143
25.399999999999999
144
1.0
145
0.0
146
0.71
147
0.06
 71
     0
 72
     0
 73
     1
 74
     1
 75
     0
 76
     0
 77
     0
 78
     7
170
     0
171
     2
172
     0
173
     0
174
     0
175
     0
176
   256
177
   256
178
     2
  0
DIMSTYLE
  2
AM_ANSI$SF
 70
     0
  3

  4
mm
  5

  6

  7

 40
1.0
 41
0.1
 42
0.05
 43
0.5
 44
0.1
 45
0.0
 46
0.0
 47
0.1
 48
0.1
140
0.12
141
0.0
142
0.0
143
25.399999999999999
144
1.0
145
0.0
146
0.71
147
0.06
 71
     0
 72
     0
 73
     1
 74
     1
 75
     1
 76
     1
 77
     0
 78
     7
170
     0
171
     2
172
     0
173
     0
174
     0
175
     0
176
   256
177
   256
178
     2
  0
DIMSTYLE
  2
AM_ANSI$SH
 70
     0
  3

  4
mm
  5

  6
GENAXEH
  7

 40
1.0
 41
0.1
 42
0.05
 43
0.5
 44
0.1
 45
0.0
 46
0.0
 47
0.1
 48
0.1
140
0.12
141
0.0
142
0.0
143
25.399999999999999
144
1.0
145
0.0
146
0.71
147
0.06
 71
     0
 72
     0
 73
     1
 74
     1
 75
     1
 76
     1
 77
     0
 78
     7
170
     0
171
     2
172
     0
173
     1
174
     0
175
     0
176
   256
177
   256
178
     2
  0
ENDTAB
  0
ENDSEC
  0
SECTION
  2
BLOCKS
  0
BLOCK
  8
0
  2
$MODEL_SPACE
 70
     0
 10
0.0
 20
0.0
 30
0.0
  3
$MODEL_SPACE
  1

  0
ENDBLK
  5
20
  8
0
  0
BLOCK
 67
     1
  8
0
  2
$PAPER_SPACE
 70
     0
 10
0.0
 20
0.0
 30
0.0
  3
$PAPER_SPACE
  1

  0
ENDBLK
  5
1C
 67
     1
  8
0
  0
BLOCK
  8
0
  2
GENAXEH
 70
     0
 10
0.0
 20
0.0
 30
0.0
  3
GENAXEH
  1

  0
LINE
  5
590
  8
0
 10
-1.0
 20
0.0
 30
0.0
 11
1.0
 21
0.0
 31
0.0
  0
ENDBLK
  5
592
  8
0
  0
ENDSEC
  0
SECTION
  2
ENTITIES
  0
LINE
  5
136
  8
0
  6
CENTER
 62
     7
 10
-202.76471000000001
 20
259.36034999999993
 30
0.0
 11
-202.76471000000001
 21
109.16893
 31
0.0
  0
LINE
  5
137
  8
0
  6
CENTER
 62
     7
 10
-205.10583
 20
177.54983999999999
 30
0.0
 11
-137.79038999999989
 21
-7.397833799999999
 31
0.0
  0
LINE
  5
138
  8
0
  6
DASHED
 62
     7
 10
-225.95734999999999
 20
116.11765
 30
0.0
 11
-209.16436999999999
 21
116.11765
 31
0.0
  0
LINE
  5
139
  8
0
  6
CONTINUOUS
 62
     7
 10
-225.95734999999999
 20
226.11764999999991
 30
0.0
 11
-202.76471000000001
 21
226.11764999999991
 31
0.0
  0
LINE
  5
13A
  8
0
  6
CENTER
 62
     7
 10
-222.76470999999989
 20
134.45377999999991
 30
0.0
 11
-222.76470999999989
 21
117.1764699999999
 31
0.0
  0
LINE
  5
13B
  8
0
  6
CENTER
 62
     7
 10
-232.50261999999989
 20
126.1176499999999
 30
0.0
 11
-213.87551999999999
 21
126.1176499999999
 31
0.0
  0
LINE
  5
13C
  8
0
  6
CENTER
 62
     7
 10
-181.96270999999999
 20
141.11765
 30
0.0
 11
-162.79570000000001
 21
141.11765
 31
0.0
  0
LINE
  5
13D
  8
0
  6
CENTER
 62
     7
 10
-172.76471000000001
 20
149.25316000000001
 30
0.0
 11
-172.76471000000001
 21
131.97585000000001
 31
0.0
  0
LINE
  5
13E
  8
0
  6
CENTER
 62
     7
 10
-172.76471000000001
 20
209.45377999999991
 30
0.0
 11
-172.76471000000001
 21
192.17646999999991
 31
0.0
  0
LINE
  5
13F
  8
0
  6
CENTER
 62
     7
 10
-182.50262000000001
 20
201.11764999999991
 30
0.0
 11
-163.87551999999999
 21
201.11764999999991
 31
0.0
  0
LINE
  5
140
  8
0
  6
CENTER
 62
     7
 10
-222.76470999999989
 20
224.45377999999991
 30
0.0
 11
-222.76470999999989
 21
207.17646999999999
 31
0.0
  0
LINE
  5
141
  8
0
  6
CENTER
 62
     7
 10
-232.50261999999989
 20
216.11764999999991
 30
0.0
 11
-213.87551999999999
 21
216.11764999999991
 31
0.0
  0
LINE
  5
142
  8
0
  6
PHANTOM
 62
     7
 10
-245.76470999999989
 20
182.11764999999991
 30
0.0
 11
-245.76470999999989
 21
160.11765
 31
0.0
  0
LINE
  5
143
  8
0
  6
CONTINUOUS
 62
     7
 10
-229.21772999999999
 20
134.98611
 30
0.0
 11
-230.73819
 21
169.89940000000001
 31
0.0
  0
LINE
  5
144
  8
0
  6
CONTINUOUS
 62
     7
 10
-205.72542000000001
 20
126.4356199999999
 30
0.0
 11
-189.55472
 21
144.08678
 31
0.0
  0
LINE
  5
145
  8
0
  6
CENTER
 62
     7
 10
-192.26145999999989
 20
199.97505000000001
 30
0.0
 11
-231.61525
 21
91.851439999999997
 31
0.0
  0
LINE
  5
146
  8
0
  6
PHANTOM
 62
     7
 10
-132.17806999999991
 20
5.2570825000000001
 30
0.0
 11
-150.2240899999999
 21
-1.3111307999999999
 31
0.0
  0
LINE
  5
147
  8
0
  6
PHANTOM
 62
     7
 10
-154.67322999999999
 20
0.6839198500000001
 30
0.0
 11
-197.51223999999999
 21
108.35680000000001
 31
0.0
  0
LINE
  5
148
  8
0
  6
PHANTOM
 62
     7
 10
-167.05215000000001
 20
121.4949
 30
0.0
 11
-130.05223000000001
 21
9.6452274000000013
 31
0.0
  0
LINE
  5
149
  8
0
  6
PHANTOM
 62
     7
 10
-277.76470999999998
 20
182.11764999999991
 30
0.0
 11
-277.76470999999998
 21
160.11765
 31
0.0
  0
LINE
  5
14A
  8
0
  6
CONTINUOUS
 62
     7
 10
-209.16436999999999
 20
116.11765
 30
0.0
 11
-202.76471000000001
 21
116.11765
 31
0.0
  0
LINE
  5
14B
  8
0
  6
CONTINUOUS
 62
     7
 10
-229.21773999999991
 20
134.98613
 30
0.0
 11
-205.72542000000001
 21
126.4356199999999
 31
0.0
  0
LINE
  5
14C
  8
0
  6
CONTINUOUS
 62
     7
 10
-238.75285
 20
104.40293
 30
0.0
 11
-218.07959
 21
96.878479000000013
 31
0.0
  0
LINE
  5
14D
  8
0
  6
CONTINUOUS
 62
     7
 10
-158.65028000000001
 20
188.14057999999989
 30
0.0
 11
-26.161133
 21
184.2182
 31
0.0
  0
LINE
  5
14E
  8
0
  6
CONTINUOUS
 62
     7
 10
-22.764706
 20
180.71973
 30
0.0
 11
-22.764706
 21
161.51555999999999
 31
0.0
  0
LINE
  5
14F
  8
0
  6
CONTINUOUS
 62
     7
 10
-26.161133
 20
158.01708999999991
 30
0.0
 11
-168.32191
 21
153.80840000000001
 31
0.0
  0
LINE
  5
150
  8
0
  6
CENTER
 62
     7
 10
-312.16437000000002
 20
171.11765
 30
0.0
 11
-20.099854000000001
 21
171.11765
 31
0.0
  0
LINE
  5
151
  8
0
  6
CENTER
 62
     7
 10
-202.76471000000001
 20
-11.647057999999991
 30
0.0
 11
-202.76471000000001
 21
-88.870200999999994
 31
0.0
  0
LINE
  5
152
  8
0
  6
CONTINUOUS
 62
     7
 10
-237.76471000000001
 20
-80.882355000000004
 30
0.0
 11
-147.76471000000001
 21
-80.882355000000004
 31
0.0
  0
LINE
  5
153
  8
0
  6
CONTINUOUS
 62
     7
 10
-237.76471000000001
 20
-73.882355000000004
 30
0.0
 11
-237.76471000000001
 21
-80.882355000000004
 31
0.0
  0
LINE
  5
154
  8
0
  6
CONTINUOUS
 62
     7
 10
-147.76471000000001
 20
-73.882355000000004
 30
0.0
 11
-147.76471000000001
 21
-80.882355000000004
 31
0.0
  0
LINE
  5
155
  8
0
  6
CONTINUOUS
 62
     7
 10
-234.22201999999999
 20
-70.882355000000004
 30
0.0
 11
-150.76470999999989
 21
-70.882355000000004
 31
0.0
  0
LINE
  5
156
  8
0
  6
CONTINUOUS
 62
     7
 10
-228.7912399999999
 20
-48.882354999999997
 30
0.0
 11
-24.764706
 21
-48.882354999999997
 31
0.0
  0
LINE
  5
157
  8
0
  6
CONTINUOUS
 62
     7
 10
-231.76471000000001
 20
-70.882355000000004
 30
0.0
 11
-227.76471000000001
 21
-48.882346999999989
 31
0.0
  0
LINE
  5
158
  8
0
  6
CONTINUOUS
 62
     7
 10
-177.76471000000001
 20
-48.882354999999997
 30
0.0
 11
-173.76471000000001
 21
-70.882355000000004
 31
0.0
  0
LINE
  5
159
  8
0
  6
CONTINUOUS
 62
     7
 10
-22.764706
 20
-22.882352999999991
 30
0.0
 11
-22.764706
 21
-46.882354999999997
 31
0.0
  0
LINE
  5
15A
  8
0
  6
CONTINUOUS
 62
     7
 10
-228.7912399999999
 20
-20.882352999999998
 30
0.0
 11
-24.764706
 21
-20.882352999999998
 31
0.0
  0
LINE
  5
15B
  8
0
  6
CONTINUOUS
 62
     7
 10
-230.7912399999999
 20
-22.882352999999991
 30
0.0
 11
-230.7912399999999
 21
-23.59656699999999
 31
0.0
  0
LINE
  5
15C
  8
0
  6
CENTER
 62
     7
 10
-251.09296000000001
 20
-34.882354999999997
 30
0.0
 11
-15.694015
 21
-34.882354999999997
 31
0.0
  0
LINE
  5
15D
  8
0
  6
CONTINUOUS
 62
     7
 10
-205.72542000000001
 20
-22.882352999999991
 30
0.0
 11
-205.72542000000001
 21
-46.882354999999997
 31
0.0
  0
LINE
  5
15E
  8
0
  6
CONTINUOUS
 62
     7
 10
-230.7912399999999
 20
-46.168140000000001
 30
0.0
 11
-230.7912399999999
 21
-46.882354999999997
 31
0.0
  0
LINE
  5
15F
  8
0
  6
CONTINUOUS
 62
     7
 10
-235.40098999999989
 20
-35.88235499999999
 30
0.0
 11
-221.43133999999989
 21
-35.88235499999999
 31
0.0
  0
LINE
  5
160
  8
0
  6
CONTINUOUS
 62
     7
 10
-235.40109000000001
 20
-33.88235499999999
 30
0.0
 11
-221.43145999999999
 21
-33.88235499999999
 31
0.0
  0
LINE
  5
161
  8
0
  6
CONTINUOUS
 62
     7
 10
-50.676575
 20
-48.882354999999997
 30
0.0
 11
-44.821865000000003
 21
-49.702438000000001
 31
0.0
  0
LINE
  5
162
  8
0
  6
CONTINUOUS
 62
     7
 10
-158.80944999999991
 20
-48.882351
 30
0.0
 11
-51.895274999999998
 21
-63.858081999999989
 31
0.0
  0
LINE
  5
163
  8
0
  6
CONTINUOUS
 62
     7
 10
-48.616965999999998
 20
-61.786011000000002
 30
0.0
 11
-44.821865000000003
 21
-49.702434999999987
 31
0.0
  0
LINE
  5
164
  8
0
  6
CENTER
 62
     7
 10
-228.41621000000001
 20
-16.570377000000001
 30
0.0
 11
-228.41621000000001
 21
-51.968487000000003
 31
0.0
  0
ARC
  5
1FC
  8
0
  6
CONTINUOUS
 62
     7
 10
62.235294000000003
 20
171.11765
 30
0.0
 40
300.0
 50
170.73743999999991
 51
189.17875000000001
  0
ARC
  5
1FD
  8
0
  6
CONTINUOUS
 62
     7
 10
-225.95734999999999
 20
218.11764999999991
 30
0.0
 40
8.0
 50
90.000003000000007
 51
170.73743999999991
  0
ARC
  5
1FE
  8
0
  6
DASHED
 62
     7
 10
-225.95734999999999
 20
124.1176499999999
 30
0.0
 40
8.0
 50
189.26256000000001
 51
270.0
  0
ARC
  5
1FF
  8
0
  6
CONTINUOUS
 62
     7
 10
-202.76471000000001
 20
171.11765
 30
0.0
 40
55.0
 50
270.0
 51
342.23826000000003
  0
CIRCLE
  5
200
  8
0
  6
CONTINUOUS
 62
     7
 10
-172.76471000000001
 20
141.11765
 30
0.0
 40
3.0999998999999989
  0
CIRCLE
  5
201
  8
0
  6
CONTINUOUS
 62
     7
 10
-172.76471000000001
 20
141.11765
 30
0.0
 40
6.1999997999999987
  0
CIRCLE
  5
202
  8
0
  6
DASHED
 62
     7
 10
-222.76470999999989
 20
126.1176499999999
 30
0.0
 40
6.1999997999999987
  0
CIRCLE
  5
203
  8
0
  6
DASHED
 62
     7
 10
-222.76470999999989
 20
126.1176499999999
 30
0.0
 40
3.0999998999999989
  0
CIRCLE
  5
204
  8
0
  6
CONTINUOUS
 62
     7
 10
-172.76471000000001
 20
201.11764999999991
 30
0.0
 40
6.1999997999999987
  0
CIRCLE
  5
205
  8
0
  6
CONTINUOUS
 62
     7
 10
-172.76471000000001
 20
201.11764999999991
 30
0.0
 40
3.0999998999999989
  0
CIRCLE
  5
206
  8
0
  6
CONTINUOUS
 62
     7
 10
-222.76470999999989
 20
216.11764999999991
 30
0.0
 40
6.1999997999999987
  0
CIRCLE
  5
207
  8
0
  6
CONTINUOUS
 62
     7
 10
-222.76470999999989
 20
216.11764999999991
 30
0.0
 40
3.0999998999999989
  0
ARC
  5
208
  8
0
  6
CONTINUOUS
 62
     7
 10
-202.76471000000001
 20
171.11765
 30
0.0
 40
28.0
 50
63.26638299999999
 51
182.49364
  0
ARC
  5
209
  8
0
  6
PHANTOM
 62
     7
 10
-133.3751399999999
 20
8.5460061999999972
 30
0.0
 40
3.5
 50
290.0
 51
18.304238999999999
  0
ARC
  5
20A
  8
0
  6
PHANTOM
 62
     7
 10
-151.42115999999999
 20
1.9777929999999999
 30
0.0
 40
3.5
 50
201.69576000000001
 51
290.0
  0
ARC
  5
20B
  8
0
  6
CONTINUOUS
 62
     7
 10
-167.4341399999999
 20
123.82153
 30
0.0
 40
30.0
 50
91.695761000000005
 51
137.50637
  0
ARC
  5
20C
  8
0
  6
CONTINUOUS
 62
     7
 10
-156.43085999999991
 20
263.10773
 30
0.0
 40
75.0
 50
243.26637999999991
 51
268.30423999999999
  0
ARC
  5
20D
  8
0
  6
PHANTOM
 62
     7
 10
-261.76470999999998
 20
119.11765
 30
0.0
 40
65.0
 50
75.749966999999984
 51
104.25003
  0
ARC
  5
20E
  8
0
  6
PHANTOM
 62
     7
 10
-261.76470999999998
 20
223.11765
 30
0.0
 40
65.0
 50
255.74996999999999
 51
284.25002999999992
  0
ARC
  5
20F
  8
0
  6
CONTINUOUS
 62
     7
 10
-202.76471000000001
 20
171.11765
 30
0.0
 40
55.0
 50
17.761745000000001
 51
90.000003000000007
  0
ARC
  5
210
  8
0
  6
DASHED
 62
     7
 10
-202.76471000000001
 20
171.11765
 30
0.0
 40
55.0
 50
342.23826000000003
 51
17.761745000000001
  0
ARC
  5
211
  8
0
  6
CONTINUOUS
 62
     7
 10
-174.07988
 20
97.890732
 30
0.0
 40
65.0
 50
145.74996999999991
 51
174.2500399999999
  0
ARC
  5
212
  8
0
  6
CONTINUOUS
 62
     7
 10
-271.80792000000002
 20
133.46082999999999
 30
0.0
 40
65.0
 50
325.74997000000002
 51
354.25002999999992
  0
ARC
  5
213
  8
0
  6
CONTINUOUS
 62
     7
 10
-26.264706
 20
161.51555999999999
 30
0.0
 40
3.5
 50
271.69576000000001
 51
0.0
  0
ARC
  5
214
  8
0
  6
CONTINUOUS
 62
     7
 10
-26.264706
 20
180.71973
 30
0.0
 40
3.5
 50
0.0
 51
88.304237000000001
  0
ARC
  5
215
  8
0
  6
CONTINUOUS
 62
     7
 10
-234.76471000000001
 20
-73.882355000000004
 30
0.0
 40
3.0
 50
90.000003000000007
 51
180.00001
  0
ARC
  5
216
  8
0
  6
CONTINUOUS
 62
     7
 10
-150.76470999999989
 20
-73.882355000000004
 30
0.0
 40
3.0
 50
0.0
 51
90.000003000000007
  0
ARC
  5
217
  8
0
  6
CONTINUOUS
 62
     7
 10
-24.764706
 20
-22.882352999999991
 30
0.0
 40
2.0
 50
0.0
 51
90.000003000000007
  0
ARC
  5
218
  8
0
  6
CONTINUOUS
 62
     7
 10
-24.764706
 20
-46.882354999999997
 30
0.0
 40
2.0
 50
270.0
 51
0.0
  0
ARC
  5
219
  8
0
  6
CONTINUOUS
 62
     7
 10
-228.7912399999999
 20
-22.882352999999991
 30
0.0
 40
2.0
 50
90.000003000000007
 51
180.00001
  0
ARC
  5
21A
  8
0
  6
CONTINUOUS
 62
     7
 10
-228.7912399999999
 20
-46.882354999999997
 30
0.0
 40
2.0
 50
179.99998999999991
 51
270.0
  0
ARC
  5
21B
  8
0
  6
CONTINUOUS
 62
     7
 10
-227.21772999999999
 20
-22.882352999999991
 30
0.0
 40
2.0
 50
90.000003000000007
 51
180.00001
  0
ARC
  5
21C
  8
0
  6
CONTINUOUS
 62
     7
 10
-207.72542000000001
 20
-22.882352999999991
 30
0.0
 40
2.0
 50
0.0
 51
90.000003000000007
  0
ARC
  5
21D
  8
0
  6
CONTINUOUS
 62
     7
 10
-207.72542000000001
 20
-46.882354999999997
 30
0.0
 40
2.0
 50
270.0
 51
0.0
  0
ARC
  5
21E
  8
0
  6
CONTINUOUS
 62
     7
 10
-227.21772999999999
 20
-46.882354999999997
 30
0.0
 40
2.0
 50
179.99998999999991
 51
270.0
  0
ARC
  5
21F
  8
0
  6
CONTINUOUS
 62
     7
 10
-51.479121999999997
 20
-60.887089000000003
 30
0.0
 40
3.0
 50
262.02632
 51
342.56400000000002
  0
POLYLINE
  5
346
  8
0
  6
CONTINUOUS
 62
     7
 66
     1
 10
0.0
 20
0.0
 30
0.0
  0
VERTEX
  5
347
  8
0
  6
CONTINUOUS
 62
     7
 10
-211.58896999999999
 20
-43.927281999999991
 30
0.0
 42
0.031269871
  0
VERTEX
  5
348
  8
0
  6
CONTINUOUS
 62
     7
 10
-210.5870799999999
 20
-43.087532000000003
 30
0.0
 42
0.030563435
  0
VERTEX
  5
349
  8
0
  6
CONTINUOUS
 62
     7
 10
-209.69633999999991
 20
-42.130609
 30
0.0
 42
0.029891341
  0
VERTEX
  5
34A
  8
0
  6
CONTINUOUS
 62
     7
 10
-208.92740000000001
 20
-41.073174000000002
 30
0.0
 42
0.029287761
  0
VERTEX
  5
34B
  8
0
  6
CONTINUOUS
 62
     7
 10
-208.28856999999991
 20
-39.932235999999989
 30
0.0
 42
0.028778474
  0
VERTEX
  5
34C
  8
0
  6
CONTINUOUS
 62
     7
 10
-207.78611000000001
 20
-38.724854999999991
 30
0.0
 42
0.028381676
  0
VERTEX
  5
34D
  8
0
  6
CONTINUOUS
 62
     7
 10
-207.42456000000001
 20
-37.467981999999999
 30
0.0
 42
0.028109199
  0
VERTEX
  5
34E
  8
0
  6
CONTINUOUS
 62
     7
 10
-207.20695000000001
 20
-36.178406000000003
 30
0.0
 42
0.027953028
  0
VERTEX
  5
34F
  8
0
  6
CONTINUOUS
 62
     7
 10
-207.13495
 20
-34.873468000000003
 30
0.0
 42
0.027944305
  0
VERTEX
  5
350
  8
0
  6
CONTINUOUS
 62
     7
 10
-207.20887999999991
 20
-33.569090000000003
 30
0.0
 42
0.028099562
  0
VERTEX
  5
351
  8
0
  6
CONTINUOUS
 62
     7
 10
-207.42829
 20
-32.280397000000001
 30
0.0
 42
0.028376635
  0
VERTEX
  5
352
  8
0
  6
CONTINUOUS
 62
     7
 10
-207.79151999999999
 20
-31.024454999999989
 30
0.0
 42
0.028774055
  0
VERTEX
  5
353
  8
0
  6
CONTINUOUS
 62
     7
 10
-208.29550999999989
 20
-29.818207999999998
 30
0.0
 42
0.029288185
  0
VERTEX
  5
354
  8
0
  6
CONTINUOUS
 62
     7
 10
-208.93581
 20
-28.678416999999989
 30
0.0
 42
0.029898769
  0
VERTEX
  5
355
  8
0
  6
CONTINUOUS
 62
     7
 10
-209.70625000000001
 20
-27.622084999999991
 30
0.0
 42
0.030577983
  0
VERTEX
  5
356
  8
0
  6
CONTINUOUS
 62
     7
 10
-210.59855999999999
 20
-26.666277000000001
 30
0.0
 42
0.031289583
  0
VERTEX
  5
357
  8
0
  6
CONTINUOUS
 62
     7
 10
-211.60209999999989
 20
-25.827773000000001
 30
0.0
  0
SEQEND
  5
358
  8
0
 62
     7
  0
POLYLINE
  5
359
  8
0
  6
CONTINUOUS
 62
     7
 66
     1
 10
0.0
 20
0.0
 30
0.0
 70
     1
  0
VERTEX
  5
35A
  8
0
  6
CONTINUOUS
 62
     7
 10
-228.41621000000001
 20
-23.882352999999991
 30
0.0
 42
0.10727036
  0
VERTEX
  5
35B
  8
0
  6
CONTINUOUS
 62
     7
 10
-232.47932999999989
 20
-24.767803000000001
 30
0.0
 42
0.10161719
  0
VERTEX
  5
35C
  8
0
  6
CONTINUOUS
 62
     7
 10
-235.83763999999999
 20
-27.225584000000001
 30
0.0
 42
0.094690785
  0
VERTEX
  5
35D
  8
0
  6
CONTINUOUS
 62
     7
 10
-238.00765000000001
 20
-30.781461
 30
0.0
 42
0.09040338
  0
VERTEX
  5
35E
  8
0
  6
CONTINUOUS
 62
     7
 10
-238.75283999999991
 20
-34.882354999999997
 30
0.0
 42
0.090388208
  0
VERTEX
  5
35F
  8
0
  6
CONTINUOUS
 62
     7
 10
-238.00790000000001
 20
-38.982602
 30
0.0
 42
0.094675138
  0
VERTEX
  5
360
  8
0
  6
CONTINUOUS
 62
     7
 10
-235.83851999999999
 20
-42.538159
 30
0.0
 42
0.10162327
  0
VERTEX
  5
361
  8
0
  6
CONTINUOUS
 62
     7
 10
-232.48022
 20
-44.996497999999988
 30
0.0
 42
0.10729513
  0
VERTEX
  5
362
  8
0
  6
CONTINUOUS
 62
     7
 10
-228.41621000000001
 20
-45.88235499999999
 30
0.0
 42
0.10727051
  0
VERTEX
  5
363
  8
0
  6
CONTINUOUS
 62
     7
 10
-224.35310000000001
 20
-44.996904000000001
 30
0.0
 42
0.10161745
  0
VERTEX
  5
364
  8
0
  6
CONTINUOUS
 62
     7
 10
-220.99478999999991
 20
-42.539118999999999
 30
0.0
 42
0.094690843
  0
VERTEX
  5
365
  8
0
  6
CONTINUOUS
 62
     7
 10
-218.82477999999989
 20
-38.983238
 30
0.0
 42
0.090402928
  0
VERTEX
  5
366
  8
0
  6
CONTINUOUS
 62
     7
 10
-218.07961
 20
-34.882354999999997
 30
0.0
 42
0.090387967
  0
VERTEX
  5
367
  8
0
  6
CONTINUOUS
 62
     7
 10
-218.82454000000001
 20
-30.782107
 30
0.0
 42
0.094675149
  0
VERTEX
  5
368
  8
0
  6
CONTINUOUS
 62
     7
 10
-220.99392
 20
-27.226546999999989
 30
0.0
 42
0.10162352
  0
VERTEX
  5
369
  8
0
  6
CONTINUOUS
 62
     7
 10
-224.35221999999999
 20
-24.768207
 30
0.0
 42
0.10729513
  0
SEQEND
  5
36A
  8
0
 62
     7
  0
POLYLINE
  5
36B
  8
0
  6
CONTINUOUS
 62
     7
 66
     1
 10
0.0
 20
0.0
 30
0.0
  0
VERTEX
  5
36C
  8
0
  6
CONTINUOUS
 62
     7
 10
-211.58815999999999
 20
-25.837959999999988
 30
0.0
 42
0.026162129
  0
VERTEX
  5
36D
  8
0
  6
CONTINUOUS
 62
     7
 10
-212.84233999999989
 20
-24.882417
 30
0.0
 42
0.024665963
  0
VERTEX
  5
36E
  8
0
  6
CONTINUOUS
 62
     7
 10
-214.18697999999989
 20
-24.058959999999999
 30
0.0
 42
0.023410851
  0
VERTEX
  5
36F
  8
0
  6
CONTINUOUS
 62
     7
 10
-215.6045
 20
-23.36824
 30
0.0
 42
0.022395498
  0
VERTEX
  5
370
  8
0
  6
CONTINUOUS
 62
     7
 10
-217.07936000000001
 20
-22.809932
 30
0.0
 42
0.021610495
  0
VERTEX
  5
371
  8
0
  6
CONTINUOUS
 62
     7
 10
-218.59771000000001
 20
-22.38327799999999
 30
0.0
 42
0.021044171
  0
VERTEX
  5
372
  8
0
  6
CONTINUOUS
 62
     7
 10
-220.14694999999989
 20
-22.087429
 30
0.0
 42
0.020685935
  0
VERTEX
  5
373
  8
0
  6
CONTINUOUS
 62
     7
 10
-221.71541999999999
 20
-21.921661999999991
 30
0.0
 42
0.020528259
  0
VERTEX
  5
374
  8
0
  6
CONTINUOUS
 62
     7
 10
-223.2920399999999
 20
-21.885505999999999
 30
0.0
 42
0.020569697
  0
VERTEX
  5
375
  8
0
  6
CONTINUOUS
 62
     7
 10
-224.86612
 20
-21.978808999999991
 30
0.0
 42
0.02080961
  0
VERTEX
  5
376
  8
0
  6
CONTINUOUS
 62
     7
 10
-226.42680999999999
 20
-22.201774
 30
0.0
 42
0.021257703
  0
VERTEX
  5
377
  8
0
  6
CONTINUOUS
 62
     7
 10
-227.96321999999989
 20
-22.554991999999999
 30
0.0
 42
0.021921885
  0
VERTEX
  5
378
  8
0
  6
CONTINUOUS
 62
     7
 10
-229.46360000000001
 20
-23.039350999999989
 30
0.0
 42
0.022812455
  0
VERTEX
  5
379
  8
0
  6
CONTINUOUS
 62
     7
 10
-230.9149799999999
 20
-23.655826999999999
 30
0.0
 42
0.023939528
  0
VERTEX
  5
37A
  8
0
  6
CONTINUOUS
 62
     7
 10
-232.30279999999991
 20
-24.405166999999999
 30
0.0
 42
0.025308533
  0
VERTEX
  5
37B
  8
0
  6
CONTINUOUS
 62
     7
 10
-233.61053999999999
 20
-25.287418999999989
 30
0.0
 42
0.026912845
  0
VERTEX
  5
37C
  8
0
  6
CONTINUOUS
 62
     7
 10
-234.81943999999999
 20
-26.301257
 30
0.0
  0
SEQEND
  5
37D
  8
0
 62
     7
  0
POLYLINE
  5
37E
  8
0
  6
CONTINUOUS
 62
     7
 66
     1
 10
0.0
 20
0.0
 30
0.0
  0
VERTEX
  5
37F
  8
0
  6
CONTINUOUS
 62
     7
 10
-211.58815999999999
 20
-43.926747999999989
 30
0.0
 42
-0.026162131
  0
VERTEX
  5
380
  8
0
  6
CONTINUOUS
 62
     7
 10
-212.84233999999989
 20
-44.882290999999988
 30
0.0
 42
-0.024665964
  0
VERTEX
  5
381
  8
0
  6
CONTINUOUS
 62
     7
 10
-214.18697999999989
 20
-45.705748
 30
0.0
 42
-0.023410849
  0
VERTEX
  5
382
  8
0
  6
CONTINUOUS
 62
     7
 10
-215.6045
 20
-46.396469000000003
 30
0.0
 42
-0.022395495
  0
VERTEX
  5
383
  8
0
  6
CONTINUOUS
 62
     7
 10
-217.07936000000001
 20
-46.954776000000003
 30
0.0
 42
-0.02161049
  0
VERTEX
  5
384
  8
0
  6
CONTINUOUS
 62
     7
 10
-218.59771000000001
 20
-47.381429999999988
 30
0.0
 42
-0.021044166
  0
VERTEX
  5
385
  8
0
  6
CONTINUOUS
 62
     7
 10
-220.14694999999989
 20
-47.677278999999992
 30
0.0
 42
-0.020685929
  0
VERTEX
  5
386
  8
0
  6
CONTINUOUS
 62
     7
 10
-221.71541999999999
 20
-47.843046000000001
 30
0.0
 42
-0.020528251
  0
VERTEX
  5
387
  8
0
  6
CONTINUOUS
 62
     7
 10
-223.2920399999999
 20
-47.879201999999999
 30
0.0
 42
-0.02056969
  0
VERTEX
  5
388
  8
0
  6
CONTINUOUS
 62
     7
 10
-224.86612
 20
-47.785897999999989
 30
0.0
 42
-0.020809604
  0
VERTEX
  5
389
  8
0
  6
CONTINUOUS
 62
     7
 10
-226.42680999999999
 20
-47.562933999999998
 30
0.0
 42
-0.021257698
  0
VERTEX
  5
38A
  8
0
  6
CONTINUOUS
 62
     7
 10
-227.96321999999989
 20
-47.209716
 30
0.0
 42
-0.021921881
  0
VERTEX
  5
38B
  8
0
  6
CONTINUOUS
 62
     7
 10
-229.46360000000001
 20
-46.725357000000002
 30
0.0
 42
-0.022812453
  0
VERTEX
  5
38C
  8
0
  6
CONTINUOUS
 62
     7
 10
-230.9149799999999
 20
-46.10888099999999
 30
0.0
 42
-0.023939527
  0
VERTEX
  5
38D
  8
0
  6
CONTINUOUS
 62
     7
 10
-232.30279999999991
 20
-45.359541
 30
0.0
 42
-0.025308534
  0
VERTEX
  5
38E
  8
0
  6
CONTINUOUS
 62
     7
 10
-233.61053999999999
 20
-44.477290000000004
 30
0.0
 42
-0.026912848
  0
VERTEX
  5
38F
  8
0
  6
CONTINUOUS
 62
     7
 10
-234.81943999999999
 20
-43.463450999999992
 30
0.0
  0
SEQEND
  5
390
  8
0
 62
     7
  0
POLYLINE
  5
391
  8
0
  6
CONTINUOUS
 62
     7
 66
     1
 10
0.0
 20
0.0
 30
0.0
 70
     1
  0
VERTEX
  5
392
  8
0
  6
CONTINUOUS
 62
     7
 10
-228.41621000000001
 20
-27.382352999999998
 30
0.0
 42
0.10724375
  0
VERTEX
  5
393
  8
0
  6
CONTINUOUS
 62
     7
 10
-231.18585999999999
 20
-27.985771
 30
0.0
 42
0.101619
  0
VERTEX
  5
394
  8
0
  6
CONTINUOUS
 62
     7
 10
-233.47578999999999
 20
-29.66129699999999
 30
0.0
 42
0.094714696
  0
VERTEX
  5
395
  8
0
  6
CONTINUOUS
 62
     7
 10
-234.95581999999999
 20
-32.086258999999998
 30
0.0
 42
0.090404258
  0
VERTEX
  5
396
  8
0
  6
CONTINUOUS
 62
     7
 10
-235.46390999999991
 20
-34.882354999999997
 30
0.0
 42
0.090361172
  0
VERTEX
  5
397
  8
0
  6
CONTINUOUS
 62
     7
 10
-234.95629
 20
-37.677197
 30
0.0
 42
0.094673374
  0
VERTEX
  5
398
  8
0
  6
CONTINUOUS
 62
     7
 10
-233.47744
 20
-40.101603999999988
 30
0.0
 42
0.10162121
  0
VERTEX
  5
399
  8
0
  6
CONTINUOUS
 62
     7
 10
-231.1878899999999
 20
-41.778016000000001
 30
0.0
 42
0.10732595
  0
VERTEX
  5
39A
  8
0
  6
CONTINUOUS
 62
     7
 10
-228.41621000000001
 20
-42.382354999999997
 30
0.0
 42
0.10724371
  0
VERTEX
  5
39B
  8
0
  6
CONTINUOUS
 62
     7
 10
-225.64657
 20
-41.778936999999999
 30
0.0
 42
0.10161902
  0
VERTEX
  5
39C
  8
0
  6
CONTINUOUS
 62
     7
 10
-223.35663
 20
-40.103411000000001
 30
0.0
 42
0.09471474
  0
VERTEX
  5
39D
  8
0
  6
CONTINUOUS
 62
     7
 10
-221.87660999999991
 20
-37.678449000000001
 30
0.0
 42
0.090404242
  0
VERTEX
  5
39E
  8
0
  6
CONTINUOUS
 62
     7
 10
-221.36851999999999
 20
-34.882354999999997
 30
0.0
 42
0.090361146
  0
VERTEX
  5
39F
  8
0
  6
CONTINUOUS
 62
     7
 10
-221.87612999999999
 20
-32.087513000000001
 30
0.0
 42
0.094673327
  0
VERTEX
  5
3A0
  8
0
  6
CONTINUOUS
 62
     7
 10
-223.3549899999999
 20
-29.663105000000002
 30
0.0
 42
0.10162119
  0
VERTEX
  5
3A1
  8
0
  6
CONTINUOUS
 62
     7
 10
-225.64454000000001
 20
-27.986691999999991
 30
0.0
 42
0.10732604
  0
SEQEND
  5
3A2
  8
0
 62
     7
  0
CIRCLE
  5
496
  8
0
  6
CONTINUOUS
 62
     7
 10
-174.31470999999999
 20
143.80232000000001
 30
0.0
 40
0.4000000100000001
  0
CIRCLE
  5
497
  8
0
  6
CONTINUOUS
 62
     7
 10
-171.21470999999991
 20
138.4329699999999
 30
0.0
 40
0.4000000100000001
  0
CIRCLE
  5
498
  8
0
  6
CONTINUOUS
 62
     7
 10
-169.66470000000001
 20
135.74828999999991
 30
0.0
 40
0.4000000100000001
  0
TEXT
  5
499
  8
0
  6
CONTINUOUS
 62
     7
 10
-264.50756999999999
 20
256.91764999999992
 30
0.0
 40
3.2000000000000002
  1
32
 41
1.0285716
  0
LINE
  5
49A
  8
0
  6
CONTINUOUS
 62
     7
 10
-277.76470999999998
 20
256.11765000000003
 30
0.0
 11
-261.76470999999998
 21
256.11765000000003
 31
0.0
  0
CIRCLE
  5
49B
  8
0
  6
CONTINUOUS
 62
     7
 10
-277.76470999999998
 20
256.11765000000003
 30
0.0
 40
0.3
  0
LINE
  5
49C
  8
0
  6
CONTINUOUS
 62
     7
 10
-245.76470999999989
 20
256.11765000000003
 30
0.0
 11
-261.76470999999998
 21
256.11765000000003
 31
0.0
  0
CIRCLE
  5
49D
  8
0
  6
CONTINUOUS
 62
     7
 10
-245.76470999999989
 20
256.11765000000003
 30
0.0
 40
0.3
  0
LINE
  5
49E
  8
0
  6
CONTINUOUS
 62
     7
 10
-277.76470999999998
 20
182.11764999999991
 30
0.0
 11
-277.76470999999998
 21
257.61765000000003
 31
0.0
  0
LINE
  5
49F
  8
0
  6
CONTINUOUS
 62
     7
 10
-245.76470999999989
 20
182.11764999999991
 30
0.0
 11
-245.76470999999989
 21
257.61765000000003
 31
0.0
  0
TEXT
  5
4A0
  8
0
  6
CONTINUOUS
 62
     7
 10
-227.00756999999999
 20
256.91764999999992
 30
0.0
 40
3.2000000000000002
  1
43
 41
1.0285716
  0
LINE
  5
4A1
  8
0
  6
CONTINUOUS
 62
     7
 10
-245.76470999999989
 20
256.11765000000003
 30
0.0
 11
-224.26471000000001
 21
256.11765000000003
 31
0.0
  0
CIRCLE
  5
4A2
  8
0
  6
CONTINUOUS
 62
     7
 10
-245.76470999999989
 20
256.11765000000003
 30
0.0
 40
0.3
  0
LINE
  5
4A3
  8
0
  6
CONTINUOUS
 62
     7
 10
-202.76471000000001
 20
256.11765000000003
 30
0.0
 11
-224.26471000000001
 21
256.11765000000003
 31
0.0
  0
CIRCLE
  5
4A4
  8
0
  6
CONTINUOUS
 62
     7
 10
-202.76471000000001
 20
256.11765000000003
 30
0.0
 40
0.3
  0
LINE
  5
4A5
  8
0
  6
CONTINUOUS
 62
     7
 10
-202.76471000000001
 20
259.36034999999993
 30
0.0
 11
-202.76471000000001
 21
254.61765
 31
0.0
  0
TEXT
  5
4A6
  8
0
  6
CONTINUOUS
 62
     7
 10
-117.10757
 20
256.91764999999992
 30
0.0
 40
3.2000000000000002
  1
180
 41
1.221428699999999
  0
LINE
  5
4A7
  8
0
  6
CONTINUOUS
 62
     7
 10
-202.76471000000001
 20
256.11765000000003
 30
0.0
 11
-112.76470999999999
 21
256.11765000000003
 31
0.0
  0
CIRCLE
  5
4A8
  8
0
  6
CONTINUOUS
 62
     7
 10
-202.76471000000001
 20
256.11765000000003
 30
0.0
 40
0.3
  0
LINE
  5
4A9
  8
0
  6
CONTINUOUS
 62
     7
 10
-22.764706
 20
256.11765000000003
 30
0.0
 11
-112.76470999999999
 21
256.11765000000003
 31
0.0
  0
CIRCLE
  5
4AA
  8
0
  6
CONTINUOUS
 62
     7
 10
-22.764706
 20
256.11765000000003
 30
0.0
 40
0.3
  0
LINE
  5
4AB
  8
0
  6
CONTINUOUS
 62
     7
 10
-22.764706
 20
180.71973
 30
0.0
 11
-22.764706
 21
257.61765000000003
 31
0.0
  0
TEXT
  5
4AC
  8
0
  6
CONTINUOUS
 62
     7
 10
-195.5075699999999
 20
246.91765000000001
 30
0.0
 40
3.2000000000000002
  1
90
 41
1.102041
  0
LINE
  5
4AD
  8
0
  6
CONTINUOUS
 62
     7
 10
-237.76471000000001
 20
246.11765
 30
0.0
 11
-192.76471000000001
 21
246.11765
 31
0.0
  0
CIRCLE
  5
4AE
  8
0
  6
CONTINUOUS
 62
     7
 10
-237.76471000000001
 20
246.11765
 30
0.0
 40
0.3
  0
LINE
  5
4AF
  8
0
  6
CONTINUOUS
 62
     7
 10
-147.76471000000001
 20
246.11765
 30
0.0
 11
-192.76471000000001
 21
246.11765
 31
0.0
  0
CIRCLE
  5
4B0
  8
0
  6
CONTINUOUS
 62
     7
 10
-147.76471000000001
 20
246.11765
 30
0.0
 40
0.3
  0
LINE
  5
4B1
  8
0
  6
CONTINUOUS
 62
     7
 10
-237.76471000000001
 20
171.11765
 30
0.0
 11
-237.76471000000001
 21
247.61765
 31
0.0
  0
LINE
  5
4B2
  8
0
  6
CONTINUOUS
 62
     7
 10
-147.76471000000001
 20
171.11765
 30
0.0
 11
-147.76471000000001
 21
247.61765
 31
0.0
  0
TEXT
  5
4B3
  8
0
  6
CONTINUOUS
 62
     7
 10
-233.00756999999999
 20
236.91765000000001
 30
0.0
 40
3.2000000000000002
  1
15
 41
1.2857145000000001
  0
LINE
  5
4B4
  8
0
  6
CONTINUOUS
 62
     7
 10
-237.76471000000001
 20
236.11765
 30
0.0
 11
-230.26471000000001
 21
236.11765
 31
0.0
  0
CIRCLE
  5
4B5
  8
0
  6
CONTINUOUS
 62
     7
 10
-237.76471000000001
 20
236.11765
 30
0.0
 40
0.3
  0
LINE
  5
4B6
  8
0
  6
CONTINUOUS
 62
     7
 10
-222.76470999999989
 20
236.11765
 30
0.0
 11
-230.26471000000001
 21
236.11765
 31
0.0
  0
CIRCLE
  5
4B7
  8
0
  6
CONTINUOUS
 62
     7
 10
-222.76470999999989
 20
236.11765
 30
0.0
 40
0.3
  0
LINE
  5
4B8
  8
0
  6
CONTINUOUS
 62
     7
 10
-222.76470999999989
 20
224.45377999999991
 30
0.0
 11
-222.76470999999989
 21
237.61765
 31
0.0
  0
TEXT
  5
4B9
  8
0
  6
CONTINUOUS
 62
     7
 10
-215.50756999999999
 20
236.91765000000001
 30
0.0
 40
3.2000000000000002
  1
20
 41
1.102041
  0
LINE
  5
4BA
  8
0
  6
CONTINUOUS
 62
     7
 10
-222.76470999999989
 20
236.11765
 30
0.0
 11
-212.76470999999989
 21
236.11765
 31
0.0
  0
CIRCLE
  5
4BB
  8
0
  6
CONTINUOUS
 62
     7
 10
-222.76470999999989
 20
236.11765
 30
0.0
 40
0.3
  0
LINE
  5
4BC
  8
0
  6
CONTINUOUS
 62
     7
 10
-202.76471000000001
 20
236.11765
 30
0.0
 11
-212.76470999999989
 21
236.11765
 31
0.0
  0
CIRCLE
  5
4BD
  8
0
  6
CONTINUOUS
 62
     7
 10
-202.76471000000001
 20
236.11765
 30
0.0
 40
0.3
  0
TEXT
  5
4BE
  8
0
  6
CONTINUOUS
 62
     7
 10
-190.5075699999999
 20
236.91765000000001
 30
0.0
 40
3.2000000000000002
  1
30
 41
1.102041
  0
LINE
  5
4BF
  8
0
  6
CONTINUOUS
 62
     7
 10
-202.76471000000001
 20
236.11765
 30
0.0
 11
-187.76471000000001
 21
236.11765
 31
0.0
  0
CIRCLE
  5
4C0
  8
0
  6
CONTINUOUS
 62
     7
 10
-202.76471000000001
 20
236.11765
 30
0.0
 40
0.3
  0
LINE
  5
4C1
  8
0
  6
CONTINUOUS
 62
     7
 10
-172.76471000000001
 20
236.11765
 30
0.0
 11
-187.76471000000001
 21
236.11765
 31
0.0
  0
CIRCLE
  5
4C2
  8
0
  6
CONTINUOUS
 62
     7
 10
-172.76471000000001
 20
236.11765
 30
0.0
 40
0.3
  0
LINE
  5
4C3
  8
0
  6
CONTINUOUS
 62
     7
 10
-172.76471000000001
 20
209.45377999999991
 30
0.0
 11
-172.76471000000001
 21
237.61765
 31
0.0
  0
TEXT
  5
4C4
  8
0
  6
CONTINUOUS
 62
     7
 10
-163.0075699999999
 20
236.91765000000001
 30
0.0
 40
3.2000000000000002
  1
25
 41
1.0285716
  0
LINE
  5
4C5
  8
0
  6
CONTINUOUS
 62
     7
 10
-172.76471000000001
 20
236.11765
 30
0.0
 11
-160.26471000000001
 21
236.11765
 31
0.0
  0
CIRCLE
  5
4C6
  8
0
  6
CONTINUOUS
 62
     7
 10
-172.76471000000001
 20
236.11765
 30
0.0
 40
0.3
  0
LINE
  5
4C7
  8
0
  6
CONTINUOUS
 62
     7
 10
-147.76471000000001
 20
236.11765
 30
0.0
 11
-160.26471000000001
 21
236.11765
 31
0.0
  0
CIRCLE
  5
4C8
  8
0
  6
CONTINUOUS
 62
     7
 10
-147.76471000000001
 20
236.11765
 30
0.0
 40
0.3
  0
TEXT
  5
4C9
  8
0
  6
CONTINUOUS
 62
     7
 10
-328.56470999999988
 20
166.77478999999991
 30
0.0
 40
3.2000000000000002
  1
110
 50
90.000003000000007
 41
1.436974999999999
  0
LINE
  5
4CA
  8
0
  6
CONTINUOUS
 62
     7
 10
-327.76470999999998
 20
116.11765
 30
0.0
 11
-327.76470999999998
 21
171.11765
 31
0.0
  0
CIRCLE
  5
4CB
  8
0
  6
CONTINUOUS
 62
     7
 10
-327.76470999999998
 20
116.11765
 30
0.0
 40
0.3
  0
LINE
  5
4CC
  8
0
  6
CONTINUOUS
 62
     7
 10
-327.76470999999998
 20
226.11764999999991
 30
0.0
 11
-327.76470999999998
 21
171.11765
 31
0.0
  0
CIRCLE
  5
4CD
  8
0
  6
CONTINUOUS
 62
     7
 10
-327.76470999999998
 20
226.11764999999991
 30
0.0
 40
0.3
  0
LINE
  5
4CE
  8
0
  6
CONTINUOUS
 62
     7
 10
-225.95734999999999
 20
116.11765
 30
0.0
 11
-329.26470999999998
 21
116.11765
 31
0.0
  0
LINE
  5
4CF
  8
0
  6
CONTINUOUS
 62
     7
 10
-225.95734999999999
 20
226.11764999999991
 30
0.0
 11
-329.26470999999998
 21
226.11764999999991
 31
0.0
  0
TEXT
  5
4D0
  8
0
  6
CONTINUOUS
 62
     7
 10
-318.56470999999999
 20
118.3747899999999
 30
0.0
 40
3.2000000000000002
  1
10
 50
90.000003000000007
 41
1.4025976999999989
  0
LINE
  5
4D1
  8
0
  6
CONTINUOUS
 62
     7
 10
-317.76470999999998
 20
116.11765
 30
0.0
 11
-317.76470999999998
 21
121.11765
 31
0.0
  0
CIRCLE
  5
4D2
  8
0
  6
CONTINUOUS
 62
     7
 10
-317.76470999999998
 20
116.11765
 30
0.0
 40
0.3
  0
LINE
  5
4D3
  8
0
  6
CONTINUOUS
 62
     7
 10
-317.76470999999998
 20
126.1176499999999
 30
0.0
 11
-317.76470999999998
 21
121.11765
 31
0.0
  0
CIRCLE
  5
4D4
  8
0
  6
CONTINUOUS
 62
     7
 10
-317.76470999999998
 20
126.1176499999999
 30
0.0
 40
0.3
  0
LINE
  5
4D5
  8
0
  6
CONTINUOUS
 62
     7
 10
-232.50261999999989
 20
126.1176499999999
 30
0.0
 11
-319.26470999999998
 21
126.1176499999999
 31
0.0
  0
TEXT
  5
4D6
  8
0
  6
CONTINUOUS
 62
     7
 10
-318.56470999999999
 20
168.37478999999999
 30
0.0
 40
3.2000000000000002
  1
90
 50
90.000003000000007
 41
1.102041
  0
LINE
  5
4D7
  8
0
  6
CONTINUOUS
 62
     7
 10
-317.76470999999998
 20
126.1176499999999
 30
0.0
 11
-317.76470999999998
 21
171.11765
 31
0.0
  0
CIRCLE
  5
4D8
  8
0
  6
CONTINUOUS
 62
     7
 10
-317.76470999999998
 20
126.1176499999999
 30
0.0
 40
0.3
  0
LINE
  5
4D9
  8
0
  6
CONTINUOUS
 62
     7
 10
-317.76470999999998
 20
216.11764999999991
 30
0.0
 11
-317.76470999999998
 21
171.11765
 31
0.0
  0
CIRCLE
  5
4DA
  8
0
  6
CONTINUOUS
 62
     7
 10
-317.76470999999998
 20
216.11764999999991
 30
0.0
 40
0.3
  0
LINE
  5
4DB
  8
0
  6
CONTINUOUS
 62
     7
 10
-232.50261999999989
 20
126.1176499999999
 30
0.0
 11
-319.26470999999998
 21
126.1176499999999
 31
0.0
  0
LINE
  5
4DC
  8
0
  6
CONTINUOUS
 62
     7
 10
-232.50261999999989
 20
216.11764999999991
 30
0.0
 11
-319.26470999999998
 21
216.11764999999991
 31
0.0
  0
TEXT
  5
4DD
  8
0
  6
CONTINUOUS
 62
     7
 10
-318.56470999999999
 20
218.3747899999999
 30
0.0
 40
3.2000000000000002
  1
10
 50
90.000003000000007
 41
1.4025976999999989
  0
LINE
  5
4DE
  8
0
  6
CONTINUOUS
 62
     7
 10
-317.76470999999998
 20
216.11764999999991
 30
0.0
 11
-317.76470999999998
 21
221.11765
 31
0.0
  0
CIRCLE
  5
4DF
  8
0
  6
CONTINUOUS
 62
     7
 10
-317.76470999999998
 20
216.11764999999991
 30
0.0
 40
0.3
  0
LINE
  5
4E0
  8
0
  6
CONTINUOUS
 62
     7
 10
-317.76470999999998
 20
226.11764999999991
 30
0.0
 11
-317.76470999999998
 21
221.11765
 31
0.0
  0
CIRCLE
  5
4E1
  8
0
  6
CONTINUOUS
 62
     7
 10
-317.76470999999998
 20
226.11764999999991
 30
0.0
 40
0.3
  0
TEXT
  5
4E2
  8
0
  6
CONTINUOUS
 62
     7
 10
-308.56470999999999
 20
147.4747899999999
 30
0.0
 40
3.2000000000000002
  1
〃
 50
90.000003000000007
 41
0.90036055
  0
LINE
  5
4E3
  8
0
  6
CONTINUOUS
 62
     7
 10
-307.76470999999998
 20
126.1176499999999
 30
0.0
 11
-307.76470999999998
 21
148.61765
 31
0.0
  0
CIRCLE
  5
4E4
  8
0
  6
CONTINUOUS
 62
     7
 10
-307.76470999999998
 20
126.1176499999999
 30
0.0
 40
0.3
  0
LINE
  5
4E5
  8
0
  6
CONTINUOUS
 62
     7
 10
-307.76470999999998
 20
171.11765
 30
0.0
 11
-307.76470999999998
 21
148.61765
 31
0.0
  0
CIRCLE
  5
4E6
  8
0
  6
CONTINUOUS
 62
     7
 10
-307.76470999999998
 20
171.11765
 30
0.0
 40
0.3
  0
TEXT
  5
4E7
  8
0
  6
CONTINUOUS
 62
     7
 10
-308.56470999999999
 20
192.4747899999999
 30
0.0
 40
3.2000000000000002
  1
〃
 50
90.000003000000007
 41
0.90036055
  0
LINE
  5
4E8
  8
0
  6
CONTINUOUS
 62
     7
 10
-307.76470999999998
 20
216.11764999999991
 30
0.0
 11
-307.76470999999998
 21
193.61765
 31
0.0
  0
CIRCLE
  5
4E9
  8
0
  6
CONTINUOUS
 62
     7
 10
-307.76470999999998
 20
216.11764999999991
 30
0.0
 40
0.3
  0
LINE
  5
4EA
  8
0
  6
CONTINUOUS
 62
     7
 10
-307.76470999999998
 20
171.11765
 30
0.0
 11
-307.76470999999998
 21
193.61765
 31
0.0
  0
CIRCLE
  5
4EB
  8
0
  6
CONTINUOUS
 62
     7
 10
-307.76470999999998
 20
171.11765
 30
0.0
 40
0.3
  0
TEXT
  5
4EC
  8
0
  6
CONTINUOUS
 62
     7
 10
-298.56470999999988
 20
168.59966
 30
0.0
 40
3.2000000000000002
  1
%%C26
 50
90.000003000000007
 41
1.0178572999999991
  0
LINE
  5
4ED
  8
0
  6
CONTINUOUS
 62
     7
 10
-297.76470999999998
 20
158.11764999999991
 30
0.0
 11
-297.76470999999998
 21
171.11765
 31
0.0
  0
CIRCLE
  5
4EE
  8
0
  6
CONTINUOUS
 62
     7
 10
-297.76470999999998
 20
158.11764999999991
 30
0.0
 40
0.3
  0
LINE
  5
4EF
  8
0
  6
CONTINUOUS
 62
     7
 10
-297.76470999999998
 20
184.11764999999991
 30
0.0
 11
-297.76470999999998
 21
171.11765
 31
0.0
  0
CIRCLE
  5
4F0
  8
0
  6
CONTINUOUS
 62
     7
 10
-297.76470999999998
 20
184.11764999999991
 30
0.0
 40
0.3
  0
LINE
  5
4F1
  8
0
  6
CONTINUOUS
 62
     7
 10
-261.76470999999998
 20
158.11764999999991
 30
0.0
 11
-299.26470999999998
 21
158.11764999999991
 31
0.0
  0
LINE
  5
4F2
  8
0
  6
CONTINUOUS
 62
     7
 10
-261.76470999999998
 20
184.11764999999991
 30
0.0
 11
-299.26470999999998
 21
184.11764999999991
 31
0.0
  0
TEXT
  5
4F3
  8
0
  6
CONTINUOUS
 62
     7
 10
-288.56470999999988
 20
168.59966
 30
0.0
 40
3.2000000000000002
  1
%%C22
 50
90.000003000000007
 41
1.0178572999999991
  0
LINE
  5
4F4
  8
0
  6
CONTINUOUS
 62
     7
 10
-287.76470999999998
 20
182.11764999999991
 30
0.0
 11
-287.76470999999998
 21
171.11765
 31
0.0
  0
CIRCLE
  5
4F5
  8
0
  6
CONTINUOUS
 62
     7
 10
-287.76470999999998
 20
182.11764999999991
 30
0.0
 40
0.3
  0
LINE
  5
4F6
  8
0
  6
CONTINUOUS
 62
     7
 10
-287.76470999999998
 20
160.11765
 30
0.0
 11
-287.76470999999998
 21
171.11765
 31
0.0
  0
CIRCLE
  5
4F7
  8
0
  6
CONTINUOUS
 62
     7
 10
-287.76470999999998
 20
160.11765
 30
0.0
 40
0.3
  0
LINE
  5
4F8
  8
0
  6
CONTINUOUS
 62
     7
 10
-277.76470999999998
 20
182.11764999999991
 30
0.0
 11
-289.26470999999998
 21
182.11764999999991
 31
0.0
  0
LINE
  5
4F9
  8
0
  6
CONTINUOUS
 62
     7
 10
-277.76470999999998
 20
160.11765
 30
0.0
 11
-289.26470999999998
 21
160.11765
 31
0.0
  0
TEXT
  5
4FA
  8
0
  6
CONTINUOUS
 62
     7
 10
-272.45252999999991
 20
133.23013999999989
 30
0.0
 40
3.2000000000000002
  1
70%%D
 50
301.69999999999987
 41
1.085714399999999
  0
ARC
  5
4FB
  8
0
  6
CONTINUOUS
 62
     7
 10
-202.76471000000001
 20
171.11765
 30
0.0
 40
80.0
 50
180.0
 51
215.00000999999989
  0
CIRCLE
  5
4FC
  8
0
  6
CONTINUOUS
 62
     7
 10
-282.76470999999998
 20
171.11765
 30
0.0
 40
0.3
  0
ARC
  5
4FD
  8
0
  6
CONTINUOUS
 62
     7
 10
-202.76471000000001
 20
171.11765
 30
0.0
 40
80.0
 50
215.00000999999989
 51
250.00001
  0
CIRCLE
  5
4FE
  8
0
  6
CONTINUOUS
 62
     7
 10
-230.12630999999999
 20
95.942230000000009
 30
0.0
 40
0.3
  0
TEXT
  5
4FF
  8
0
  6
CONTINUOUS
 62
     7
 10
-128.56470999999999
 20
125.8747899999999
 30
0.0
 40
3.2000000000000002
  1
25
 50
90.000003000000007
 41
1.0285716
  0
LINE
  5
500
  8
0
  6
CONTINUOUS
 62
     7
 10
-127.76470999999999
 20
116.11765
 30
0.0
 11
-127.76470999999999
 21
128.61765
 31
0.0
  0
CIRCLE
  5
501
  8
0
  6
CONTINUOUS
 62
     7
 10
-127.76470999999999
 20
116.11765
 30
0.0
 40
0.3
  0
LINE
  5
502
  8
0
  6
CONTINUOUS
 62
     7
 10
-127.76470999999999
 20
141.11765
 30
0.0
 11
-127.76470999999999
 21
128.61765
 31
0.0
  0
CIRCLE
  5
503
  8
0
  6
CONTINUOUS
 62
     7
 10
-127.76470999999999
 20
141.11765
 30
0.0
 40
0.3
  0
LINE
  5
504
  8
0
  6
CONTINUOUS
 62
     7
 10
-202.76471000000001
 20
116.11765
 30
0.0
 11
-126.26470999999999
 21
116.11765
 31
0.0
  0
LINE
  5
505
  8
0
  6
CONTINUOUS
 62
     7
 10
-162.79570000000001
 20
141.11765
 30
0.0
 11
-126.26470999999999
 21
141.11765
 31
0.0
  0
TEXT
  5
506
  8
0
  6
CONTINUOUS
 62
     7
 10
-128.56470999999999
 20
168.37478999999999
 30
0.0
 40
3.2000000000000002
  1
60
 50
90.000003000000007
 41
1.102041
  0
LINE
  5
507
  8
0
  6
CONTINUOUS
 62
     7
 10
-127.76470999999999
 20
141.11765
 30
0.0
 11
-127.76470999999999
 21
171.11765
 31
0.0
  0
CIRCLE
  5
508
  8
0
  6
CONTINUOUS
 62
     7
 10
-127.76470999999999
 20
141.11765
 30
0.0
 40
0.3
  0
LINE
  5
509
  8
0
  6
CONTINUOUS
 62
     7
 10
-127.76470999999999
 20
201.11764999999991
 30
0.0
 11
-127.76470999999999
 21
171.11765
 31
0.0
  0
CIRCLE
  5
50A
  8
0
  6
CONTINUOUS
 62
     7
 10
-127.76470999999999
 20
201.11764999999991
 30
0.0
 40
0.3
  0
LINE
  5
50B
  8
0
  6
CONTINUOUS
 62
     7
 10
-163.87551999999999
 20
201.11764999999991
 30
0.0
 11
-126.26470999999999
 21
201.11764999999991
 31
0.0
  0
TEXT
  5
50C
  8
0
  6
CONTINUOUS
 62
     7
 10
-128.56470999999999
 20
210.87478999999999
 30
0.0
 40
3.2000000000000002
  1
25
 50
90.000003000000007
 41
1.0285716
  0
LINE
  5
50D
  8
0
  6
CONTINUOUS
 62
     7
 10
-127.76470999999999
 20
201.11764999999991
 30
0.0
 11
-127.76470999999999
 21
213.61764999999991
 31
0.0
  0
CIRCLE
  5
50E
  8
0
  6
CONTINUOUS
 62
     7
 10
-127.76470999999999
 20
201.11764999999991
 30
0.0
 40
0.3
  0
LINE
  5
50F
  8
0
  6
CONTINUOUS
 62
     7
 10
-127.76470999999999
 20
226.11764999999991
 30
0.0
 11
-127.76470999999999
 21
213.61764999999991
 31
0.0
  0
CIRCLE
  5
510
  8
0
  6
CONTINUOUS
 62
     7
 10
-127.76470999999999
 20
226.11764999999991
 30
0.0
 40
0.3
  0
LINE
  5
511
  8
0
  6
CONTINUOUS
 62
     7
 10
-202.76471000000001
 20
226.11764999999991
 30
0.0
 11
-126.26470999999999
 21
226.11764999999991
 31
0.0
  0
TEXT
  5
512
  8
0
  6
CONTINUOUS
 62
     7
 10
-138.56470999999999
 20
158.39796000000001
 30
0.0
 40
3.2000000000000002
  1
〃
 50
90.000003000000007
 41
0.90036055
  0
LINE
  5
513
  8
0
  6
CONTINUOUS
 62
     7
 10
-137.76471000000001
 20
141.11765
 30
0.0
 11
-137.76471000000001
 21
156.11765
 31
0.0
  0
CIRCLE
  5
514
  8
0
  6
CONTINUOUS
 62
     7
 10
-137.76471000000001
 20
141.11765
 30
0.0
 40
0.3
  0
LINE
  5
515
  8
0
  6
CONTINUOUS
 62
     7
 10
-137.76471000000001
 20
171.11765
 30
0.0
 11
-137.76471000000001
 21
156.11765
 31
0.0
  0
CIRCLE
  5
516
  8
0
  6
CONTINUOUS
 62
     7
 10
-137.76471000000001
 20
171.11765
 30
0.0
 40
0.3
  0
TEXT
  5
517
  8
0
  6
CONTINUOUS
 62
     7
 10
-138.56470999999999
 20
182.42858000000001
 30
0.0
 40
3.2000000000000002
  1
〃
 50
90.000003000000007
 41
0.90036055
  0
LINE
  5
518
  8
0
  6
CONTINUOUS
 62
     7
 10
-137.76471000000001
 20
201.11764999999991
 30
0.0
 11
-137.76471000000001
 21
186.11765
 31
0.0
  0
CIRCLE
  5
519
  8
0
  6
CONTINUOUS
 62
     7
 10
-137.76471000000001
 20
201.11764999999991
 30
0.0
 40
0.3
  0
LINE
  5
51A
  8
0
  6
CONTINUOUS
 62
     7
 10
-137.76471000000001
 20
171.11765
 30
0.0
 11
-137.76471000000001
 21
186.11765
 31
0.0
  0
CIRCLE
  5
51B
  8
0
  6
CONTINUOUS
 62
     7
 10
-137.76471000000001
 20
171.11765
 30
0.0
 40
0.3
  0
TEXT
  5
51C
  8
0
  6
CONTINUOUS
 62
     7
 10
-13.56470599999999
 20
168.37478999999999
 30
0.0
 40
3.2000000000000002
  1
26
 50
90.000003000000007
 41
1.0285716
  0
LINE
  5
51D
  8
0
  6
CONTINUOUS
 62
     7
 10
-12.764706
 20
158.11764999999991
 30
0.0
 11
-12.764706
 21
171.11765
 31
0.0
  0
CIRCLE
  5
51E
  8
0
  6
CONTINUOUS
 62
     7
 10
-12.764706
 20
158.11764999999991
 30
0.0
 40
0.3
  0
LINE
  5
51F
  8
0
  6
CONTINUOUS
 62
     7
 10
-12.764706
 20
184.11764999999991
 30
0.0
 11
-12.764706
 21
171.11765
 31
0.0
  0
CIRCLE
  5
520
  8
0
  6
CONTINUOUS
 62
     7
 10
-12.764706
 20
184.11764999999991
 30
0.0
 40
0.3
  0
LINE
  5
521
  8
0
  6
CONTINUOUS
 62
     7
 10
-22.764706
 20
158.11764999999991
 30
0.0
 11
-11.26470599999999
 21
158.11764999999991
 31
0.0
  0
LINE
  5
522
  8
0
  6
CONTINUOUS
 62
     7
 10
-22.764706
 20
184.11764999999991
 30
0.0
 11
-11.26470599999999
 21
184.11764999999991
 31
0.0
  0
LINE
  5
523
  8
0
  6
CONTINUOUS
 62
     7
 10
-175.8647
 20
146.48699999999991
 30
0.0
 11
-152.5574499999999
 21
106.1176499999999
 31
0.0
  0
LINE
  5
524
  8
0
  6
CONTINUOUS
 62
     7
 10
-152.5574499999999
 20
106.1176499999999
 30
0.0
 11
-105.09981999999989
 21
106.1176499999999
 31
0.0
  0
CIRCLE
  5
525
  8
0
  6
CONTINUOUS
 62
     7
 10
-175.8647
 20
146.48699999999991
 30
0.0
 40
0.3
  0
TEXT
  5
526
  8
0
  6
CONTINUOUS
 62
     7
 10
-150.35695999999999
 20
106.9176499999999
 30
0.0
 40
3.2000000000000002
  1
４－%%C６．２ｘ%%C１２．４サラ
 41
0.8634387799999999
  0
TEXT
  5
527
  8
0
  6
CONTINUOUS
 62
     7
 10
-248.56470999999999
 20
-60.625211999999991
 30
0.0
 40
3.2000000000000002
  1
46
 50
90.000003000000007
 41
1.0285716
  0
LINE
  5
528
  8
0
  6
CONTINUOUS
 62
     7
 10
-247.76470999999989
 20
-80.882355000000004
 30
0.0
 11
-247.76470999999989
 21
-57.882354999999997
 31
0.0
  0
CIRCLE
  5
529
  8
0
  6
CONTINUOUS
 62
     7
 10
-247.76470999999989
 20
-80.882355000000004
 30
0.0
 40
0.3
  0
LINE
  5
52A
  8
0
  6
CONTINUOUS
 62
     7
 10
-247.76470999999989
 20
-34.882354999999997
 30
0.0
 11
-247.76470999999989
 21
-57.882354999999997
 31
0.0
  0
CIRCLE
  5
52B
  8
0
  6
CONTINUOUS
 62
     7
 10
-247.76470999999989
 20
-34.882354999999997
 30
0.0
 40
0.3
  0
LINE
  5
52C
  8
0
  6
CONTINUOUS
 62
     7
 10
-237.76471000000001
 20
-80.882355000000004
 30
0.0
 11
-249.26471000000001
 21
-80.882355000000004
 31
0.0
  0
TEXT
  5
52D
  8
0
  6
CONTINUOUS
 62
     7
 10
6.4352944000000001
 20
-53.625211999999991
 30
0.0
 40
3.2000000000000002
  1
60
 50
90.000003000000007
 41
1.102041
  0
LINE
  5
52E
  8
0
  6
CONTINUOUS
 62
     7
 10
7.2352942999999987
 20
-80.882355000000004
 30
0.0
 11
7.2352942999999987
 21
-50.882353999999999
 31
0.0
  0
CIRCLE
  5
52F
  8
0
  6
CONTINUOUS
 62
     7
 10
7.2352942999999987
 20
-80.882355000000004
 30
0.0
 40
0.3
  0
LINE
  5
530
  8
0
  6
CONTINUOUS
 62
     7
 10
7.2352942999999987
 20
-20.882352999999998
 30
0.0
 11
7.2352942999999987
 21
-50.882353999999999
 31
0.0
  0
CIRCLE
  5
531
  8
0
  6
CONTINUOUS
 62
     7
 10
7.2352942999999987
 20
-20.882352999999998
 30
0.0
 40
0.3
  0
LINE
  5
532
  8
0
  6
CONTINUOUS
 62
     7
 10
-147.76471000000001
 20
-80.882355000000004
 30
0.0
 11
8.7352943000000014
 21
-80.882355000000004
 31
0.0
  0
LINE
  5
533
  8
0
  6
CONTINUOUS
 62
     7
 10
-24.764706
 20
-20.882352999999998
 30
0.0
 11
8.7352943000000014
 21
-20.882352999999998
 31
0.0
  0
TEXT
  5
534
  8
0
  6
CONTINUOUS
 62
     7
 10
-3.5647057999999991
 20
-37.625211999999998
 30
0.0
 40
3.2000000000000002
  1
28
 50
90.000003000000007
 41
1.0285716
  0
LINE
  5
535
  8
0
  6
CONTINUOUS
 62
     7
 10
-2.7647058999999992
 20
-48.882354999999997
 30
0.0
 11
-2.7647058999999992
 21
-34.882353999999999
 31
0.0
  0
CIRCLE
  5
536
  8
0
  6
CONTINUOUS
 62
     7
 10
-2.7647058999999992
 20
-48.882354999999997
 30
0.0
 40
0.3
  0
LINE
  5
537
  8
0
  6
CONTINUOUS
 62
     7
 10
-2.7647058999999992
 20
-20.882352999999998
 30
0.0
 11
-2.7647058999999992
 21
-34.882353999999999
 31
0.0
  0
CIRCLE
  5
538
  8
0
  6
CONTINUOUS
 62
     7
 10
-2.7647058999999992
 20
-20.882352999999998
 30
0.0
 40
0.3
  0
LINE
  5
539
  8
0
  6
CONTINUOUS
 62
     7
 10
-24.764706
 20
-48.882354999999997
 30
0.0
 11
-1.2647058999999989
 21
-48.882354999999997
 31
0.0
  0
TEXT
  5
53A
  8
0
  6
CONTINUOUS
 62
     7
 10
-3.5647057999999991
 20
-67.625212000000005
 30
0.0
 40
3.2000000000000002
  1
32
 50
90.000003000000007
 41
1.0285716
  0
LINE
  5
53B
  8
0
  6
CONTINUOUS
 62
     7
 10
-2.7647058999999992
 20
-80.882355000000004
 30
0.0
 11
-2.7647058999999992
 21
-64.882355000000004
 31
0.0
  0
CIRCLE
  5
53C
  8
0
  6
CONTINUOUS
 62
     7
 10
-2.7647058999999992
 20
-80.882355000000004
 30
0.0
 40
0.3
  0
LINE
  5
53D
  8
0
  6
CONTINUOUS
 62
     7
 10
-2.7647058999999992
 20
-48.882354999999997
 30
0.0
 11
-2.7647058999999992
 21
-64.882355000000004
 31
0.0
  0
CIRCLE
  5
53E
  8
0
  6
CONTINUOUS
 62
     7
 10
-2.7647058999999992
 20
-48.882354999999997
 30
0.0
 40
0.3
  0
TEXT
  5
53F
  8
0
  6
CONTINUOUS
 62
     7
 10
-13.56470599999999
 20
-59.127578
 30
0.0
 40
3.2000000000000002
  1
15
 50
90.000003000000007
 41
1.2857145000000001
  0
LINE
  5
540
  8
0
  6
CONTINUOUS
 62
     7
 10
-12.764706
 20
-63.88708900000001
 30
0.0
 11
-12.764706
 21
-56.384721999999989
 31
0.0
  0
CIRCLE
  5
541
  8
0
  6
CONTINUOUS
 62
     7
 10
-12.764706
 20
-63.88708900000001
 30
0.0
 40
0.3
  0
LINE
  5
542
  8
0
  6
CONTINUOUS
 62
     7
 10
-12.764706
 20
-48.882354999999997
 30
0.0
 11
-12.764706
 21
-56.384721999999989
 31
0.0
  0
CIRCLE
  5
543
  8
0
  6
CONTINUOUS
 62
     7
 10
-12.764706
 20
-48.882354999999997
 30
0.0
 40
0.3
  0
LINE
  5
544
  8
0
  6
CONTINUOUS
 62
     7
 10
-49.276851999999998
 20
-63.88708900000001
 30
0.0
 11
-11.26470599999999
 21
-63.88708900000001
 31
0.0
  0
ENDSEC
  0
EOF
