  0
SECTION
  2
HEADER
  9
$ACADVER
  1
AC1009
  9
$INSBASE
 10
0.0
 20
0.0
 30
0.0
  9
$EXTMIN
 10
-375.0
 20
-146.577841991291
 30
0.0
  9
$EXTMAX
 10
860.2923279843086
 20
288.66005999999999
 30
0.0
  9
$LIMMIN
 10
0.0
 20
0.0
  9
$LIMMAX
 10
12.0
 20
9.0
  9
$ORTHOMODE
 70
     0
  9
$REGENMODE
 70
     1
  9
$FILLMODE
 70
     1
  9
$QTEXTMODE
 70
     0
  9
$MIRRTEXT
 70
     1
  9
$DRAGMODE
 70
     2
  9
$LTSCALE
 40
1.0
  9
$OSMODE
 70
   447
  9
$ATTMODE
 70
     1
  9
$TEXTSIZE
 40
0.2
  9
$TRACEWID
 40
0.05
  9
$TEXTSTYLE
  7
STANDARD
  9
$CLAYER
  8
AM_6
  9
$CELTYPE
  6
BYLAYER
  9
$CECOLOR
 62
   256
  9
$DIMSCALE
 40
1.0
  9
$DIMASZ
 40
0.18
  9
$DIMEXO
 40
0.0625
  9
$DIMDLI
 40
0.38
  9
$DIMRND
 40
0.0
  9
$DIMDLE
 40
0.0
  9
$DIMEXE
 40
0.18
  9
$DIMTP
 40
0.0
  9
$DIMTM
 40
0.0
  9
$DIMTXT
 40
0.18
  9
$DIMCEN
 40
0.09
  9
$DIMTSZ
 40
0.0
  9
$DIMTOL
 70
     0
  9
$DIMLIM
 70
     0
  9
$DIMTIH
 70
     1
  9
$DIMTOH
 70
     1
  9
$DIMSE1
 70
     0
  9
$DIMSE2
 70
     0
  9
$DIMTAD
 70
     0
  9
$DIMZIN
 70
     0
  9
$DIMBLK
  1

  9
$DIMASO
 70
     1
  9
$DIMSHO
 70
     1
  9
$DIMPOST
  1

  9
$DIMAPOST
  1

  9
$DIMALT
 70
     0
  9
$DIMALTD
 70
     2
  9
$DIMALTF
 40
25.399999999999999
  9
$DIMLFAC
 40
1.0
  9
$DIMTOFL
 70
     0
  9
$DIMTVP
 40
0.0
  9
$DIMTIX
 70
     0
  9
$DIMSOXD
 70
     0
  9
$DIMSAH
 70
     0
  9
$DIMBLK1
  1

  9
$DIMBLK2
  1

  9
$DIMSTYLE
  2
STANDARD
  9
$DIMCLRD
 70
     0
  9
$DIMCLRE
 70
     0
  9
$DIMCLRT
 70
     0
  9
$DIMTFAC
 40
1.0
  9
$DIMGAP
 40
0.09
  9
$LUNITS
 70
     2
  9
$LUPREC
 70
     4
  9
$SKETCHINC
 40
0.1
  9
$FILLETRAD
 40
0.0
  9
$AUNITS
 70
     0
  9
$AUPREC
 70
     0
  9
$MENU
  1
.
  9
$ELEVATION
 40
0.0
  9
$PELEVATION
 40
0.0
  9
$THICKNESS
 40
0.0
  9
$LIMCHECK
 70
     0
  9
$BLIPMODE
 70
     0
  9
$CHAMFERA
 40
0.0
  9
$CHAMFERB
 40
0.0
  9
$SKPOLY
 70
     0
  9
$TDCREATE
 40
2452878.5052392478
  9
$TDUPDATE
 40
2453621.7621905319
  9
$TDINDWG
 40
0.0014060764
  9
$TDUSRTIMER
 40
0.0014058912
  9
$USRTIMER
 70
     1
  9
$ANGBASE
 50
0.0
  9
$ANGDIR
 70
     0
  9
$PDMODE
 70
     0
  9
$PDSIZE
 40
0.0
  9
$PLINEWID
 40
0.0
  9
$COORDS
 70
     1
  9
$SPLFRAME
 70
     0
  9
$SPLINETYPE
 70
     6
  9
$SPLINESEGS
 70
     8
  9
$ATTDIA
 70
     1
  9
$ATTREQ
 70
     1
  9
$HANDLING
 70
     1
  9
$HANDSEED
  5
9AF
  9
$SURFTAB1
 70
     6
  9
$SURFTAB2
 70
     6
  9
$SURFTYPE
 70
     6
  9
$SURFU
 70
     6
  9
$SURFV
 70
     6
  9
$UCSNAME
  2

  9
$UCSORG
 10
0.0
 20
0.0
 30
0.0
  9
$UCSXDIR
 10
1.0
 20
0.0
 30
0.0
  9
$UCSYDIR
 10
0.0
 20
1.0
 30
0.0
  9
$PUCSNAME
  2

  9
$PUCSORG
 10
0.0
 20
0.0
 30
0.0
  9
$PUCSXDIR
 10
1.0
 20
0.0
 30
0.0
  9
$PUCSYDIR
 10
0.0
 20
1.0
 30
0.0
  9
$USERI1
 70
     0
  9
$USERI2
 70
     0
  9
$USERI3
 70
     0
  9
$USERI4
 70
     0
  9
$USERI5
 70
     0
  9
$USERR1
 40
0.0
  9
$USERR2
 40
0.0
  9
$USERR3
 40
0.0
  9
$USERR4
 40
0.0
  9
$USERR5
 40
0.0
  9
$WORLDVIEW
 70
     1
  9
$SHADEDGE
 70
     3
  9
$SHADEDIF
 70
    70
  9
$TILEMODE
 70
     1
  9
$MAXACTVP
 70
    64
  9
$PLIMCHECK
 70
     0
  9
$PEXTMIN
 10
1.0000000000000000E+020
 20
1.0000000000000000E+020
 30
1.0000000000000000E+020
  9
$PEXTMAX
 10
-1.0000000000000000E+020
 20
-1.0000000000000000E+020
 30
-1.0000000000000000E+020
  9
$PLIMMIN
 10
0.0
 20
0.0
  9
$PLIMMAX
 10
12.0
 20
9.0
  9
$UNITMODE
 70
     0
  9
$VISRETAIN
 70
     1
  9
$PLINEGEN
 70
     0
  9
$PSLTSCALE
 70
     1
  0
ENDSEC
  0
SECTION
  2
TABLES
  0
TABLE
  2
VPORT
 70
    14
  0
VPORT
  2
*ACTIVE
 70
     0
 10
0.0
 20
0.0
 11
1.0
 21
1.0
 12
242.6461639921543
 22
71.041109004354425
 13
0.0
 23
0.0
 14
1.0
 24
1.0
 15
0.0
 25
0.0
 16
0.0
 26
0.0
 36
1.0
 17
0.0
 27
0.0
 37
0.0
 40
930.063618842545
 41
1.3359375
 42
50.0
 43
0.0
 44
0.0
 50
0.0
 51
0.0
 71
     0
 72
   100
 73
     1
 74
     1
 75
     0
 76
     0
 77
     0
 78
     0
  0
ENDTAB
  0
TABLE
  2
LTYPE
 70
    19
  0
LTYPE
  2
CONTINUOUS
 70
     0
  3
Solid line
 72
    65
 73
     0
 40
0.0
  0
LTYPE
  2
DASHED
 70
     0
  3
__ __ __ __ __ __ __ __ __ __ __ __ __ __ __
 72
    65
 73
     2
 40
3.5
 49
2.0
 49
-1.5
  0
LTYPE
  2
CENTER
 70
     0
  3
____ _ ____ _ ____ _ ____ _ ____ _ ____ _ ____
 72
    65
 73
     4
 40
17.5
 49
13.0
 49
-1.5
 49
1.5
 49
-1.5
  0
LTYPE
  2
PHANTOM
 70
     0
  3
_____ _ _ _____ _ _ _____ _ _ _____ _ _ ____  
 72
    65
 73
     6
 40
15.5
 49
8.0
 49
-1.5
 49
1.5
 49
-1.5
 49
1.5
 49
-1.5
  0
LTYPE
  2
DOT
 70
     0
  3
. . . . . . . . . . . . . . . . . . . . . . . .
 72
    65
 73
     2
 40
0.25
 49
0.0
 49
-0.25
  0
LTYPE
  2
AM_ISO02W050
 70
     0
  3
__ __ __ __ __ __ __ __ __ __ __ __ __ __ __
 72
    65
 73
     2
 40
7.5
 49
6.0
 49
-1.5
  0
LTYPE
  2
AM_ISO08W050
 70
     0
  3
____ . ____ . ____ . ____ . ____ . ____ . ____
 72
    65
 73
     4
 40
18.0
 49
12.0
 49
-1.5
 49
3.0
 49
-1.5
  0
LTYPE
  2
AM_ISO09W050
 70
     0
  3
_____ . . _____ . . _____ . . ____ .. ____
 72
    65
 73
     6
 40
22.5
 49
12.0
 49
-1.5
 49
3.0
 49
-1.5
 49
3.0
 49
-1.5
  0
LTYPE
  2
AMCONSTR
 70
     0
  3
_______________________
 72
    65
 73
     2
 40
9999.0
 49
9999.0
 49
0.0
  0
LTYPE
  2
AM_ISO08W050X2
 70
     0
  3
__ . __ . __ . __ . __ . __
 72
    65
 73
     4
 40
9.0
 49
6.0
 49
-0.75
 49
1.5
 49
-0.75
  0
LTYPE
  2
AM_ISO02W050X2
 70
     0
  3
 _ _ _ _ _ _ _ _ _ _ _ _
 72
    65
 73
     2
 40
3.75
 49
3.0
 49
-0.75
  0
LTYPE
  2
AMZIGZAG
 70
     0
  3
/\/-/\/-/\/-/\/-/\/-/\/
 72
    65
 73
     2
 40
11.000099999999991
 49
0.0001
 49
-11.0
  0
LTYPE
  2
HIDDEN
 70
     0
  3
Hidden __ __ __ __ __ __ __ __ __ __ __ __ __ _
 72
    65
 73
     2
 40
0.375
 49
0.25
 49
-0.125
  0
LTYPE
  2
PHANTOM2
 70
     0
  3
Phantom (.5x) ___ _ _ ___ _ _ ___ _ _ ___ _ _
 72
    65
 73
     6
 40
1.25
 49
0.625
 49
-0.125
 49
0.125
 49
-0.125
 49
0.125
 49
-0.125
  0
LTYPE
  2
CENTER2
 70
     0
  3
Center (.5x) ___ _ ___ _ ___ _ ___ _ ___ _ ___
 72
    65
 73
     4
 40
1.125
 49
0.75
 49
-0.125
 49
0.125
 49
-0.125
  0
LTYPE
  2
HIDDEN2
 70
     0
  3
Hidden (.5x) _ _ _ _ _ _ _ _ _ _ _ _ _ _ _ _ _
 72
    65
 73
     2
 40
0.1875
 49
0.125
 49
-0.0625
  0
LTYPE
  2
AMZIGZAG2
 70
     0
  3
/\/-/\/-/\/-/\/-/\/-/\/
 72
    65
 73
     2
 40
0.4401
 49
0.0001
 49
-0.4400000000000002
  0
LTYPE
  2
ACANSTGB
 70
     0
  3
__ . . __ . .
 72
    65
 73
     6
 40
0.35433070866
 49
0.15748031496
 49
-0.03937007874
 49
0.03937007874
 49
-0.03937007874
 49
0.03937007874
 49
-0.03937007874
  0
LTYPE
  2
ACANSTGL
 70
     0
  3
_ _ _ _ _
 72
    65
 73
     2
 40
0.11811023622
 49
0.07874015748
 49
-0.03937007874
  0
ENDTAB
  0
TABLE
  2
LAYER
 70
     3
  0
LAYER
  2
0
 70
     0
 62
     7
  6
CONTINUOUS
  0
LAYER
  2
AM_CL
 70
     0
 62
     1
  6
AMCONSTR
  0
LAYER
  2
AM_6
 70
     0
 62
     2
  6
CONTINUOUS
  0
ENDTAB
  0
TABLE
  2
STYLE
 70
     4
  0
STYLE
  2
STANDARD
 70
     0
 40
0.0
 41
1.0
 50
0.0
 71
     0
 42
0.2
  3
txt
  4
BIGFONT
  0
STYLE
  2

 70
     1
 40
0.0
 41
1.0
 50
0.0
 71
     0
 42
0.2
  3
ltypeshp.shx
  4

  0
STYLE
  2
ACANSTS
 70
     0
 40
1.0
 41
1.0
 50
0.0
 71
     0
 42
0.2
  3
romans.shx
  4
extfont.shx
  0
STYLE
  2
ACANSGDT
 70
     0
 40
0.0
 41
1.0
 50
0.0
 71
     0
 42
0.2
  3
AMGDT
  4

  0
ENDTAB
  0
TABLE
  2
VIEW
 70
     0
  0
ENDTAB
  0
TABLE
  2
UCS
 70
     0
  0
ENDTAB
  0
TABLE
  2
APPID
 70
    11
  0
APPID
  2
ACAD
 70
     0
  0
APPID
  2
MCAD_NO_VIS
 70
     0
  0
APPID
  2
ACAD_TEMP_GRAPHIC
 70
     0
  0
APPID
  2
ACATTRIBSERVICES
 70
     0
  0
APPID
  2
AD_DRAW
 70
     0
  0
APPID
  2
DESIGNERASSEMBLIES
 70
     0
  0
APPID
  2
ACADM_DIM_EDIT
 70
     0
  0
APPID
  2
AMDT_DM_ADJ
 70
     0
  0
APPID
  2
ACAD_DSTYLE_DIMARC_LENGTH_
 70
     0
  0
APPID
  2
ACAD_DSTYLE_DIMJOGGED_JOGA
 70
     0
  0
APPID
  2
ACAECLAYERSTANDARD
 70
     0
  0
ENDTAB
  0
TABLE
  2
DIMSTYLE
 70
     7
  0
DIMSTYLE
  2
STANDARD
 70
     0
  3

  4

  5

  6

  7

 40
1.0
 41
0.18
 42
0.0625
 43
0.38
 44
0.18
 45
0.0
 46
0.0
 47
0.0
 48
0.0
140
0.18
141
0.09
142
0.0
143
25.399999999999999
144
1.0
145
0.0
146
1.0
147
0.09
 71
     0
 72
     0
 73
     1
 74
     1
 75
     0
 76
     0
 77
     0
 78
     0
170
     0
171
     2
172
     0
173
     0
174
     0
175
     0
176
     0
177
     0
178
     0
  0
DIMSTYLE
  2
AM_ANSI
 70
     0
  3

  4
mm
  5

  6

  7

 40
1.0
 41
0.1
 42
0.05
 43
0.5
 44
0.1
 45
0.0
 46
0.0
 47
0.1
 48
0.1
140
0.12
141
0.0
142
0.0
143
25.399999999999999
144
1.0
145
0.0
146
0.71
147
0.06
 71
     0
 72
     0
 73
     1
 74
     1
 75
     0
 76
     0
 77
     0
 78
     7
170
     0
171
     2
172
     0
173
     0
174
     0
175
     0
176
   256
177
   256
178
     2
  0
DIMSTYLE
  2
AM_ANSI$3
 70
     0
  3

  4
mm
  5

  6

  7

 40
1.0
 41
0.1
 42
0.05
 43
0.5
 44
0.1
 45
0.0
 46
0.0
 47
0.1
 48
0.1
140
0.12
141
0.0
142
0.0
143
25.399999999999999
144
1.0
145
0.0
146
0.71
147
0.06
 71
     0
 72
     0
 73
     1
 74
     1
 75
     0
 76
     0
 77
     0
 78
     7
170
     0
171
     2
172
     0
173
     0
174
     0
175
     0
176
   256
177
   256
178
     2
  0
DIMSTYLE
  2
AM_ANSI$4
 70
     0
  3

  4
mm
  5

  6

  7

 40
1.0
 41
0.1
 42
0.05
 43
0.5
 44
0.1
 45
0.0
 46
0.0
 47
0.1
 48
0.1
140
0.12
141
0.0
142
0.0
143
25.399999999999999
144
1.0
145
0.0
146
0.71
147
0.06
 71
     0
 72
     0
 73
     1
 74
     1
 75
     0
 76
     0
 77
     0
 78
     7
170
     0
171
     2
172
     0
173
     0
174
     0
175
     0
176
   256
177
   256
178
     2
  0
DIMSTYLE
  2
AM_ANSI$7
 70
     0
  3

  4
mm
  5

  6

  7

 40
1.0
 41
0.1
 42
0.05
 43
0.5
 44
0.1
 45
0.0
 46
0.0
 47
0.1
 48
0.1
140
0.24
141
0.0
142
0.0
143
25.399999999999999
144
1.0
145
0.0
146
0.71
147
0.06
 71
     0
 72
     0
 73
     1
 74
     1
 75
     0
 76
     0
 77
     0
 78
     7
170
     0
171
     2
172
     0
173
     0
174
     0
175
     0
176
   256
177
   256
178
     2
  0
DIMSTYLE
  2
AM_ANSI$SF
 70
     0
  3

  4
mm
  5

  6

  7

 40
1.0
 41
0.1
 42
0.05
 43
0.5
 44
0.1
 45
0.0
 46
0.0
 47
0.1
 48
0.1
140
0.12
141
0.0
142
0.0
143
25.399999999999999
144
1.0
145
0.0
146
0.71
147
0.06
 71
     0
 72
     0
 73
     1
 74
     1
 75
     1
 76
     1
 77
     0
 78
     7
170
     0
171
     2
172
     0
173
     0
174
     0
175
     0
176
   256
177
   256
178
     2
  0
DIMSTYLE
  2
AM_ANSI$SH
 70
     0
  3

  4
mm
  5

  6

  7

 40
1.0
 41
0.1
 42
0.05
 43
0.5
 44
0.1
 45
0.0
 46
0.0
 47
0.1
 48
0.1
140
0.12
141
0.0
142
0.0
143
25.399999999999999
144
1.0
145
0.0
146
0.71
147
0.06
 71
     0
 72
     0
 73
     1
 74
     1
 75
     1
 76
     1
 77
     0
 78
     7
170
     0
171
     2
172
     0
173
     1
174
     0
175
     0
176
   256
177
   256
178
     2
  0
ENDTAB
  0
ENDSEC
  0
SECTION
  2
BLOCKS
  0
BLOCK
  8
0
  2
$MODEL_SPACE
 70
     0
 10
0.0
 20
0.0
 30
0.0
  3
$MODEL_SPACE
  1

  0
ENDBLK
  5
377
  8
0
  0
BLOCK
 67
     1
  8
0
  2
$PAPER_SPACE
 70
     0
 10
0.0
 20
0.0
 30
0.0
  3
$PAPER_SPACE
  1

  0
ENDBLK
  5
373
 67
     1
  8
0
  0
BLOCK
  8
0
  2
GENAXEH
 70
     0
 10
0.0
 20
0.0
 30
0.0
  3
GENAXEH
  1

  0
LINE
  5
33B
  8
0
 10
-1.0
 20
0.0
 30
0.0
 11
1.0
 21
0.0
 31
0.0
  0
ENDBLK
  5
33D
  8
0
  0
BLOCK
  8
0
  2
*U5
 70
     1
 10
0.0
 20
0.0
 30
0.0
  3
*U5
  1

  0
TEXT
  5
9A8
  8
AM_6
 10
-239.85159738619379
 20
-146.577841991291
 30
0.0
 40
20.0
  1
ＤＬ-2000
  0
ENDBLK
  5
9AA
  8
0
  0
BLOCK
  8
0
  2
*U6
 70
     1
 10
0.0
 20
0.0
 30
0.0
  3
*U6
  1

  0
TEXT
  5
9AC
  8
AM_6
 10
619.15416489657218
 20
-146.577841991291
 30
0.0
 40
20.0
  1
ＤＬ-2000Ｈ
  0
ENDBLK
  5
9AE
  8
0
  0
ENDSEC
  0
SECTION
  2
ENTITIES
  0
LINE
  5
2D
  8
0
  6
PHANTOM
 62
     7
 10
-350.0
 20
247.89999
 30
0.0
 11
-350.0
 21
153.5
 31
0.0
  0
LINE
  5
2E
  8
0
  6
CENTER
 62
     7
 10
-305.0
 20
281.0
 30
0.0
 11
-305.0
 21
105.0
 31
0.0
  0
LINE
  5
2F
  8
0
  6
CONTINUOUS
 62
     7
 10
-319.0
 20
276.0
 30
0.0
 11
-291.0
 21
276.0
 31
0.0
  0
LINE
  5
30
  8
0
  6
PHANTOM
 62
     7
 10
-340.39999
 20
233.0
 30
0.0
 11
-326.0
 21
233.0
 31
0.0
  0
LINE
  5
31
  8
0
  6
CONTINUOUS
 62
     7
 10
-321.0
 20
274.0
 30
0.0
 11
-321.0
 21
233.0
 31
0.0
  0
LINE
  5
32
  8
0
  6
CONTINUOUS
 62
     7
 10
-289.0
 20
274.0
 30
0.0
 11
-289.0
 21
233.0
 31
0.0
  0
LINE
  5
33
  8
0
  6
CONTINUOUS
 62
     7
 10
-9.0
 20
276.0
 30
0.0
 11
19.0
 21
276.0
 31
0.0
  0
LINE
  5
34
  8
0
  6
CONTINUOUS
 62
     7
 10
-284.0
 20
233.0
 30
0.0
 11
-284.0
 21
227.0
 31
0.0
  0
LINE
  5
35
  8
0
  6
CONTINUOUS
 62
     7
 10
-326.0
 20
233.0
 30
0.0
 11
-326.0
 21
227.0
 31
0.0
  0
LINE
  5
36
  8
0
  6
CONTINUOUS
 62
     7
 10
-325.0
 20
226.0
 30
0.0
 11
-285.0
 21
226.0
 31
0.0
  0
LINE
  5
37
  8
0
  6
CENTER
 62
     7
 10
-311.0
 20
248.49999999999989
 30
0.0
 11
-311.0
 21
233.49999999999989
 31
0.0
  0
LINE
  5
38
  8
0
  6
CENTER
 62
     7
 10
-318.5
 20
241.0
 30
0.0
 11
-303.5
 21
241.0
 31
0.0
  0
LINE
  5
39
  8
0
  6
CONTINUOUS
 62
     7
 10
-326.0
 20
233.0
 30
0.0
 11
-284.0
 21
233.0
 31
0.0
  0
LINE
  5
3A
  8
0
  6
PHANTOM
 62
     7
 10
-284.0
 20
233.0
 30
0.0
 11
-272.0
 21
233.0
 31
0.0
  0
LINE
  5
3B
  8
0
  6
CONTINUOUS
 62
     7
 10
-302.0
 20
212.5
 30
0.0
 11
-297.0
 21
212.5
 31
0.0
  0
LINE
  5
3C
  8
0
  6
CONTINUOUS
 62
     7
 10
-297.0
 20
212.5
 30
0.0
 11
-297.0
 21
157.5
 31
0.0
  0
LINE
  5
3D
  8
0
  6
CONTINUOUS
 62
     7
 10
-313.0
 20
162.49997999999991
 30
0.0
 11
-313.0
 21
157.5
 31
0.0
  0
LINE
  5
3E
  8
0
  6
CONTINUOUS
 62
     7
 10
-302.00027
 20
212.50004999999999
 30
0.0
 11
-313.00026999999989
 21
162.50005999999999
 31
0.0
  0
LINE
  5
3F
  8
0
  6
CONTINUOUS
 62
     7
 10
-350.0
 20
-80.0
 30
0.0
 11
-275.0
 21
-80.0
 31
0.0
  0
LINE
  5
40
  8
0
  6
CONTINUOUS
 62
     7
 10
-350.0
 20
110.0
 30
0.0
 11
-275.0
 21
110.0
 31
0.0
  0
LINE
  5
41
  8
0
  6
DASHED
 62
     7
 10
-318.0
 20
118.75
 30
0.0
 11
-292.0
 21
118.75
 31
0.0
  0
LINE
  5
42
  8
0
  6
CONTINUOUS
 62
     7
 10
-346.0
 20
157.5
 30
0.0
 11
-290.0
 21
157.5
 31
0.0
  0
LINE
  5
43
  8
0
  6
CONTINUOUS
 62
     7
 10
-346.0
 20
153.5
 30
0.0
 11
-290.0
 21
153.5
 31
0.0
  0
LINE
  5
44
  8
0
  6
CONTINUOUS
 62
     7
 10
-346.0
 20
153.5
 30
0.0
 11
-346.0
 21
127.5
 31
0.0
  0
LINE
  5
45
  8
0
  6
CONTINUOUS
 62
     7
 10
-350.0
 20
127.5
 30
0.0
 11
-346.0
 21
127.5
 31
0.0
  0
LINE
  5
46
  8
0
  6
CONTINUOUS
 62
     7
 10
-290.0
 20
157.5
 30
0.0
 11
-290.0
 21
153.5
 31
0.0
  0
LINE
  5
47
  8
0
  6
CONTINUOUS
 62
     7
 10
-313.0
 20
153.5
 30
0.0
 11
-313.0
 21
110.0
 31
0.0
  0
LINE
  5
48
  8
0
  6
CONTINUOUS
 62
     7
 10
-297.0
 20
153.5
 30
0.0
 11
-297.0
 21
110.0
 31
0.0
  0
LINE
  5
49
  8
0
  6
CENTER
 62
     7
 10
-361.0
 20
142.5
 30
0.0
 11
-341.0
 21
142.5
 31
0.0
  0
LINE
  5
4A
  8
0
  6
CONTINUOUS
 62
     7
 10
-347.70001000000002
 20
110.0
 30
0.0
 11
-347.70001000000002
 21
-80.0
 31
0.0
  0
LINE
  5
4B
  8
0
  6
CONTINUOUS
 62
     7
 10
-275.0
 20
110.0
 30
0.0
 11
-275.0
 21
-80.0
 31
0.0
  0
LINE
  5
4C
  8
0
  6
PHANTOM
 62
     7
 10
-350.0
 20
-80.0
 30
0.0
 11
-350.0
 21
-95.0
 31
0.0
  0
LINE
  5
4D
  8
0
  6
PHANTOM
 62
     7
 10
-350.0
 20
127.5
 30
0.0
 11
-350.0
 21
110.0
 31
0.0
  0
LINE
  5
4E
  8
0
  6
CONTINUOUS
 62
     7
 10
-350.0
 20
110.0
 30
0.0
 11
-350.0
 21
-80.0
 31
0.0
  0
LINE
  5
4F
  8
0
  6
CONTINUOUS
 62
     7
 10
-350.0
 20
153.5
 30
0.0
 11
-350.0
 21
127.5
 31
0.0
  0
LINE
  5
50
  8
0
  6
PHANTOM
 62
     7
 10
-351.60000999999983
 20
247.89999
 30
0.0
 11
-351.60000999999983
 21
-95.0
 31
0.0
  0
LINE
  5
51
  8
0
  6
CONTINUOUS
 62
     7
 10
60.0
 20
110.0
 30
0.0
 11
60.0
 21
-80.0
 31
0.0
  0
LINE
  5
52
  8
0
  6
CONTINUOUS
 62
     7
 10
-80.0
 20
110.0
 30
0.0
 11
-80.0
 21
26.5
 31
0.0
  0
LINE
  5
53
  8
0
  6
CONTINUOUS
 62
     7
 10
-65.0
 20
110.0
 30
0.0
 11
-65.0
 21
26.5
 31
0.0
  0
LINE
  5
54
  8
0
  6
CONTINUOUS
 62
     7
 10
45.0
 20
110.0
 30
0.0
 11
45.0
 21
-80.0
 31
0.0
  0
LINE
  5
55
  8
0
  6
CONTINUOUS
 62
     7
 10
-80.0
 20
-80.0
 30
0.0
 11
60.0
 21
-80.0
 31
0.0
  0
LINE
  5
56
  8
0
  6
CONTINUOUS
 62
     7
 10
-80.0
 20
110.0
 30
0.0
 11
60.0
 21
110.0
 31
0.0
  0
LINE
  5
57
  8
0
  6
CENTER
 62
     7
 10
5.0
 20
281.0
 30
0.0
 11
5.0
 21
105.0
 31
0.0
  0
LINE
  5
58
  8
0
  6
CONTINUOUS
 62
     7
 10
-3.0
 20
198.86362
 30
0.0
 11
-3.0
 21
157.5
 31
0.0
  0
LINE
  5
59
  8
0
  6
CONTINUOUS
 62
     7
 10
13.0
 20
198.86362
 30
0.0
 11
13.0
 21
157.5
 31
0.0
  0
LINE
  5
5A
  8
0
  6
CONTINUOUS
 62
     7
 10
-2.4161986999999989
 20
212.5
 30
0.0
 11
12.416199000000001
 21
212.5
 31
0.0
  0
LINE
  5
5B
  8
0
  6
CENTER
 62
     7
 10
-11.0
 20
15.0
 30
0.0
 11
-196.0
 21
15.0
 31
0.0
  0
LINE
  5
5C
  8
0
  6
CONTINUOUS
 62
     7
 10
-10.0
 20
157.5
 30
0.0
 11
20.0
 21
157.5
 31
0.0
  0
LINE
  5
5D
  8
0
  6
CONTINUOUS
 62
     7
 10
-10.0
 20
153.5
 30
0.0
 11
20.0
 21
153.5
 31
0.0
  0
LINE
  5
5E
  8
0
  6
CONTINUOUS
 62
     7
 10
-10.0
 20
127.5
 30
0.0
 11
-3.0
 21
127.5
 31
0.0
  0
LINE
  5
5F
  8
0
  6
CONTINUOUS
 62
     7
 10
-10.0
 20
157.5
 30
0.0
 11
-10.0
 21
127.5
 31
0.0
  0
LINE
  5
60
  8
0
  6
CONTINUOUS
 62
     7
 10
20.0
 20
157.5
 30
0.0
 11
20.0
 21
127.5
 31
0.0
  0
LINE
  5
61
  8
0
  6
DASHED
 62
     7
 10
-8.0
 20
118.75
 30
0.0
 11
18.0
 21
118.75
 31
0.0
  0
LINE
  5
62
  8
0
  6
CONTINUOUS
 62
     7
 10
-3.0
 20
153.5
 30
0.0
 11
-3.0
 21
110.0
 31
0.0
  0
LINE
  5
63
  8
0
  6
CONTINUOUS
 62
     7
 10
13.0
 20
153.5
 30
0.0
 11
13.0
 21
110.0
 31
0.0
  0
LINE
  5
64
  8
0
  6
CENTER
 62
     7
 10
-9.0
 20
142.5
 30
0.0
 11
2.0
 21
142.5
 31
0.0
  0
LINE
  5
65
  8
0
  6
CENTER
 62
     7
 10
8.0
 20
142.5
 30
0.0
 11
19.0
 21
142.5
 31
0.0
  0
LINE
  5
66
  8
0
  6
CONTINUOUS
 62
     7
 10
13.0
 20
127.5
 30
0.0
 11
20.0
 21
127.5
 31
0.0
  0
LINE
  5
67
  8
0
  6
CONTINUOUS
 62
     7
 10
-33.0
 20
226.0
 30
0.0
 11
43.0
 21
226.0
 31
0.0
  0
LINE
  5
68
  8
0
  6
CONTINUOUS
 62
     7
 10
-34.0
 20
233.0
 30
0.0
 11
-34.0
 21
227.0
 31
0.0
  0
LINE
  5
69
  8
0
  6
CONTINUOUS
 62
     7
 10
44.0
 20
233.0
 30
0.0
 11
44.0
 21
227.0
 31
0.0
  0
LINE
  5
6A
  8
0
  6
CONTINUOUS
 62
     7
 10
-34.0
 20
233.0
 30
0.0
 11
44.0
 21
233.0
 31
0.0
  0
LINE
  5
6B
  8
0
  6
PHANTOM
 62
     7
 10
44.0
 20
233.0
 30
0.0
 11
59.0
 21
233.0
 31
0.0
  0
LINE
  5
6C
  8
0
  6
CONTINUOUS
 62
     7
 10
-11.0
 20
274.0
 30
0.0
 11
-11.0
 21
233.0
 31
0.0
  0
LINE
  5
6D
  8
0
  6
CONTINUOUS
 62
     7
 10
21.0
 20
274.0
 30
0.0
 11
21.0
 21
233.0
 31
0.0
  0
LINE
  5
6E
  8
0
  6
PHANTOM
 62
     7
 10
-49.0
 20
233.0
 30
0.0
 11
-34.0
 21
233.0
 31
0.0
  0
LINE
  5
6F
  8
0
  6
PHANTOM
 62
     7
 10
-49.0
 20
234.60000999999991
 30
0.0
 11
59.0
 21
234.60000999999991
 31
0.0
  0
LINE
  5
70
  8
0
  6
CENTER
 62
     7
 10
-21.0
 20
243.0
 30
0.0
 11
-21.0
 21
217.69999999999999
 31
0.0
  0
LINE
  5
71
  8
0
  6
CONTINUOUS
 62
     7
 10
-22.5
 20
222.6999999999999
 30
0.0
 11
-19.5
 21
222.6999999999999
 31
0.0
  0
LINE
  5
72
  8
0
  6
CONTINUOUS
 62
     7
 10
-25.5
 20
226.0
 30
0.0
 11
-25.5
 21
225.69999999999999
 31
0.0
  0
LINE
  5
73
  8
0
  6
CONTINUOUS
 62
     7
 10
-16.5
 20
226.0
 30
0.0
 11
-16.5
 21
225.69999999999999
 31
0.0
  0
LINE
  5
74
  8
0
  6
CONTINUOUS
 62
     7
 10
-23.5
 20
238.0
 30
0.0
 11
-18.5
 21
238.0
 31
0.0
  0
LINE
  5
75
  8
0
  6
CONTINUOUS
 62
     7
 10
-18.5
 20
238.0
 30
0.0
 11
-18.5
 21
233.0
 31
0.0
  0
LINE
  5
76
  8
0
  6
CONTINUOUS
 62
     7
 10
-23.5
 20
238.0
 30
0.0
 11
-23.5
 21
233.0
 31
0.0
  0
LINE
  5
77
  8
0
  6
CONTINUOUS
 62
     7
 10
-23.099997999999989
 20
238.0
 30
0.0
 11
-23.099997999999989
 21
233.0
 31
0.0
  0
LINE
  5
78
  8
0
  6
CONTINUOUS
 62
     7
 10
-18.900002000000001
 20
238.0
 30
0.0
 11
-18.900002000000001
 21
233.0
 31
0.0
  0
LINE
  5
79
  8
0
  6
CONTINUOUS
 62
     7
 10
28.900002000000001
 20
238.0
 30
0.0
 11
28.900002000000001
 21
233.0
 31
0.0
  0
LINE
  5
7A
  8
0
  6
CENTER
 62
     7
 10
31.0
 20
243.0
 30
0.0
 11
31.0
 21
217.69999999999999
 31
0.0
  0
LINE
  5
7B
  8
0
  6
CONTINUOUS
 62
     7
 10
32.5
 20
222.6999999999999
 30
0.0
 11
29.5
 21
222.6999999999999
 31
0.0
  0
LINE
  5
7C
  8
0
  6
CONTINUOUS
 62
     7
 10
35.5
 20
226.0
 30
0.0
 11
35.5
 21
225.69999999999999
 31
0.0
  0
LINE
  5
7D
  8
0
  6
CONTINUOUS
 62
     7
 10
26.5
 20
226.0
 30
0.0
 11
26.5
 21
225.69999999999999
 31
0.0
  0
LINE
  5
7E
  8
0
  6
CONTINUOUS
 62
     7
 10
33.5
 20
238.0
 30
0.0
 11
28.5
 21
238.0
 31
0.0
  0
LINE
  5
7F
  8
0
  6
CONTINUOUS
 62
     7
 10
28.5
 20
238.0
 30
0.0
 11
28.5
 21
233.0
 31
0.0
  0
LINE
  5
80
  8
0
  6
CONTINUOUS
 62
     7
 10
33.5
 20
238.0
 30
0.0
 11
33.5
 21
233.0
 31
0.0
  0
LINE
  5
81
  8
0
  6
CONTINUOUS
 62
     7
 10
33.099997999999992
 20
238.0
 30
0.0
 11
33.099997999999992
 21
233.0
 31
0.0
  0
LINE
  5
82
  8
0
  6
PHANTOM
 62
     7
 10
-340.39999
 20
234.60000999999991
 30
0.0
 11
-272.0
 21
234.60000999999991
 31
0.0
  0
LINE
  5
83
  8
0
  6
CONTINUOUS
 62
     7
 10
-356.0
 20
145.0
 30
0.0
 11
-356.0
 21
140.0
 31
0.0
  0
LINE
  5
84
  8
0
  6
CONTINUOUS
 62
     7
 10
-356.0
 20
145.0
 30
0.0
 11
-350.0
 21
145.0
 31
0.0
  0
LINE
  5
85
  8
0
  6
CONTINUOUS
 62
     7
 10
-356.0
 20
140.0
 30
0.0
 11
-350.0
 21
140.0
 31
0.0
  0
LINE
  5
86
  8
0
  6
CONTINUOUS
 62
     7
 10
-356.0
 20
144.60001
 30
0.0
 11
-350.0
 21
144.60001
 31
0.0
  0
LINE
  5
87
  8
0
  6
CONTINUOUS
 62
     7
 10
-356.0
 20
140.39999
 30
0.0
 11
-350.0
 21
140.39999
 31
0.0
  0
LINE
  5
88
  8
0
  6
CONTINUOUS
 62
     7
 10
-316.0
 20
222.70000999999999
 30
0.0
 11
-313.0
 21
222.70000999999999
 31
0.0
  0
LINE
  5
89
  8
0
  6
CONTINUOUS
 62
     7
 10
-319.0
 20
226.0
 30
0.0
 11
-319.0
 21
225.69999999999999
 31
0.0
  0
LINE
  5
8A
  8
0
  6
CONTINUOUS
 62
     7
 10
-310.0
 20
226.0
 30
0.0
 11
-310.0
 21
225.69999999999999
 31
0.0
  0
LINE
  5
8B
  8
0
  6
CENTER
 62
     7
 10
-314.5
 20
243.0
 30
0.0
 11
-314.5
 21
217.69999999999999
 31
0.0
  0
LINE
  5
8C
  8
0
  6
CONTINUOUS
 62
     7
 10
-316.60001
 20
238.0
 30
0.0
 11
-316.60001
 21
233.0
 31
0.0
  0
LINE
  5
8D
  8
0
  6
CONTINUOUS
 62
     7
 10
-317.0
 20
238.0
 30
0.0
 11
-317.0
 21
233.0
 31
0.0
  0
LINE
  5
8E
  8
0
  6
CONTINUOUS
 62
     7
 10
-317.0
 20
238.0
 30
0.0
 11
-312.0
 21
238.0
 31
0.0
  0
LINE
  5
8F
  8
0
  6
CONTINUOUS
 62
     7
 10
-312.39999
 20
238.0
 30
0.0
 11
-312.39999
 21
233.0
 31
0.0
  0
LINE
  5
90
  8
0
  6
CONTINUOUS
 62
     7
 10
-312.0
 20
238.0
 30
0.0
 11
-312.0
 21
233.0
 31
0.0
  0
LINE
  5
91
  8
0
  6
CONTINUOUS
 62
     7
 10
-297.0
 20
222.70000999999999
 30
0.0
 11
-294.0
 21
222.70000999999999
 31
0.0
  0
LINE
  5
92
  8
0
  6
CONTINUOUS
 62
     7
 10
-300.0
 20
226.0
 30
0.0
 11
-300.0
 21
225.69999999999999
 31
0.0
  0
LINE
  5
93
  8
0
  6
CONTINUOUS
 62
     7
 10
-291.0
 20
226.0
 30
0.0
 11
-291.0
 21
225.69999999999999
 31
0.0
  0
LINE
  5
94
  8
0
  6
CENTER
 62
     7
 10
-295.5
 20
243.0
 30
0.0
 11
-295.5
 21
217.69999999999999
 31
0.0
  0
LINE
  5
95
  8
0
  6
CONTINUOUS
 62
     7
 10
-297.60000999999988
 20
238.0
 30
0.0
 11
-297.60000999999988
 21
233.0
 31
0.0
  0
LINE
  5
96
  8
0
  6
CONTINUOUS
 62
     7
 10
-298.0
 20
238.0
 30
0.0
 11
-298.0
 21
233.0
 31
0.0
  0
LINE
  5
97
  8
0
  6
CONTINUOUS
 62
     7
 10
-298.0
 20
238.0
 30
0.0
 11
-293.0
 21
238.0
 31
0.0
  0
LINE
  5
98
  8
0
  6
CONTINUOUS
 62
     7
 10
-293.39998999999989
 20
238.0
 30
0.0
 11
-293.39998999999989
 21
233.0
 31
0.0
  0
LINE
  5
99
  8
0
  6
CONTINUOUS
 62
     7
 10
-293.0
 20
238.0
 30
0.0
 11
-293.0
 21
233.0
 31
0.0
  0
LINE
  5
9A
  8
0
  6
CENTER
 62
     7
 10
-96.5
 20
207.5
 30
0.0
 11
-96.5
 21
155.4999999999998
 31
0.0
  0
LINE
  5
9B
  8
0
  6
CONTINUOUS
 62
     7
 10
-135.4999999999998
 20
200.49999999999989
 30
0.0
 11
-135.4999999999998
 21
162.5
 31
0.0
  0
LINE
  5
9C
  8
0
  6
CONTINUOUS
 62
     7
 10
-57.5
 20
200.49999999999989
 30
0.0
 11
-57.5
 21
162.5
 31
0.0
  0
LINE
  5
9D
  8
0
  6
CENTER
 62
     7
 10
-140.5
 20
181.49999999999989
 30
0.0
 11
-108.0
 21
181.49999999999989
 31
0.0
  0
LINE
  5
9E
  8
0
  6
CONTINUOUS
 62
     7
 10
-133.4999999999998
 20
202.49999999999989
 30
0.0
 11
-59.5
 21
202.49999999999989
 31
0.0
  0
LINE
  5
9F
  8
0
  6
CONTINUOUS
 62
     7
 10
-133.4999999999998
 20
160.4999999999998
 30
0.0
 11
-59.5
 21
160.4999999999998
 31
0.0
  0
LINE
  5
A0
  8
0
  6
CONTINUOUS
 62
     7
 10
-83.499999999999986
 20
192.5
 30
0.0
 11
-83.499999999999986
 21
170.5
 31
0.0
  0
LINE
  5
A1
  8
0
  6
CONTINUOUS
 62
     7
 10
-109.4999999999999
 20
192.5
 30
0.0
 11
-109.4999999999999
 21
170.5
 31
0.0
  0
LINE
  5
A2
  8
0
  6
CONTINUOUS
 62
     7
 10
-107.4999999999999
 20
194.5
 30
0.0
 11
-85.5
 21
194.5
 31
0.0
  0
LINE
  5
A3
  8
0
  6
CONTINUOUS
 62
     7
 10
-107.4999999999999
 20
168.5
 30
0.0
 11
-85.5
 21
168.5
 31
0.0
  0
LINE
  5
A4
  8
0
  6
CENTER
 62
     7
 10
-156.03735
 20
175.5
 30
0.0
 11
-78.5
 21
175.5
 31
0.0
  0
LINE
  5
A5
  8
0
  6
CONTINUOUS
 62
     7
 10
-108.4999999999999
 20
181.0
 30
0.0
 11
-108.4999999999999
 21
170.0
 31
0.0
  0
LINE
  5
A6
  8
0
  6
CONTINUOUS
 62
     7
 10
-84.500000000000014
 20
181.0
 30
0.0
 11
-84.500000000000014
 21
170.00002000000001
 31
0.0
  0
LINE
  5
A7
  8
0
  6
CONTINUOUS
 62
     7
 10
-108.0
 20
181.49999999999989
 30
0.0
 11
-108.0
 21
169.5
 31
0.0
  0
LINE
  5
A8
  8
0
  6
CONTINUOUS
 62
     7
 10
-85.0
 20
181.49999999999989
 30
0.0
 11
-85.0
 21
169.5
 31
0.0
  0
LINE
  5
A9
  8
0
  6
CONTINUOUS
 62
     7
 10
-108.0
 20
181.49999999999989
 30
0.0
 11
-85.0
 21
181.49999999999989
 31
0.0
  0
LINE
  5
AA
  8
0
  6
CONTINUOUS
 62
     7
 10
-108.0
 20
169.5
 30
0.0
 11
-85.000015000000005
 21
169.5
 31
0.0
  0
LINE
  5
AB
  8
0
  6
CONTINUOUS
 62
     7
 10
-108.49997
 20
169.99996999999999
 30
0.0
 11
-107.99996999999991
 21
169.49996999999991
 31
0.0
  0
LINE
  5
AC
  8
0
  6
CONTINUOUS
 62
     7
 10
-84.499923999999965
 20
169.99992
 30
0.0
 11
-84.999923999999979
 21
169.4999199999998
 31
0.0
  0
LINE
  5
AD
  8
0
  6
CONTINUOUS
 62
     7
 10
-84.999976999999987
 20
181.49996999999991
 30
0.0
 11
-84.499977000000001
 21
180.99996999999991
 31
0.0
  0
LINE
  5
AE
  8
0
  6
CONTINUOUS
 62
     7
 10
-107.99995
 20
181.49995000000001
 30
0.0
 11
-108.49995
 21
180.99995000000001
 31
0.0
  0
LINE
  5
AF
  8
0
  6
CONTINUOUS
 62
     7
 10
-109.4999999999999
 20
171.5
 30
0.0
 11
-108.4999999999999
 21
171.5
 31
0.0
  0
LINE
  5
B0
  8
0
  6
CONTINUOUS
 62
     7
 10
-109.4999999999999
 20
179.49999999999989
 30
0.0
 11
-108.4999999999999
 21
179.49999999999989
 31
0.0
  0
LINE
  5
B1
  8
0
  6
CONTINUOUS
 62
     7
 10
-84.500000000000014
 20
179.49999999999989
 30
0.0
 11
-83.499999999999986
 21
179.49999999999989
 31
0.0
  0
LINE
  5
B2
  8
0
  6
CONTINUOUS
 62
     7
 10
-84.500000000000014
 20
171.5
 30
0.0
 11
-83.499999999999986
 21
171.5
 31
0.0
  0
LINE
  5
B3
  8
0
  6
CENTER
 62
     7
 10
-127.5
 20
172.0
 30
0.0
 11
-117.5
 21
172.0
 31
0.0
  0
LINE
  5
B4
  8
0
  6
CENTER
 62
     7
 10
-127.5
 20
191.0
 30
0.0
 11
-117.5
 21
191.0
 31
0.0
  0
LINE
  5
B5
  8
0
  6
CENTER
 62
     7
 10
-75.5
 20
172.0
 30
0.0
 11
-65.5
 21
172.0
 31
0.0
  0
LINE
  5
B6
  8
0
  6
CENTER
 62
     7
 10
-75.5
 20
191.0
 30
0.0
 11
-65.5
 21
191.0
 31
0.0
  0
LINE
  5
B7
  8
0
  6
CENTER
 62
     7
 10
-85.0
 20
181.49999999999989
 30
0.0
 11
-52.5
 21
181.49999999999989
 31
0.0
  0
LINE
  5
B8
  8
0
  6
DASHED
 62
     7
 10
-129.4999999999998
 20
196.0
 30
0.0
 11
-115.5
 21
196.0
 31
0.0
  0
LINE
  5
B9
  8
0
  6
DASHED
 62
     7
 10
-129.4999999999998
 20
167.0
 30
0.0
 11
-115.5
 21
167.0
 31
0.0
  0
LINE
  5
BA
  8
0
  6
DASHED
 62
     7
 10
-115.5
 20
196.0
 30
0.0
 11
-115.5
 21
167.0
 31
0.0
  0
LINE
  5
BB
  8
0
  6
DASHED
 62
     7
 10
-129.4999999999998
 20
196.0
 30
0.0
 11
-129.4999999999998
 21
167.0
 31
0.0
  0
LINE
  5
BC
  8
0
  6
DASHED
 62
     7
 10
-63.5
 20
167.0
 30
0.0
 11
-77.5
 21
167.0
 31
0.0
  0
LINE
  5
BD
  8
0
  6
DASHED
 62
     7
 10
-77.5
 20
196.0
 30
0.0
 11
-77.5
 21
167.0
 31
0.0
  0
LINE
  5
BE
  8
0
  6
DASHED
 62
     7
 10
-63.5
 20
196.0
 30
0.0
 11
-63.5
 21
167.0
 31
0.0
  0
LINE
  5
BF
  8
0
  6
DASHED
 62
     7
 10
-63.5
 20
196.0
 30
0.0
 11
-77.5
 21
196.0
 31
0.0
  0
LINE
  5
C0
  8
0
  6
CENTER
 62
     7
 10
-122.5
 20
201.0
 30
0.0
 11
-122.5
 21
162.0
 31
0.0
  0
LINE
  5
C1
  8
0
  6
PHANTOM
 62
     7
 10
-375.0
 20
255.0
 30
0.0
 11
-327.0
 21
255.0
 31
0.0
  0
LINE
  5
C2
  8
0
  6
PHANTOM
 62
     7
 10
-340.39999
 20
236.20000999999999
 30
0.0
 11
-327.0
 21
236.20000999999999
 31
0.0
  0
LINE
  5
C3
  8
0
  6
PHANTOM
 62
     7
 10
-327.0
 20
253.39998999999989
 30
0.0
 11
-327.0
 21
236.20000999999999
 31
0.0
  0
LINE
  5
C4
  8
0
  6
PHANTOM
 62
     7
 10
-325.39999
 20
253.39998999999989
 30
0.0
 11
-325.39999
 21
236.20000999999999
 31
0.0
  0
LINE
  5
C5
  8
0
  6
PHANTOM
 62
     7
 10
-375.0
 20
253.39998999999989
 30
0.0
 11
-327.0
 21
253.39998999999989
 31
0.0
  0
LINE
  5
C6
  8
0
  6
PHANTOM
 62
     7
 10
-370.0
 20
249.39998999999989
 30
0.0
 11
-341.60001
 21
249.39998999999989
 31
0.0
  0
LINE
  5
C7
  8
0
  6
PHANTOM
 62
     7
 10
-348.50002999999992
 20
241.96892
 30
0.0
 11
-340.80004999999989
 21
246.41451000000001
 31
0.0
  0
LINE
  5
C8
  8
0
  6
PHANTOM
 62
     7
 10
-350.0
 20
229.39999
 30
0.0
 11
-348.49999999999977
 21
229.39999
 31
0.0
  0
LINE
  5
C9
  8
0
  6
PHANTOM
 62
     7
 10
-375.0
 20
247.89999
 30
0.0
 11
-341.60001
 21
247.89999
 31
0.0
  0
LINE
  5
CA
  8
0
  6
PHANTOM
 62
     7
 10
-349.25006000000002
 20
243.26799
 30
0.0
 11
-341.55007999999992
 21
247.71357999999989
 31
0.0
  0
LINE
  5
CB
  8
0
  6
PHANTOM
 62
     7
 10
-348.49999999999977
 20
241.96875
 30
0.0
 11
-348.49999999999977
 21
229.39999
 31
0.0
  0
LINE
  5
CC
  8
0
  6
PHANTOM
 62
     7
 10
-370.0
 20
249.39998999999989
 30
0.0
 11
-370.0
 21
247.89999
 31
0.0
  0
LINE
  5
CD
  8
0
  6
PHANTOM
 62
     7
 10
-375.0
 20
245.5999799999999
 30
0.0
 11
-353.89999
 21
245.5999799999999
 31
0.0
  0
LINE
  5
CE
  8
0
  6
PHANTOM
 62
     7
 10
-353.89999
 20
245.59998999999999
 30
0.0
 11
-353.89999
 21
222.89999
 31
0.0
  0
LINE
  5
CF
  8
0
  6
PHANTOM
 62
     7
 10
-353.89999
 20
222.89999
 30
0.0
 11
-351.60000999999983
 21
222.89999
 31
0.0
  0
LINE
  5
D0
  8
0
  6
CENTER
 62
     7
 10
-52.0
 20
102.0
 30
0.0
 11
-52.0
 21
89.0
 31
0.0
  0
LINE
  5
D1
  8
0
  6
CENTER
 62
     7
 10
-58.5
 20
95.5
 30
0.0
 11
-45.499999999999993
 21
95.5
 31
0.0
  0
LINE
  5
D2
  8
0
  6
CENTER
 62
     7
 10
-52.0
 20
-59.0
 30
0.0
 11
-52.0
 21
-72.0
 31
0.0
  0
LINE
  5
D3
  8
0
  6
CENTER
 62
     7
 10
-58.5
 20
-65.5
 30
0.0
 11
-45.499999999999993
 21
-65.5
 31
0.0
  0
LINE
  5
D4
  8
0
  6
CENTER
 62
     7
 10
32.0
 20
-59.0
 30
0.0
 11
32.0
 21
-72.0
 31
0.0
  0
LINE
  5
D5
  8
0
  6
CENTER
 62
     7
 10
25.5
 20
-65.5
 30
0.0
 11
38.5
 21
-65.5
 31
0.0
  0
LINE
  5
D6
  8
0
  6
CENTER
 62
     7
 10
32.0
 20
102.0
 30
0.0
 11
32.0
 21
89.0
 31
0.0
  0
LINE
  5
D7
  8
0
  6
CENTER
 62
     7
 10
25.5
 20
95.5
 30
0.0
 11
38.5
 21
95.5
 31
0.0
  0
LINE
  5
D8
  8
0
  6
DASHED
 62
     7
 10
-120.0
 20
181.89999
 30
0.0
 11
-120.0
 21
181.10001
 31
0.0
  0
LINE
  5
D9
  8
0
  6
DASHED
 62
     7
 10
-125.0
 20
181.89999
 30
0.0
 11
-125.0
 21
181.10001
 31
0.0
  0
LINE
  5
DA
  8
0
  6
DASHED
 62
     7
 10
-122.8999899999999
 20
184.0
 30
0.0
 11
-122.10001
 21
184.0
 31
0.0
  0
LINE
  5
DB
  8
0
  6
DASHED
 62
     7
 10
-122.8999899999999
 20
179.0
 30
0.0
 11
-122.10001
 21
179.0
 31
0.0
  0
LINE
  5
DC
  8
0
  6
DASHED
 62
     7
 10
-122.8999899999999
 20
184.0
 30
0.0
 11
-122.8999899999999
 21
183.39999
 31
0.0
  0
LINE
  5
DD
  8
0
  6
DASHED
 62
     7
 10
-122.10001
 20
184.0
 30
0.0
 11
-122.10001
 21
183.39999
 31
0.0
  0
LINE
  5
DE
  8
0
  6
DASHED
 62
     7
 10
-125.0
 20
181.10001
 30
0.0
 11
-124.3999899999999
 21
181.10001
 31
0.0
  0
LINE
  5
DF
  8
0
  6
DASHED
 62
     7
 10
-125.0
 20
181.89999
 30
0.0
 11
-124.3999899999999
 21
181.89999
 31
0.0
  0
LINE
  5
E0
  8
0
  6
DASHED
 62
     7
 10
-120.60001
 20
181.89999
 30
0.0
 11
-120.0
 21
181.89999
 31
0.0
  0
LINE
  5
E1
  8
0
  6
DASHED
 62
     7
 10
-122.8999899999999
 20
179.60001
 30
0.0
 11
-122.8999899999999
 21
179.0
 31
0.0
  0
LINE
  5
E2
  8
0
  6
DASHED
 62
     7
 10
-122.10001
 20
179.60001
 30
0.0
 11
-122.10001
 21
179.0
 31
0.0
  0
LINE
  5
E3
  8
0
  6
DASHED
 62
     7
 10
-120.60001
 20
181.10001
 30
0.0
 11
-120.0
 21
181.10001
 31
0.0
  0
LINE
  5
E4
  8
0
  6
DASHED
 62
     7
 10
-73.0
 20
181.89999
 30
0.0
 11
-73.0
 21
181.10001
 31
0.0
  0
LINE
  5
E5
  8
0
  6
DASHED
 62
     7
 10
-68.0
 20
181.89999
 30
0.0
 11
-68.0
 21
181.10001
 31
0.0
  0
LINE
  5
E6
  8
0
  6
DASHED
 62
     7
 10
-70.100006000000008
 20
184.0
 30
0.0
 11
-70.899993999999978
 21
184.0
 31
0.0
  0
LINE
  5
E7
  8
0
  6
DASHED
 62
     7
 10
-70.100006000000008
 20
179.0
 30
0.0
 11
-70.899993999999978
 21
179.0
 31
0.0
  0
LINE
  5
E8
  8
0
  6
DASHED
 62
     7
 10
-70.100006000000008
 20
184.0
 30
0.0
 11
-70.100006000000008
 21
183.39999
 31
0.0
  0
LINE
  5
E9
  8
0
  6
DASHED
 62
     7
 10
-70.899993999999978
 20
184.0
 30
0.0
 11
-70.899993999999978
 21
183.39999
 31
0.0
  0
LINE
  5
EA
  8
0
  6
DASHED
 62
     7
 10
-68.0
 20
181.10001
 30
0.0
 11
-68.600006000000008
 21
181.10001
 31
0.0
  0
LINE
  5
EB
  8
0
  6
DASHED
 62
     7
 10
-68.0
 20
181.89999
 30
0.0
 11
-68.600006000000008
 21
181.89999
 31
0.0
  0
LINE
  5
EC
  8
0
  6
DASHED
 62
     7
 10
-72.399993999999978
 20
181.89999
 30
0.0
 11
-73.0
 21
181.89999
 31
0.0
  0
LINE
  5
ED
  8
0
  6
DASHED
 62
     7
 10
-70.100006000000008
 20
179.60001
 30
0.0
 11
-70.100006000000008
 21
179.0
 31
0.0
  0
LINE
  5
EE
  8
0
  6
DASHED
 62
     7
 10
-70.899993999999978
 20
179.60001
 30
0.0
 11
-70.899993999999978
 21
179.0
 31
0.0
  0
LINE
  5
EF
  8
0
  6
DASHED
 62
     7
 10
-72.399993999999978
 20
181.10001
 30
0.0
 11
-73.0
 21
181.10001
 31
0.0
  0
LINE
  5
F0
  8
0
  6
CONTINUOUS
 62
     7
 10
-307.0
 20
238.24999999999989
 30
0.0
 11
-307.0
 21
233.0
 31
0.0
  0
LINE
  5
F1
  8
0
  6
CONTINUOUS
 62
     7
 10
-303.0
 20
238.24999999999989
 30
0.0
 11
-303.0
 21
233.0
 31
0.0
  0
LINE
  5
F2
  8
0
  6
CONTINUOUS
 62
     7
 10
-303.37999999999988
 20
238.24999999999989
 30
0.0
 11
-303.37999999999988
 21
233.0
 31
0.0
  0
LINE
  5
F3
  8
0
  6
CONTINUOUS
 62
     7
 10
-306.62
 20
238.24999999999989
 30
0.0
 11
-306.62
 21
233.0
 31
0.0
  0
LINE
  5
F4
  8
0
  6
CONTINUOUS
 62
     7
 10
-307.0
 20
238.24999999999989
 30
0.0
 11
-303.0
 21
238.24999999999989
 31
0.0
  0
LINE
  5
F5
  8
0
  6
CONTINUOUS
 62
     7
 10
-23.0
 20
238.24999999999989
 30
0.0
 11
-19.0
 21
238.24999999999989
 31
0.0
  0
LINE
  5
F6
  8
0
  6
CONTINUOUS
 62
     7
 10
-23.0
 20
238.24999999999989
 30
0.0
 11
-23.0
 21
238.0
 31
0.0
  0
LINE
  5
F7
  8
0
  6
CONTINUOUS
 62
     7
 10
-19.0
 20
238.24999999999989
 30
0.0
 11
-19.0
 21
238.0
 31
0.0
  0
LINE
  5
F8
  8
0
  6
CONTINUOUS
 62
     7
 10
-22.619999
 20
238.24999999999989
 30
0.0
 11
-22.619999
 21
238.0
 31
0.0
  0
LINE
  5
F9
  8
0
  6
CONTINUOUS
 62
     7
 10
-19.380001
 20
238.24999999999989
 30
0.0
 11
-19.380001
 21
238.0
 31
0.0
  0
LINE
  5
FA
  8
0
  6
CONTINUOUS
 62
     7
 10
33.0
 20
238.24999999999989
 30
0.0
 11
33.0
 21
238.0
 31
0.0
  0
LINE
  5
FB
  8
0
  6
CONTINUOUS
 62
     7
 10
32.619999
 20
238.24999999999989
 30
0.0
 11
32.619999
 21
238.0
 31
0.0
  0
LINE
  5
FC
  8
0
  6
CONTINUOUS
 62
     7
 10
33.0
 20
238.24999999999989
 30
0.0
 11
29.0
 21
238.24999999999989
 31
0.0
  0
LINE
  5
FD
  8
0
  6
CONTINUOUS
 62
     7
 10
29.380001
 20
238.24999999999989
 30
0.0
 11
29.380001
 21
238.0
 31
0.0
  0
LINE
  5
FE
  8
0
  6
CONTINUOUS
 62
     7
 10
29.0
 20
238.24999999999989
 30
0.0
 11
29.0
 21
238.0
 31
0.0
  0
LINE
  5
FF
  8
0
  6
CENTER
 62
     7
 10
-72.5
 20
91.5
 30
0.0
 11
-72.5
 21
78.5
 31
0.0
  0
LINE
  5
100
  8
0
  6
CENTER
 62
     7
 10
-79.0
 20
85.0
 30
0.0
 11
-66.0
 21
85.0
 31
0.0
  0
LINE
  5
101
  8
0
  6
CENTER
 62
     7
 10
52.5
 20
91.5
 30
0.0
 11
52.5
 21
78.5
 31
0.0
  0
LINE
  5
102
  8
0
  6
CENTER
 62
     7
 10
46.0
 20
85.0
 30
0.0
 11
59.0
 21
85.0
 31
0.0
  0
LINE
  5
103
  8
0
  6
CENTER
 62
     7
 10
52.5
 20
21.499999999999989
 30
0.0
 11
52.5
 21
8.5
 31
0.0
  0
LINE
  5
104
  8
0
  6
CENTER
 62
     7
 10
46.0
 20
15.0
 30
0.0
 11
59.0
 21
15.0
 31
0.0
  0
LINE
  5
105
  8
0
  6
CENTER
 62
     7
 10
52.5
 20
-48.5
 30
0.0
 11
52.5
 21
-61.5
 31
0.0
  0
LINE
  5
106
  8
0
  6
CENTER
 62
     7
 10
46.0
 20
-55.0
 30
0.0
 11
59.0
 21
-55.0
 31
0.0
  0
LINE
  5
107
  8
0
  6
CENTER
 62
     7
 10
-72.5
 20
-48.5
 30
0.0
 11
-72.5
 21
-61.5
 31
0.0
  0
LINE
  5
108
  8
0
  6
CENTER
 62
     7
 10
-79.0
 20
-55.0
 30
0.0
 11
-66.0
 21
-55.0
 31
0.0
  0
LINE
  5
109
  8
0
  6
CENTER
 62
     7
 10
-280.0
 20
-65.5
 30
0.0
 11
-266.10000999999988
 21
-65.5
 31
0.0
  0
LINE
  5
10A
  8
0
  6
CONTINUOUS
 62
     7
 10
-271.10001
 20
-63.75
 30
0.0
 11
-271.10001
 21
-67.25
 31
0.0
  0
LINE
  5
10B
  8
0
  6
CONTINUOUS
 62
     7
 10
-275.0
 20
-70.75
 30
0.0
 11
-274.60000999999988
 21
-70.75
 31
0.0
  0
LINE
  5
10C
  8
0
  6
CONTINUOUS
 62
     7
 10
-275.0
 20
-60.25
 30
0.0
 11
-274.60000999999988
 21
-60.25
 31
0.0
  0
LINE
  5
10D
  8
0
  6
CENTER
 62
     7
 10
-280.0
 20
95.5
 30
0.0
 11
-266.10000999999988
 21
95.5
 31
0.0
  0
LINE
  5
10E
  8
0
  6
CONTINUOUS
 62
     7
 10
-271.10001
 20
97.250000000000014
 30
0.0
 11
-271.10001
 21
93.75
 31
0.0
  0
LINE
  5
10F
  8
0
  6
CONTINUOUS
 62
     7
 10
-275.0
 20
90.25
 30
0.0
 11
-274.60000999999988
 21
90.25
 31
0.0
  0
LINE
  5
110
  8
0
  6
CONTINUOUS
 62
     7
 10
-275.0
 20
100.75
 30
0.0
 11
-274.60000999999988
 21
100.75
 31
0.0
  0
LINE
  5
111
  8
0
  6
CENTER
 62
     7
 10
-362.70001000000002
 20
85.0
 30
0.0
 11
-340.80002000000002
 21
85.0
 31
0.0
  0
LINE
  5
112
  8
0
  6
CONTINUOUS
 62
     7
 10
-343.80002000000002
 20
86.75
 30
0.0
 11
-343.80002000000002
 21
83.250000000000014
 31
0.0
  0
LINE
  5
113
  8
0
  6
CONTINUOUS
 62
     7
 10
-347.70001000000002
 20
79.75
 30
0.0
 11
-347.30002000000002
 21
79.75
 31
0.0
  0
LINE
  5
114
  8
0
  6
CONTINUOUS
 62
     7
 10
-347.70001000000002
 20
90.25
 30
0.0
 11
-347.30002000000002
 21
90.25
 31
0.0
  0
LINE
  5
115
  8
0
  6
CONTINUOUS
 62
     7
 10
-359.70001000000002
 20
82.0
 30
0.0
 11
-350.0
 21
82.0
 31
0.0
  0
LINE
  5
116
  8
0
  6
CONTINUOUS
 62
     7
 10
-359.70001000000002
 20
88.0
 30
0.0
 11
-350.0
 21
88.0
 31
0.0
  0
LINE
  5
117
  8
0
  6
CONTINUOUS
 62
     7
 10
-359.70001000000002
 20
87.5
 30
0.0
 11
-350.0
 21
87.5
 31
0.0
  0
LINE
  5
118
  8
0
  6
CONTINUOUS
 62
     7
 10
-359.70001000000002
 20
82.5
 30
0.0
 11
-350.0
 21
82.5
 31
0.0
  0
LINE
  5
119
  8
0
  6
CONTINUOUS
 62
     7
 10
-359.70001000000002
 20
12.5
 30
0.0
 11
-350.0
 21
12.5
 31
0.0
  0
LINE
  5
11A
  8
0
  6
CENTER
 62
     7
 10
-362.70001000000002
 20
15.0
 30
0.0
 11
-340.80002000000002
 21
15.0
 31
0.0
  0
LINE
  5
11B
  8
0
  6
CONTINUOUS
 62
     7
 10
-343.80002000000002
 20
16.75
 30
0.0
 11
-343.80002000000002
 21
13.25
 31
0.0
  0
LINE
  5
11C
  8
0
  6
CONTINUOUS
 62
     7
 10
-347.70001000000002
 20
9.75
 30
0.0
 11
-347.30002000000002
 21
9.75
 31
0.0
  0
LINE
  5
11D
  8
0
  6
CONTINUOUS
 62
     7
 10
-347.70001000000002
 20
20.249999999999989
 30
0.0
 11
-347.30002000000002
 21
20.249999999999989
 31
0.0
  0
LINE
  5
11E
  8
0
  6
CONTINUOUS
 62
     7
 10
-359.70001000000002
 20
12.0
 30
0.0
 11
-350.0
 21
12.0
 31
0.0
  0
LINE
  5
11F
  8
0
  6
CONTINUOUS
 62
     7
 10
-359.70001000000002
 20
18.0
 30
0.0
 11
-350.0
 21
18.0
 31
0.0
  0
LINE
  5
120
  8
0
  6
CONTINUOUS
 62
     7
 10
-359.70001000000002
 20
17.5
 30
0.0
 11
-350.0
 21
17.5
 31
0.0
  0
LINE
  5
121
  8
0
  6
CONTINUOUS
 62
     7
 10
-359.70001000000002
 20
-57.5
 30
0.0
 11
-350.0
 21
-57.5
 31
0.0
  0
LINE
  5
122
  8
0
  6
CENTER
 62
     7
 10
-362.70001000000002
 20
-55.0
 30
0.0
 11
-340.80002000000002
 21
-55.0
 31
0.0
  0
LINE
  5
123
  8
0
  6
CONTINUOUS
 62
     7
 10
-343.80002000000002
 20
-53.25
 30
0.0
 11
-343.80002000000002
 21
-56.75
 31
0.0
  0
LINE
  5
124
  8
0
  6
CONTINUOUS
 62
     7
 10
-347.70001000000002
 20
-60.25
 30
0.0
 11
-347.30002000000002
 21
-60.25
 31
0.0
  0
LINE
  5
125
  8
0
  6
CONTINUOUS
 62
     7
 10
-347.70001000000002
 20
-49.75
 30
0.0
 11
-347.30002000000002
 21
-49.75
 31
0.0
  0
LINE
  5
126
  8
0
  6
CONTINUOUS
 62
     7
 10
-359.70001000000002
 20
-58.0
 30
0.0
 11
-350.0
 21
-58.0
 31
0.0
  0
LINE
  5
127
  8
0
  6
CONTINUOUS
 62
     7
 10
-359.70001000000002
 20
-52.0
 30
0.0
 11
-350.0
 21
-52.0
 31
0.0
  0
LINE
  5
128
  8
0
  6
CONTINUOUS
 62
     7
 10
-359.70001000000002
 20
-52.5
 30
0.0
 11
-350.0
 21
-52.5
 31
0.0
  0
LINE
  5
129
  8
0
  6
CONTINUOUS
 62
     7
 10
-359.70001000000002
 20
88.0
 30
0.0
 11
-359.70001000000002
 21
82.0
 31
0.0
  0
LINE
  5
12A
  8
0
  6
CONTINUOUS
 62
     7
 10
-359.70001000000002
 20
18.0
 30
0.0
 11
-359.70001000000002
 21
12.0
 31
0.0
  0
LINE
  5
12B
  8
0
  6
CONTINUOUS
 62
     7
 10
-359.70001000000002
 20
-52.0
 30
0.0
 11
-359.70001000000002
 21
-58.0
 31
0.0
  0
LINE
  5
12C
  8
0
  6
CONTINUOUS
 62
     7
 10
-275.0
 20
35.0
 30
0.0
 11
-275.0
 21
-5.0
 31
0.0
  0
LINE
  5
12D
  8
0
  6
CENTER
 62
     7
 10
-208.26259999999991
 20
15.0
 30
0.0
 11
-277.0
 21
15.0
 31
0.0
  0
LINE
  5
12E
  8
0
  6
CONTINUOUS
 62
     7
 10
-80.0
 20
3.5
 30
0.0
 11
-80.0
 21
-80.0
 31
0.0
  0
LINE
  5
12F
  8
0
  6
CONTINUOUS
 62
     7
 10
-65.0
 20
3.5
 30
0.0
 11
-65.0
 21
-80.0
 31
0.0
  0
LINE
  5
130
  8
0
  6
CENTER
 62
     7
 10
-34.0
 20
38.0
 30
0.0
 11
-34.0
 21
-8.0
 31
0.0
  0
LINE
  5
131
  8
0
  6
CONTINUOUS
 62
     7
 10
-216.0
 20
24.5
 30
0.0
 11
-216.0
 21
5.5
 31
0.0
  0
LINE
  5
132
  8
0
  6
CONTINUOUS
 62
     7
 10
-275.0
 20
-5.0
 30
0.0
 11
-246.0
 21
-5.0
 31
0.0
  0
LINE
  5
133
  8
0
  6
CONTINUOUS
 62
     7
 10
-275.0
 20
35.0
 30
0.0
 11
-246.0
 21
35.0
 31
0.0
  0
LINE
  5
134
  8
0
  6
CONTINUOUS
 62
     7
 10
-246.0
 20
35.0
 30
0.0
 11
-246.0
 21
-5.0
 31
0.0
  0
LINE
  5
135
  8
0
  6
CONTINUOUS
 62
     7
 10
-34.0
 20
3.5
 30
0.0
 11
-182.0
 21
3.5
 31
0.0
  0
LINE
  5
136
  8
0
  6
CONTINUOUS
 62
     7
 10
-34.0
 20
26.5
 30
0.0
 11
-182.0
 21
26.5
 31
0.0
  0
LINE
  5
137
  8
0
  6
CONTINUOUS
 62
     7
 10
-218.0
 20
3.5
 30
0.0
 11
-244.0
 21
3.5
 31
0.0
  0
LINE
  5
138
  8
0
  6
CONTINUOUS
 62
     7
 10
-218.0
 20
26.5
 30
0.0
 11
-244.0
 21
26.5
 31
0.0
  0
LINE
  5
139
  8
0
  6
CONTINUOUS
 62
     7
 10
-246.0
 20
-5.0000004999999987
 30
0.0
 11
-217.42456000000001
 21
3.5845696999999981
 31
0.0
  0
LINE
  5
13A
  8
0
  6
CONTINUOUS
 62
     7
 10
-245.99997999999991
 20
34.99999600000001
 30
0.0
 11
-217.42456000000001
 21
26.415427999999999
 31
0.0
  0
LINE
  5
13B
  8
0
  6
CENTER
 62
     7
 10
-70.5
 20
201.0
 30
0.0
 11
-70.5
 21
162.0
 31
0.0
  0
LINE
  5
13C
  8
0
  6
CONTINUOUS
 62
     7
 10
-125.09999999999989
 20
194.39582999999999
 30
0.0
 11
-125.09999999999989
 21
187.6041699999999
 31
0.0
  0
LINE
  5
13D
  8
0
  6
CONTINUOUS
 62
     7
 10
-119.90000000000001
 20
194.39582999999999
 30
0.0
 11
-119.90000000000001
 21
187.6041699999999
 31
0.0
  0
LINE
  5
13E
  8
0
  6
CONTINUOUS
 62
     7
 10
-73.099997999999985
 20
194.39582999999999
 30
0.0
 11
-73.099997999999985
 21
187.6041699999999
 31
0.0
  0
LINE
  5
13F
  8
0
  6
CONTINUOUS
 62
     7
 10
-67.900002000000001
 20
194.39582999999999
 30
0.0
 11
-67.900002000000001
 21
187.6041699999999
 31
0.0
  0
LINE
  5
140
  8
0
  6
CONTINUOUS
 62
     7
 10
-125.09999999999989
 20
175.39582999999999
 30
0.0
 11
-125.09999999999989
 21
168.6041699999999
 31
0.0
  0
LINE
  5
141
  8
0
  6
CONTINUOUS
 62
     7
 10
-119.90000000000001
 20
175.39582999999999
 30
0.0
 11
-119.90000000000001
 21
168.6041699999999
 31
0.0
  0
LINE
  5
142
  8
0
  6
CONTINUOUS
 62
     7
 10
-73.099997999999985
 20
175.39582999999999
 30
0.0
 11
-73.099997999999985
 21
168.6041699999999
 31
0.0
  0
LINE
  5
143
  8
0
  6
CONTINUOUS
 62
     7
 10
-67.900002000000001
 20
175.39582999999999
 30
0.0
 11
-67.900002000000001
 21
168.6041699999999
 31
0.0
  0
LINE
  5
144
  8
0
  6
CONTINUOUS
 62
     7
 10
-184.0
 20
24.5
 30
0.0
 11
-184.0
 21
5.5
 31
0.0
  0
ARC
  5
145
  8
0
  6
CONTINUOUS
 62
     7
 10
-319.0
 20
274.0
 30
0.0
 40
2.0
 50
89.99998199999996
 51
179.99995999999999
  0
ARC
  5
146
  8
0
  6
CONTINUOUS
 62
     7
 10
-291.0
 20
274.0
 30
0.0
 40
2.0
 50
0.0
 51
89.99998199999996
  0
CIRCLE
  5
147
  8
0
  6
DASHED
 62
     7
 10
-311.0
 20
241.0
 30
0.0
 40
6.0
  0
ARC
  5
148
  8
0
  6
CONTINUOUS
 62
     7
 10
-346.0
 20
153.5
 30
0.0
 40
4.0
 50
89.99998199999996
 51
179.99995999999999
  0
ARC
  5
149
  8
0
  6
CONTINUOUS
 62
     7
 10
-9.0
 20
274.0
 30
0.0
 40
2.0
 50
89.99998199999996
 51
179.99995999999999
  0
ARC
  5
14A
  8
0
  6
CONTINUOUS
 62
     7
 10
19.0
 20
274.0
 30
0.0
 40
2.0
 50
0.0
 51
89.99998199999996
  0
ARC
  5
14B
  8
0
  6
CONTINUOUS
 62
     7
 10
-33.0
 20
227.0
 30
0.0
 40
1.0
 50
179.99997999999991
 51
270.00002999999992
  0
ARC
  5
14C
  8
0
  6
CONTINUOUS
 62
     7
 10
43.0
 20
227.0
 30
0.0
 40
1.0
 50
270.00002000000001
 51
0.0
  0
ARC
  5
14D
  8
0
  6
CONTINUOUS
 62
     7
 10
-22.5
 20
225.69999999999999
 30
0.0
 40
3.0
 50
179.99997999999991
 51
270.00002999999992
  0
ARC
  5
14E
  8
0
  6
CONTINUOUS
 62
     7
 10
-19.5
 20
225.69999999999999
 30
0.0
 40
3.0
 50
270.00002000000001
 51
0.0
  0
ARC
  5
14F
  8
0
  6
CONTINUOUS
 62
     7
 10
29.5
 20
225.69999999999999
 30
0.0
 40
3.0
 50
179.99995999999999
 51
269.99995000000001
  0
ARC
  5
150
  8
0
  6
CONTINUOUS
 62
     7
 10
32.5
 20
225.69999999999999
 30
0.0
 40
3.0
 50
269.99995999999987
 51
0.0
  0
ARC
  5
151
  8
0
  6
CONTINUOUS
 62
     7
 10
-325.0
 20
227.0
 30
0.0
 40
1.0
 50
179.99997999999991
 51
270.00002999999992
  0
ARC
  5
152
  8
0
  6
CONTINUOUS
 62
     7
 10
-285.0
 20
227.0
 30
0.0
 40
1.0
 50
270.00002000000001
 51
0.0
  0
ARC
  5
153
  8
0
  6
CONTINUOUS
 62
     7
 10
-316.0
 20
225.70000999999999
 30
0.0
 40
3.0
 50
179.99997999999991
 51
270.00002999999992
  0
ARC
  5
154
  8
0
  6
CONTINUOUS
 62
     7
 10
-313.0
 20
225.70000999999999
 30
0.0
 40
3.0
 50
270.00002000000001
 51
0.0
  0
ARC
  5
155
  8
0
  6
CONTINUOUS
 62
     7
 10
-297.0
 20
225.70000999999999
 30
0.0
 40
3.0
 50
179.99997999999991
 51
270.00002999999992
  0
ARC
  5
156
  8
0
  6
CONTINUOUS
 62
     7
 10
-294.0
 20
225.70000999999999
 30
0.0
 40
3.0
 50
270.00002000000001
 51
0.0
  0
ARC
  5
157
  8
0
  6
CONTINUOUS
 62
     7
 10
-133.4999999999998
 20
200.49999999999989
 30
0.0
 40
2.0
 50
89.99998199999996
 51
179.99995999999999
  0
ARC
  5
158
  8
0
  6
CONTINUOUS
 62
     7
 10
-133.4999999999998
 20
162.5
 30
0.0
 40
2.0
 50
179.99997999999991
 51
270.00002999999992
  0
ARC
  5
159
  8
0
  6
CONTINUOUS
 62
     7
 10
-59.5
 20
162.5
 30
0.0
 40
2.0
 50
270.00002000000001
 51
0.0
  0
ARC
  5
15A
  8
0
  6
CONTINUOUS
 62
     7
 10
-59.5
 20
200.49999999999989
 30
0.0
 40
2.0
 50
0.0
 51
89.99998199999996
  0
ARC
  5
15B
  8
0
  6
CONTINUOUS
 62
     7
 10
-107.4999999999999
 20
192.5
 30
0.0
 40
2.0
 50
89.99998199999996
 51
179.99995999999999
  0
ARC
  5
15C
  8
0
  6
CONTINUOUS
 62
     7
 10
-107.4999999999999
 20
170.5
 30
0.0
 40
2.0
 50
179.99997999999991
 51
270.00002999999992
  0
ARC
  5
15D
  8
0
  6
CONTINUOUS
 62
     7
 10
-85.5
 20
170.5
 30
0.0
 40
2.0
 50
270.00002000000001
 51
0.0
  0
ARC
  5
15E
  8
0
  6
CONTINUOUS
 62
     7
 10
-85.5
 20
192.5
 30
0.0
 40
2.0
 50
0.0
 51
89.99998199999996
  0
ARC
  5
15F
  8
0
  6
PHANTOM
 62
     7
 10
-340.39999
 20
234.60000999999991
 30
0.0
 40
1.6000061000000001
 50
89.99998199999996
 51
270.0
  0
ARC
  5
160
  8
0
  6
PHANTOM
 62
     7
 10
-327.0
 20
236.20000999999999
 30
0.0
 40
1.6000000000000001
 50
270.00002000000001
 51
0.0
  0
ARC
  5
161
  8
0
  6
PHANTOM
 62
     7
 10
-327.0
 20
253.39998999999989
 30
0.0
 40
1.6000000000000001
 50
0.0
 51
89.99998199999996
  0
ARC
  5
162
  8
0
  6
PHANTOM
 62
     7
 10
-341.60001
 20
247.79998999999989
 30
0.0
 40
1.6000000000000001
 50
299.99972000000002
 51
89.99998199999996
  0
ARC
  5
163
  8
0
  6
PHANTOM
 62
     7
 10
-341.60001
 20
247.79998999999989
 30
0.0
 40
0.10000002
 50
299.99972000000002
 51
89.99998199999996
  0
ARC
  5
164
  8
0
  6
PHANTOM
 62
     7
 10
-348.49999999999977
 20
241.96875
 30
0.0
 40
1.5
 50
119.99995
 51
179.99995999999999
  0
ARC
  5
165
  8
0
  6
PHANTOM
 62
     7
 10
-353.89999
 20
245.5999799999999
 30
0.0
 40
2.299999999999998
 50
0.0
 51
89.99998199999996
  0
CIRCLE
  5
166
  8
0
  6
CONTINUOUS
 62
     7
 10
-52.0
 20
95.5
 30
0.0
 40
5.25
  0
CIRCLE
  5
167
  8
0
  6
CONTINUOUS
 62
     7
 10
-52.0
 20
-65.5
 30
0.0
 40
5.25
  0
CIRCLE
  5
168
  8
0
  6
CONTINUOUS
 62
     7
 10
32.0
 20
-65.5
 30
0.0
 40
5.25
  0
CIRCLE
  5
169
  8
0
  6
CONTINUOUS
 62
     7
 10
32.0
 20
95.5
 30
0.0
 40
5.25
  0
CIRCLE
  5
16A
  8
0
  6
DASHED
 62
     7
 10
-122.5
 20
181.49999999999989
 30
0.0
 40
3.5
  0
ARC
  5
16B
  8
0
  6
CONTINUOUS
 62
     7
 10
-122.5
 20
188.49999999999989
 30
0.0
 40
2.75
 50
199.01127
 51
340.98874000000001
  0
ARC
  5
16C
  8
0
  6
CONTINUOUS
 62
     7
 10
-122.5
 20
193.5
 30
0.0
 40
2.75
 50
19.011265000000002
 51
160.98873
  0
ARC
  5
16D
  8
0
  6
CONTINUOUS
 62
     7
 10
-122.5
 20
174.5
 30
0.0
 40
2.75
 50
19.011265000000002
 51
160.98873
  0
ARC
  5
16E
  8
0
  6
CONTINUOUS
 62
     7
 10
-122.5
 20
169.5
 30
0.0
 40
2.75
 50
199.01127
 51
340.98874000000001
  0
ARC
  5
16F
  8
0
  6
CONTINUOUS
 62
     7
 10
-70.5
 20
169.5
 30
0.0
 40
2.75
 50
199.01127
 51
340.98874000000001
  0
ARC
  5
170
  8
0
  6
CONTINUOUS
 62
     7
 10
-70.5
 20
174.5
 30
0.0
 40
2.75
 50
19.011265000000002
 51
160.98873
  0
ARC
  5
171
  8
0
  6
CONTINUOUS
 62
     7
 10
-70.5
 20
188.49999999999989
 30
0.0
 40
2.75
 50
199.01127
 51
340.98874000000001
  0
ARC
  5
172
  8
0
  6
CONTINUOUS
 62
     7
 10
-70.5
 20
193.5
 30
0.0
 40
2.75
 50
19.011265000000002
 51
160.98873
  0
ARC
  5
173
  8
0
  6
DASHED
 62
     7
 10
-124.3999899999999
 20
183.39999
 30
0.0
 40
1.5
 50
270.00002000000001
 51
0.0
  0
ARC
  5
174
  8
0
  6
DASHED
 62
     7
 10
-120.60001
 20
183.39999
 30
0.0
 40
1.5
 50
179.99997999999991
 51
270.00002999999992
  0
ARC
  5
175
  8
0
  6
DASHED
 62
     7
 10
-120.60001
 20
179.60001
 30
0.0
 40
1.5
 50
89.99998199999996
 51
179.99995999999999
  0
ARC
  5
176
  8
0
  6
DASHED
 62
     7
 10
-124.3999899999999
 20
179.60001
 30
0.0
 40
1.5
 50
0.0
 51
89.99998199999996
  0
ARC
  5
177
  8
0
  6
DASHED
 62
     7
 10
-72.399993999999978
 20
179.60001
 30
0.0
 40
1.5
 50
0.0
 51
89.99998199999996
  0
ARC
  5
178
  8
0
  6
DASHED
 62
     7
 10
-68.600006000000008
 20
179.60001
 30
0.0
 40
1.5
 50
89.99998199999996
 51
179.99995999999999
  0
CIRCLE
  5
179
  8
0
  6
DASHED
 62
     7
 10
-70.5
 20
181.49999999999989
 30
0.0
 40
3.5
  0
ARC
  5
17A
  8
0
  6
DASHED
 62
     7
 10
-68.600006000000008
 20
183.39999
 30
0.0
 40
1.5
 50
179.99995999999999
 51
269.99995000000001
  0
ARC
  5
17B
  8
0
  6
DASHED
 62
     7
 10
-72.399993999999978
 20
183.39999
 30
0.0
 40
1.5
 50
269.99995999999987
 51
0.0
  0
ARC
  5
17C
  8
0
  6
CONTINUOUS
 62
     7
 10
-274.60000999999988
 20
-67.25
 30
0.0
 40
3.5
 50
270.00002000000001
 51
0.0
  0
ARC
  5
17D
  8
0
  6
CONTINUOUS
 62
     7
 10
-274.60000999999988
 20
-63.75
 30
0.0
 40
3.5
 50
0.0
 51
89.99998199999996
  0
ARC
  5
17E
  8
0
  6
CONTINUOUS
 62
     7
 10
-274.60000999999988
 20
93.75
 30
0.0
 40
3.5
 50
270.00002000000001
 51
0.0
  0
ARC
  5
17F
  8
0
  6
CONTINUOUS
 62
     7
 10
-274.60000999999988
 20
97.250000000000014
 30
0.0
 40
3.5
 50
0.0
 51
89.99998199999996
  0
ARC
  5
180
  8
0
  6
CONTINUOUS
 62
     7
 10
-347.30002000000002
 20
83.250000000000014
 30
0.0
 40
3.5
 50
270.00002000000001
 51
0.0
  0
ARC
  5
181
  8
0
  6
CONTINUOUS
 62
     7
 10
-347.30002000000002
 20
86.75
 30
0.0
 40
3.5
 50
0.0
 51
89.99998199999996
  0
ARC
  5
182
  8
0
  6
CONTINUOUS
 62
     7
 10
-347.30002000000002
 20
13.25
 30
0.0
 40
3.5
 50
270.00002000000001
 51
0.0
  0
ARC
  5
183
  8
0
  6
CONTINUOUS
 62
     7
 10
-347.30002000000002
 20
16.75
 30
0.0
 40
3.5
 50
0.0
 51
89.99998199999996
  0
ARC
  5
184
  8
0
  6
CONTINUOUS
 62
     7
 10
-347.30002000000002
 20
-56.75
 30
0.0
 40
3.5
 50
270.00002000000001
 51
0.0
  0
ARC
  5
185
  8
0
  6
CONTINUOUS
 62
     7
 10
-347.30002000000002
 20
-53.25
 30
0.0
 40
3.5
 50
0.0
 51
89.99998199999996
  0
ARC
  5
186
  8
0
  6
CONTINUOUS
 62
     7
 10
-34.0
 20
15.0
 30
0.0
 40
20.0
 50
215.0996099999999
 51
144.9003899999999
  0
ARC
  5
187
  8
0
  6
CONTINUOUS
 62
     7
 10
-3.0
 20
142.5
 30
0.0
 40
5.0
 50
89.99998199999996
 51
270.0
  0
ARC
  5
188
  8
0
  6
CONTINUOUS
 62
     7
 10
13.0
 20
142.5
 30
0.0
 40
5.0
 50
270.00002000000001
 51
89.99998199999996
  0
ARC
  5
189
  8
0
  6
CONTINUOUS
 62
     7
 10
-34.0
 20
15.0
 30
0.0
 40
11.5
 50
270.00002000000001
 51
89.99998199999996
  0
ARC
  5
18A
  8
0
  6
CONTINUOUS
 62
     7
 10
-218.0
 20
24.5
 30
0.0
 40
2.0
 50
0.0
 51
89.99998199999996
  0
ARC
  5
18B
  8
0
  6
CONTINUOUS
 62
     7
 10
-218.0
 20
5.5
 30
0.0
 40
2.0
 50
270.00002000000001
 51
0.0
  0
ARC
  5
18C
  8
0
  6
CONTINUOUS
 62
     7
 10
-244.0
 20
5.5
 30
0.0
 40
2.0
 50
179.99997999999991
 51
270.00002999999992
  0
ARC
  5
18D
  8
0
  6
CONTINUOUS
 62
     7
 10
-244.0
 20
24.5
 30
0.0
 40
2.0
 50
89.99998199999996
 51
179.99995999999999
  0
CIRCLE
  5
18E
  8
0
  6
CONTINUOUS
 62
     7
 10
-70.5
 20
191.0
 30
0.0
 40
2.599999899999998
  0
CIRCLE
  5
18F
  8
0
  6
CONTINUOUS
 62
     7
 10
-70.5
 20
172.0
 30
0.0
 40
2.599999899999998
  0
CIRCLE
  5
190
  8
0
  6
CONTINUOUS
 62
     7
 10
-122.5
 20
172.0
 30
0.0
 40
2.599999899999998
  0
CIRCLE
  5
191
  8
0
  6
CONTINUOUS
 62
     7
 10
-122.5
 20
191.0
 30
0.0
 40
2.599999899999998
  0
ARC
  5
192
  8
0
  6
CONTINUOUS
 62
     7
 10
-3.0
 20
142.5
 30
0.0
 40
2.75
 50
90.000003000000007
 51
270.0
  0
ARC
  5
193
  8
0
  6
CONTINUOUS
 62
     7
 10
13.0
 20
142.5
 30
0.0
 40
2.75
 50
270.0
 51
90.000003000000007
  0
CIRCLE
  5
194
  8
0
  6
CONTINUOUS
 62
     7
 10
-72.5
 20
-55.0
 30
0.0
 40
3.25
  0
CIRCLE
  5
195
  8
0
  6
CONTINUOUS
 62
     7
 10
-72.5
 20
85.0
 30
0.0
 40
3.25
  0
CIRCLE
  5
196
  8
0
  6
CONTINUOUS
 62
     7
 10
52.5
 20
85.0
 30
0.0
 40
3.25
  0
CIRCLE
  5
197
  8
0
  6
CONTINUOUS
 62
     7
 10
52.5
 20
15.0
 30
0.0
 40
3.25
  0
CIRCLE
  5
198
  8
0
  6
CONTINUOUS
 62
     7
 10
52.5
 20
-55.0
 30
0.0
 40
3.25
  0
ARC
  5
199
  8
0
  6
CONTINUOUS
 62
     7
 10
-182.0
 20
24.5
 30
0.0
 40
2.0
 50
90.000003000000007
 51
180.00001
  0
ARC
  5
19A
  8
0
  6
CONTINUOUS
 62
     7
 10
-182.0
 20
5.5
 30
0.0
 40
2.0
 50
179.99998999999991
 51
270.0
  0
ARC
  5
19B
  8
0
  6
CONTINUOUS
 62
     7
 10
-349.0
 20
142.5
 30
0.0
 40
5.0
 50
306.86989999999992
 51
53.130102000000001
  0
POLYLINE
  5
19C
  8
0
  6
CONTINUOUS
 62
     7
 66
     1
 10
0.0
 20
0.0
 30
0.0
  0
VERTEX
  5
19D
  8
0
  6
CONTINUOUS
 62
     7
 10
-2.4161986999999989
 20
212.5
 30
0.0
 42
0.0045433417
  0
VERTEX
  5
19E
  8
0
  6
CONTINUOUS
 62
     7
 10
-2.6304957999999981
 20
209.77782999999991
 30
0.0
 42
0.0031077418
  0
VERTEX
  5
19F
  8
0
  6
CONTINUOUS
 62
     7
 10
-2.7459679000000001
 20
207.95452999999989
 30
0.0
 42
0.0037783832
  0
VERTEX
  5
1A0
  8
0
  6
CONTINUOUS
 62
     7
 10
-2.8580198999999999
 20
205.68830999999989
 30
0.0
 42
0.0035484738
  0
VERTEX
  5
1A1
  8
0
  6
CONTINUOUS
 62
     7
 10
-2.937255899999998
 20
203.4090699999999
 30
0.0
 42
0.0027576421
  0
VERTEX
  5
1A2
  8
0
  6
CONTINUOUS
 62
     7
 10
-2.9775692
 20
201.59415999999999
 30
0.0
 42
0.0042457186
  0
VERTEX
  5
1A3
  8
0
  6
CONTINUOUS
 62
     7
 10
-3.0
 20
198.86362
 30
0.0
  0
SEQEND
  5
1A4
  8
0
 62
     7
  0
POLYLINE
  5
1A5
  8
0
  6
CONTINUOUS
 62
     7
 66
     1
 10
0.0
 20
0.0
 30
0.0
  0
VERTEX
  5
1A6
  8
0
  6
CONTINUOUS
 62
     7
 10
12.416199000000001
 20
212.5
 30
0.0
 42
-0.0045434002
  0
VERTEX
  5
1A7
  8
0
  6
CONTINUOUS
 62
     7
 10
12.630496000000001
 20
209.77782999999991
 30
0.0
 42
-0.0031078229
  0
VERTEX
  5
1A8
  8
0
  6
CONTINUOUS
 62
     7
 10
12.745968
 20
207.95452999999989
 30
0.0
 42
-0.0037784332
  0
VERTEX
  5
1A9
  8
0
  6
CONTINUOUS
 62
     7
 10
12.858019000000001
 20
205.68830999999989
 30
0.0
 42
-0.0035483707
  0
VERTEX
  5
1AA
  8
0
  6
CONTINUOUS
 62
     7
 10
12.937253999999999
 20
203.4090699999999
 30
0.0
 42
-0.0027575215
  0
VERTEX
  5
1AB
  8
0
  6
CONTINUOUS
 62
     7
 10
12.977568
 20
201.59415999999999
 30
0.0
 42
-0.0042455976
  0
VERTEX
  5
1AC
  8
0
  6
CONTINUOUS
 62
     7
 10
13.0
 20
198.86362
 30
0.0
  0
SEQEND
  5
1AD
  8
0
 62
     7
  0
TEXT
  5
1AE
  8
0
  6
CONTINUOUS
 62
     7
 10
-160.27492000000001
 20
169.09994
 30
0.0
 40
3.2000000000000002
  1
調整寸法
 50
90.000003000000007
 41
0.85124966
  0
TEXT
  5
1AF
  8
0
  6
CONTINUOUS
 62
     7
 10
-154.43735000000001
 20
188.93047999999999
 30
0.0
 40
3.2000000000000002
  1
2.5
 50
90.000003000000007
 41
1.3571429999999991
  0
TEXT
  5
1B0
  8
0
  6
CONTINUOUS
 62
     7
 10
-154.47352000000001
 20
153.67712
 30
0.0
 40
3.2000000000000002
  1
2.5
 50
90.000003000000007
 41
1.3571429999999991
  0
LINE
  5
1C8
  8
0
  6
CONTINUOUS
 62
     7
 10
-156.03735
 20
180.49999999999989
 30
0.0
 11
-156.03735
 21
175.5
 31
0.0
  0
LINE
  5
1C9
  8
0
  6
CONTINUOUS
 62
     7
 10
-156.03735
 20
180.49999999999989
 30
0.0
 11
-155.03735
 21
177.5
 31
0.0
  0
LINE
  5
1CA
  8
0
  6
CONTINUOUS
 62
     7
 10
-156.03735
 20
180.49999999999989
 30
0.0
 11
-157.03735
 21
177.5
 31
0.0
  0
LINE
  5
1CB
  8
0
  6
CONTINUOUS
 62
     7
 10
-156.03735
 20
170.5
 30
0.0
 11
-156.03735
 21
175.5
 31
0.0
  0
LINE
  5
1CC
  8
0
  6
CONTINUOUS
 62
     7
 10
-156.03735
 20
170.5
 30
0.0
 11
-157.03735
 21
173.5
 31
0.0
  0
LINE
  5
1CD
  8
0
  6
CONTINUOUS
 62
     7
 10
-156.03735
 20
170.5
 30
0.0
 11
-155.03735
 21
173.5
 31
0.0
  0
TEXT
  5
1CE
  8
0
  6
CONTINUOUS
 62
     7
 10
29.271925
 20
133.2865899999999
 30
0.0
 40
2.0
  1
15
 50
89.900002000000001
 41
1.2857145000000001
  0
LINE
  5
1CF
  8
0
  6
CONTINUOUS
 62
     7
 10
29.774916000000001
 20
127.5
 30
0.0
 11
29.774916000000001
 21
135.0
 31
0.0
  0
CIRCLE
  5
1D0
  8
0
  6
CONTINUOUS
 62
     7
 10
29.774916000000001
 20
127.5
 30
0.0
 40
0.3
  0
LINE
  5
1D1
  8
0
  6
CONTINUOUS
 62
     7
 10
29.774916000000001
 20
142.5
 30
0.0
 11
29.774916000000001
 21
135.0
 31
0.0
  0
CIRCLE
  5
1D2
  8
0
  6
CONTINUOUS
 62
     7
 10
29.774916000000001
 20
142.5
 30
0.0
 40
0.3
  0
LINE
  5
1D3
  8
0
  6
CONTINUOUS
 62
     7
 10
20.0
 20
127.5
 30
0.0
 11
32.060916999999989
 21
127.5
 31
0.0
  0
LINE
  5
1D4
  8
0
  6
CONTINUOUS
 62
     7
 10
19.0
 20
142.5
 30
0.0
 11
32.060916999999989
 21
142.5
 31
0.0
  0
TEXT
  5
1D5
  8
0
  6
CONTINUOUS
 62
     7
 10
29.271925
 20
148.28658999999999
 30
0.0
 40
2.0
  1
15
 50
89.900002000000001
 41
1.2857145000000001
  0
LINE
  5
1D6
  8
0
  6
CONTINUOUS
 62
     7
 10
29.774916000000001
 20
142.5
 30
0.0
 11
29.774916000000001
 21
150.0
 31
0.0
  0
CIRCLE
  5
1D7
  8
0
  6
CONTINUOUS
 62
     7
 10
29.774916000000001
 20
142.5
 30
0.0
 40
0.3
  0
LINE
  5
1D8
  8
0
  6
CONTINUOUS
 62
     7
 10
29.774916000000001
 20
157.5
 30
0.0
 11
29.774916000000001
 21
150.0
 31
0.0
  0
CIRCLE
  5
1D9
  8
0
  6
CONTINUOUS
 62
     7
 10
29.774916000000001
 20
157.5
 30
0.0
 40
0.3
  0
LINE
  5
1DA
  8
0
  6
CONTINUOUS
 62
     7
 10
20.0
 20
157.5
 30
0.0
 11
32.060916999999989
 21
157.5
 31
0.0
  0
TEXT
  5
1DB
  8
0
  6
CONTINUOUS
 62
     7
 10
39.280853
 20
140.78658999999999
 30
0.0
 40
2.0
  1
30
 50
89.900002000000001
 41
1.102041
  0
LINE
  5
1DC
  8
0
  6
CONTINUOUS
 62
     7
 10
39.783844000000002
 20
127.5
 30
0.0
 11
39.783844000000002
 21
142.5
 31
0.0
  0
CIRCLE
  5
1DD
  8
0
  6
CONTINUOUS
 62
     7
 10
39.783844000000002
 20
127.5
 30
0.0
 40
0.3
  0
LINE
  5
1DE
  8
0
  6
CONTINUOUS
 62
     7
 10
39.783844000000002
 20
157.5
 30
0.0
 11
39.783844000000002
 21
142.5
 31
0.0
  0
CIRCLE
  5
1DF
  8
0
  6
CONTINUOUS
 62
     7
 10
39.783844000000002
 20
157.5
 30
0.0
 40
0.3
  0
LINE
  5
1E0
  8
0
  6
CONTINUOUS
 62
     7
 10
20.0
 20
127.5
 30
0.0
 11
42.069842999999999
 21
127.5
 31
0.0
  0
LINE
  5
1E1
  8
0
  6
CONTINUOUS
 62
     7
 10
20.0
 20
157.5
 30
0.0
 11
42.069842999999999
 21
157.5
 31
0.0
  0
TEXT
  5
1E2
  8
0
  6
CONTINUOUS
 62
     7
 10
-7.2142860000000004
 20
168.04601999999991
 30
0.0
 40
2.0
  1
7
 41
1.071429
  0
LINE
  5
1E3
  8
0
  6
CONTINUOUS
 62
     7
 10
-10.0
 20
167.54602
 30
0.0
 11
-6.5
 21
167.54602
 31
0.0
  0
CIRCLE
  5
1E4
  8
0
  6
CONTINUOUS
 62
     7
 10
-10.0
 20
167.54602
 30
0.0
 40
0.3
  0
LINE
  5
1E5
  8
0
  6
CONTINUOUS
 62
     7
 10
-3.0
 20
167.54602
 30
0.0
 11
-6.5
 21
167.54602
 31
0.0
  0
CIRCLE
  5
1E6
  8
0
  6
CONTINUOUS
 62
     7
 10
-3.0
 20
167.54602
 30
0.0
 40
0.3
  0
LINE
  5
1E7
  8
0
  6
CONTINUOUS
 62
     7
 10
-10.0
 20
157.5
 30
0.0
 11
-10.0
 21
169.8320199999998
 31
0.0
  0
LINE
  5
1E8
  8
0
  6
CONTINUOUS
 62
     7
 10
-3.0
 20
167.5
 30
0.0
 11
-3.0
 21
169.8320199999998
 31
0.0
  0
TEXT
  5
1E9
  8
0
  6
CONTINUOUS
 62
     7
 10
3.285714
 20
168.04601999999991
 30
0.0
 40
2.0
  1
16
 41
1.2857145000000001
  0
LINE
  5
1EA
  8
0
  6
CONTINUOUS
 62
     7
 10
-3.0
 20
167.54602
 30
0.0
 11
5.0
 21
167.54602
 31
0.0
  0
CIRCLE
  5
1EB
  8
0
  6
CONTINUOUS
 62
     7
 10
-3.0
 20
167.54602
 30
0.0
 40
0.3
  0
LINE
  5
1EC
  8
0
  6
CONTINUOUS
 62
     7
 10
13.0
 20
167.54602
 30
0.0
 11
5.0
 21
167.54602
 31
0.0
  0
CIRCLE
  5
1ED
  8
0
  6
CONTINUOUS
 62
     7
 10
13.0
 20
167.54602
 30
0.0
 40
0.3
  0
LINE
  5
1EE
  8
0
  6
CONTINUOUS
 62
     7
 10
13.0
 20
167.5
 30
0.0
 11
13.0
 21
169.8320199999998
 31
0.0
  0
TEXT
  5
1EF
  8
0
  6
CONTINUOUS
 62
     7
 10
15.785714
 20
168.04601999999991
 30
0.0
 40
2.0
  1
7
 41
1.071429
  0
LINE
  5
1F0
  8
0
  6
CONTINUOUS
 62
     7
 10
13.0
 20
167.54602
 30
0.0
 11
16.5
 21
167.54602
 31
0.0
  0
CIRCLE
  5
1F1
  8
0
  6
CONTINUOUS
 62
     7
 10
13.0
 20
167.54602
 30
0.0
 40
0.3
  0
LINE
  5
1F2
  8
0
  6
CONTINUOUS
 62
     7
 10
20.0
 20
167.54602
 30
0.0
 11
16.5
 21
167.54602
 31
0.0
  0
CIRCLE
  5
1F3
  8
0
  6
CONTINUOUS
 62
     7
 10
20.0
 20
167.54602
 30
0.0
 40
0.3
  0
LINE
  5
1F4
  8
0
  6
CONTINUOUS
 62
     7
 10
20.0
 20
157.5
 30
0.0
 11
20.0
 21
169.8320199999998
 31
0.0
  0
TEXT
  5
1F5
  8
0
  6
CONTINUOUS
 62
     7
 10
3.285714
 20
178.08095
 30
0.0
 40
2.0
  1
30
 41
1.102041
  0
LINE
  5
1F6
  8
0
  6
CONTINUOUS
 62
     7
 10
-10.0
 20
177.58095
 30
0.0
 11
5.0
 21
177.58095
 31
0.0
  0
CIRCLE
  5
1F7
  8
0
  6
CONTINUOUS
 62
     7
 10
-10.0
 20
177.58095
 30
0.0
 40
0.3
  0
LINE
  5
1F8
  8
0
  6
CONTINUOUS
 62
     7
 10
20.0
 20
177.58095
 30
0.0
 11
5.0
 21
177.58095
 31
0.0
  0
CIRCLE
  5
1F9
  8
0
  6
CONTINUOUS
 62
     7
 10
20.0
 20
177.58095
 30
0.0
 40
0.3
  0
LINE
  5
1FA
  8
0
  6
CONTINUOUS
 62
     7
 10
-10.0
 20
157.5
 30
0.0
 11
-10.0
 21
179.86694
 31
0.0
  0
LINE
  5
1FB
  8
0
  6
CONTINUOUS
 62
     7
 10
20.0
 20
157.5
 30
0.0
 11
20.0
 21
179.86694
 31
0.0
  0
TEXT
  5
1FC
  8
0
  6
CONTINUOUS
 62
     7
 10
-293.68270000000001
 20
144.01711999999981
 30
0.0
 40
2.0
  1
%%C16
 41
1.163265399999998
  0
LINE
  5
1FD
  8
0
  6
CONTINUOUS
 62
     7
 10
-313.0
 20
143.51712000000001
 30
0.0
 11
-305.0
 21
143.51712000000001
 31
0.0
  0
LINE
  5
1FE
  8
0
  6
CONTINUOUS
 62
     7
 10
-305.0
 20
143.51712000000001
 30
0.0
 11
-288.25412
 21
143.51712000000001
 31
0.0
  0
CIRCLE
  5
1FF
  8
0
  6
CONTINUOUS
 62
     7
 10
-313.0
 20
143.51712000000001
 30
0.0
 40
0.3
  0
LINE
  5
200
  8
0
  6
CONTINUOUS
 62
     7
 10
-297.0
 20
143.51712000000001
 30
0.0
 11
-305.0
 21
143.51712000000001
 31
0.0
  0
CIRCLE
  5
201
  8
0
  6
CONTINUOUS
 62
     7
 10
-297.0
 20
143.51712000000001
 30
0.0
 40
0.3
  0
LINE
  5
202
  8
0
  6
CONTINUOUS
 62
     7
 10
-313.0
 20
143.5
 30
0.0
 11
-313.0
 21
144.71711999999991
 31
0.0
  0
LINE
  5
203
  8
0
  6
CONTINUOUS
 62
     7
 10
-297.0
 20
143.5
 30
0.0
 11
-297.0
 21
144.71711999999991
 31
0.0
  0
TEXT
  5
204
  8
0
  6
CONTINUOUS
 62
     7
 10
-274.53286000000003
 20
228.7865899999999
 30
0.0
 40
2.0
  1
7
 50
89.900002000000001
 41
1.071429
  0
LINE
  5
205
  8
0
  6
CONTINUOUS
 62
     7
 10
-274.03161999999998
 20
226.0
 30
0.0
 11
-274.03161999999998
 21
229.49999999999989
 31
0.0
  0
CIRCLE
  5
206
  8
0
  6
CONTINUOUS
 62
     7
 10
-274.03161999999998
 20
226.0
 30
0.0
 40
0.3
  0
LINE
  5
207
  8
0
  6
CONTINUOUS
 62
     7
 10
-274.03161999999998
 20
233.0
 30
0.0
 11
-274.03161999999998
 21
229.49999999999989
 31
0.0
  0
CIRCLE
  5
208
  8
0
  6
CONTINUOUS
 62
     7
 10
-274.03161999999998
 20
233.0
 30
0.0
 40
0.3
  0
LINE
  5
209
  8
0
  6
CONTINUOUS
 62
     7
 10
-285.0
 20
226.0
 30
0.0
 11
-271.74561
 21
226.0
 31
0.0
  0
LINE
  5
20A
  8
0
  6
CONTINUOUS
 62
     7
 10
-274.0
 20
233.0
 30
0.0
 11
-276.31763000000001
 21
233.0
 31
0.0
  0
TEXT
  5
20B
  8
0
  6
CONTINUOUS
 62
     7
 10
-274.53460999999987
 20
252.78658999999999
 30
0.0
 40
2.0
  1
43
 50
89.900002000000001
 41
1.0285716
  0
LINE
  5
20C
  8
0
  6
CONTINUOUS
 62
     7
 10
-274.03161999999998
 20
233.0
 30
0.0
 11
-274.03161999999998
 21
254.49999999999989
 31
0.0
  0
CIRCLE
  5
20D
  8
0
  6
CONTINUOUS
 62
     7
 10
-274.03161999999998
 20
233.0
 30
0.0
 40
0.3
  0
LINE
  5
20E
  8
0
  6
CONTINUOUS
 62
     7
 10
-274.03161999999998
 20
276.0
 30
0.0
 11
-274.03161999999998
 21
254.49999999999989
 31
0.0
  0
CIRCLE
  5
20F
  8
0
  6
CONTINUOUS
 62
     7
 10
-274.03161999999998
 20
276.0
 30
0.0
 40
0.3
  0
LINE
  5
210
  8
0
  6
CONTINUOUS
 62
     7
 10
-291.0
 20
276.0
 30
0.0
 11
-271.74561
 21
276.0
 31
0.0
  0
TEXT
  5
211
  8
0
  6
CONTINUOUS
 62
     7
 10
-306.71429000000001
 20
286.66005999999987
 30
0.0
 40
2.0
  1
32
 41
1.0285716
  0
LINE
  5
212
  8
0
  6
CONTINUOUS
 62
     7
 10
-321.0
 20
286.16005999999999
 30
0.0
 11
-305.0
 21
286.16005999999999
 31
0.0
  0
CIRCLE
  5
213
  8
0
  6
CONTINUOUS
 62
     7
 10
-321.0
 20
286.16005999999999
 30
0.0
 40
0.3
  0
LINE
  5
214
  8
0
  6
CONTINUOUS
 62
     7
 10
-289.0
 20
286.16005999999999
 30
0.0
 11
-305.0
 21
286.16005999999999
 31
0.0
  0
CIRCLE
  5
215
  8
0
  6
CONTINUOUS
 62
     7
 10
-289.0
 20
286.16005999999999
 30
0.0
 40
0.3
  0
LINE
  5
216
  8
0
  6
CONTINUOUS
 62
     7
 10
-321.0
 20
274.0
 30
0.0
 11
-321.0
 21
288.44607999999988
 31
0.0
  0
LINE
  5
217
  8
0
  6
CONTINUOUS
 62
     7
 10
-289.0
 20
274.0
 30
0.0
 11
-289.0
 21
288.44607999999988
 31
0.0
  0
TEXT
  5
218
  8
0
  6
CONTINUOUS
 62
     7
 10
-259.58415999999988
 20
226.78659999999999
 30
0.0
 40
2.0
  1
ストロ－ク　５０ｍ／ｍ
 50
89.900002000000001
 41
0.8440876599999999
  0
LINE
  5
219
  8
0
  6
CONTINUOUS
 62
     7
 10
-259.06545999999997
 20
212.5
 30
0.0
 11
-259.06545999999997
 21
237.5
 31
0.0
  0
CIRCLE
  5
21A
  8
0
  6
CONTINUOUS
 62
     7
 10
-259.06545999999997
 20
212.5
 30
0.0
 40
0.3
  0
LINE
  5
21B
  8
0
  6
CONTINUOUS
 62
     7
 10
-259.06545999999997
 20
262.5
 30
0.0
 11
-259.06545999999997
 21
237.5
 31
0.0
  0
CIRCLE
  5
21C
  8
0
  6
CONTINUOUS
 62
     7
 10
-259.06545999999997
 20
262.5
 30
0.0
 40
0.3
  0
LINE
  5
21D
  8
0
  6
CONTINUOUS
 62
     7
 10
-297.0
 20
212.5
 30
0.0
 11
-256.77947999999992
 21
212.5
 31
0.0
  0
LINE
  5
21E
  8
0
  6
CONTINUOUS
 62
     7
 10
-259.0
 20
262.5
 30
0.0
 11
-261.35143999999991
 21
262.5
 31
0.0
  0
TEXT
  5
21F
  8
0
  6
CONTINUOUS
 62
     7
 10
3.285714
 20
286.46190999999999
 30
0.0
 40
2.0
  1
32
 41
1.0285716
  0
LINE
  5
220
  8
0
  6
CONTINUOUS
 62
     7
 10
-11.0
 20
285.96190999999988
 30
0.0
 11
5.0
 21
285.96190999999988
 31
0.0
  0
CIRCLE
  5
221
  8
0
  6
CONTINUOUS
 62
     7
 10
-11.0
 20
285.96190999999988
 30
0.0
 40
0.3
  0
LINE
  5
222
  8
0
  6
CONTINUOUS
 62
     7
 10
21.0
 20
285.96190999999988
 30
0.0
 11
5.0
 21
285.96190999999988
 31
0.0
  0
CIRCLE
  5
223
  8
0
  6
CONTINUOUS
 62
     7
 10
21.0
 20
285.96190999999988
 30
0.0
 40
0.3
  0
LINE
  5
224
  8
0
  6
CONTINUOUS
 62
     7
 10
-11.0
 20
274.0
 30
0.0
 11
-11.0
 21
288.24792000000002
 31
0.0
  0
LINE
  5
225
  8
0
  6
CONTINUOUS
 62
     7
 10
21.0
 20
274.0
 30
0.0
 11
21.0
 21
288.24792000000002
 31
0.0
  0
TEXT
  5
226
  8
0
  6
CONTINUOUS
 62
     7
 10
-145.92278999999991
 20
177.7865899999999
 30
0.0
 40
2.0
  1
6
 50
89.900002000000001
 41
1.071429
  0
LINE
  5
227
  8
0
  6
CONTINUOUS
 62
     7
 10
-145.42153999999999
 20
181.49999999999989
 30
0.0
 11
-145.42153999999999
 21
178.5
 31
0.0
  0
CIRCLE
  5
228
  8
0
  6
CONTINUOUS
 62
     7
 10
-145.42153999999999
 20
181.49999999999989
 30
0.0
 40
0.3
  0
LINE
  5
229
  8
0
  6
CONTINUOUS
 62
     7
 10
-145.42153999999999
 20
175.5
 30
0.0
 11
-145.42153999999999
 21
178.5
 31
0.0
  0
CIRCLE
  5
22A
  8
0
  6
CONTINUOUS
 62
     7
 10
-145.42153999999999
 20
175.5
 30
0.0
 40
0.3
  0
LINE
  5
22B
  8
0
  6
CONTINUOUS
 62
     7
 10
-140.5
 20
181.49999999999989
 30
0.0
 11
-147.70752999999991
 21
181.49999999999989
 31
0.0
  0
TEXT
  5
22C
  8
0
  6
CONTINUOUS
 62
     7
 10
-130.71428999999981
 20
151.15450999999999
 30
0.0
 40
2.0
  1
13
 41
1.2857145000000001
  0
LINE
  5
22D
  8
0
  6
CONTINUOUS
 62
     7
 10
-135.4999999999998
 20
150.65450999999999
 30
0.0
 11
-129.0
 21
150.65450999999999
 31
0.0
  0
CIRCLE
  5
22E
  8
0
  6
CONTINUOUS
 62
     7
 10
-135.4999999999998
 20
150.65450999999999
 30
0.0
 40
0.3
  0
LINE
  5
22F
  8
0
  6
CONTINUOUS
 62
     7
 10
-122.5
 20
150.65450999999999
 30
0.0
 11
-129.0
 21
150.65450999999999
 31
0.0
  0
CIRCLE
  5
230
  8
0
  6
CONTINUOUS
 62
     7
 10
-122.5
 20
150.65450999999999
 30
0.0
 40
0.3
  0
LINE
  5
231
  8
0
  6
CONTINUOUS
 62
     7
 10
-135.4999999999998
 20
162.5
 30
0.0
 11
-135.4999999999998
 21
148.3685199999999
 31
0.0
  0
LINE
  5
232
  8
0
  6
CONTINUOUS
 62
     7
 10
-122.5
 20
162.0
 30
0.0
 11
-122.5
 21
148.3685199999999
 31
0.0
  0
TEXT
  5
233
  8
0
  6
CONTINUOUS
 62
     7
 10
-98.214286000000001
 20
151.15450999999999
 30
0.0
 40
2.0
  1
52
 41
1.0285716
  0
LINE
  5
234
  8
0
  6
CONTINUOUS
 62
     7
 10
-122.5
 20
150.65450999999999
 30
0.0
 11
-96.5
 21
150.65450999999999
 31
0.0
  0
CIRCLE
  5
235
  8
0
  6
CONTINUOUS
 62
     7
 10
-122.5
 20
150.65450999999999
 30
0.0
 40
0.3
  0
LINE
  5
236
  8
0
  6
CONTINUOUS
 62
     7
 10
-70.5
 20
150.65450999999999
 30
0.0
 11
-96.5
 21
150.65450999999999
 31
0.0
  0
CIRCLE
  5
237
  8
0
  6
CONTINUOUS
 62
     7
 10
-70.5
 20
150.65450999999999
 30
0.0
 40
0.3
  0
LINE
  5
238
  8
0
  6
CONTINUOUS
 62
     7
 10
-70.5
 20
162.0
 30
0.0
 11
-70.5
 21
148.3685199999999
 31
0.0
  0
TEXT
  5
239
  8
0
  6
CONTINUOUS
 62
     7
 10
-65.714286000000001
 20
151.15450999999999
 30
0.0
 40
2.0
  1
13
 41
1.2857145000000001
  0
LINE
  5
23A
  8
0
  6
CONTINUOUS
 62
     7
 10
-70.5
 20
150.65450999999999
 30
0.0
 11
-64.0
 21
150.65450999999999
 31
0.0
  0
CIRCLE
  5
23B
  8
0
  6
CONTINUOUS
 62
     7
 10
-70.5
 20
150.65450999999999
 30
0.0
 40
0.3
  0
LINE
  5
23C
  8
0
  6
CONTINUOUS
 62
     7
 10
-57.5
 20
150.65450999999999
 30
0.0
 11
-64.0
 21
150.65450999999999
 31
0.0
  0
CIRCLE
  5
23D
  8
0
  6
CONTINUOUS
 62
     7
 10
-57.5
 20
150.65450999999999
 30
0.0
 40
0.3
  0
LINE
  5
23E
  8
0
  6
CONTINUOUS
 62
     7
 10
-57.5
 20
162.5
 30
0.0
 11
-57.5
 21
148.3685199999999
 31
0.0
  0
TEXT
  5
23F
  8
0
  6
CONTINUOUS
 62
     7
 10
-98.214286000000001
 20
141.29896999999991
 30
0.0
 40
2.0
  1
78
 41
1.0285716
  0
LINE
  5
240
  8
0
  6
CONTINUOUS
 62
     7
 10
-135.4999999999998
 20
140.79896999999991
 30
0.0
 11
-96.5
 21
140.79896999999991
 31
0.0
  0
CIRCLE
  5
241
  8
0
  6
CONTINUOUS
 62
     7
 10
-135.4999999999998
 20
140.79896999999991
 30
0.0
 40
0.3
  0
LINE
  5
242
  8
0
  6
CONTINUOUS
 62
     7
 10
-57.5
 20
140.79896999999991
 30
0.0
 11
-96.5
 21
140.79896999999991
 31
0.0
  0
CIRCLE
  5
243
  8
0
  6
CONTINUOUS
 62
     7
 10
-57.5
 20
140.79896999999991
 30
0.0
 40
0.3
  0
LINE
  5
244
  8
0
  6
CONTINUOUS
 62
     7
 10
-135.4999999999998
 20
162.5
 30
0.0
 11
-135.4999999999998
 21
138.51297
 31
0.0
  0
LINE
  5
245
  8
0
  6
CONTINUOUS
 62
     7
 10
-57.5
 20
162.5
 30
0.0
 11
-57.5
 21
138.51297
 31
0.0
  0
TEXT
  5
246
  8
0
  6
CONTINUOUS
 62
     7
 10
-38.283546000000001
 20
162.53570999999999
 30
0.0
 40
2.0
  1
11.5
 50
90.000003000000007
 41
1.5918368999999979
  0
LINE
  5
247
  8
0
  6
CONTINUOUS
 62
     7
 10
-37.783546000000001
 20
160.4999999999998
 30
0.0
 11
-37.783546000000001
 21
166.25
 31
0.0
  0
CIRCLE
  5
248
  8
0
  6
CONTINUOUS
 62
     7
 10
-37.783546000000001
 20
160.4999999999998
 30
0.0
 40
0.3
  0
LINE
  5
249
  8
0
  6
CONTINUOUS
 62
     7
 10
-37.783546000000001
 20
172.0
 30
0.0
 11
-37.783546000000001
 21
166.25
 31
0.0
  0
CIRCLE
  5
24A
  8
0
  6
CONTINUOUS
 62
     7
 10
-37.783546000000001
 20
172.0
 30
0.0
 40
0.3
  0
LINE
  5
24B
  8
0
  6
CONTINUOUS
 62
     7
 10
-59.5
 20
160.4999999999998
 30
0.0
 11
-36.583548999999991
 21
160.4999999999998
 31
0.0
  0
LINE
  5
24C
  8
0
  6
CONTINUOUS
 62
     7
 10
-65.5
 20
172.0
 30
0.0
 11
-36.583548999999991
 21
172.0
 31
0.0
  0
TEXT
  5
24D
  8
0
  6
CONTINUOUS
 62
     7
 10
-38.286538
 20
179.7865899999999
 30
0.0
 40
2.0
  1
19
 50
89.900002000000001
 41
1.2857145000000001
  0
LINE
  5
24E
  8
0
  6
CONTINUOUS
 62
     7
 10
-37.783546000000001
 20
172.0
 30
0.0
 11
-37.783546000000001
 21
181.49999999999989
 31
0.0
  0
CIRCLE
  5
24F
  8
0
  6
CONTINUOUS
 62
     7
 10
-37.783546000000001
 20
172.0
 30
0.0
 40
0.3
  0
LINE
  5
250
  8
0
  6
CONTINUOUS
 62
     7
 10
-37.783546000000001
 20
191.0
 30
0.0
 11
-37.783546000000001
 21
181.49999999999989
 31
0.0
  0
CIRCLE
  5
251
  8
0
  6
CONTINUOUS
 62
     7
 10
-37.783546000000001
 20
191.0
 30
0.0
 40
0.3
  0
LINE
  5
252
  8
0
  6
CONTINUOUS
 62
     7
 10
-65.5
 20
191.0
 30
0.0
 11
-35.497543
 21
191.0
 31
0.0
  0
TEXT
  5
253
  8
0
  6
CONTINUOUS
 62
     7
 10
-38.283546000000001
 20
193.03570999999999
 30
0.0
 40
2.0
  1
11.5
 50
90.000003000000007
 41
1.5918368999999979
  0
LINE
  5
254
  8
0
  6
CONTINUOUS
 62
     7
 10
-37.783546000000001
 20
191.0
 30
0.0
 11
-37.783546000000001
 21
196.75
 31
0.0
  0
CIRCLE
  5
255
  8
0
  6
CONTINUOUS
 62
     7
 10
-37.783546000000001
 20
191.0
 30
0.0
 40
0.3
  0
LINE
  5
256
  8
0
  6
CONTINUOUS
 62
     7
 10
-37.783546000000001
 20
202.49999999999989
 30
0.0
 11
-37.783546000000001
 21
196.75
 31
0.0
  0
CIRCLE
  5
257
  8
0
  6
CONTINUOUS
 62
     7
 10
-37.783546000000001
 20
202.49999999999989
 30
0.0
 40
0.3
  0
LINE
  5
258
  8
0
  6
CONTINUOUS
 62
     7
 10
-59.5
 20
202.49999999999989
 30
0.0
 11
-36.583548999999991
 21
202.49999999999989
 31
0.0
  0
TEXT
  5
259
  8
0
  6
CONTINUOUS
 62
     7
 10
-28.237748
 20
179.7865899999999
 30
0.0
 40
2.0
  1
42
 50
89.900002000000001
 41
1.0285716
  0
LINE
  5
25A
  8
0
  6
CONTINUOUS
 62
     7
 10
-27.734756000000001
 20
160.4999999999998
 30
0.0
 11
-27.734756000000001
 21
181.49999999999989
 31
0.0
  0
CIRCLE
  5
25B
  8
0
  6
CONTINUOUS
 62
     7
 10
-27.734756000000001
 20
160.4999999999998
 30
0.0
 40
0.3
  0
LINE
  5
25C
  8
0
  6
CONTINUOUS
 62
     7
 10
-27.734756000000001
 20
202.49999999999989
 30
0.0
 11
-27.734756000000001
 21
181.49999999999989
 31
0.0
  0
CIRCLE
  5
25D
  8
0
  6
CONTINUOUS
 62
     7
 10
-27.734756000000001
 20
202.49999999999989
 30
0.0
 40
0.3
  0
LINE
  5
25E
  8
0
  6
CONTINUOUS
 62
     7
 10
-59.5
 20
160.4999999999998
 30
0.0
 11
-25.448753
 21
160.4999999999998
 31
0.0
  0
LINE
  5
25F
  8
0
  6
CONTINUOUS
 62
     7
 10
-59.5
 20
202.49999999999989
 30
0.0
 11
-25.448753
 21
202.49999999999989
 31
0.0
  0
TEXT
  5
260
  8
0
  6
CONTINUOUS
 62
     7
 10
-48.337072999999997
 20
174.03658999999999
 30
0.0
 40
2.0
  1
9.5
 50
89.900002000000001
 41
1.3571429999999991
  0
LINE
  5
261
  8
0
  6
CONTINUOUS
 62
     7
 10
-47.832335999999991
 20
172.0
 30
0.0
 11
-47.832335999999991
 21
176.75
 31
0.0
  0
CIRCLE
  5
262
  8
0
  6
CONTINUOUS
 62
     7
 10
-47.832335999999991
 20
172.0
 30
0.0
 40
0.3
  0
LINE
  5
263
  8
0
  6
CONTINUOUS
 62
     7
 10
-47.832335999999991
 20
181.49999999999989
 30
0.0
 11
-47.832335999999991
 21
176.75
 31
0.0
  0
CIRCLE
  5
264
  8
0
  6
CONTINUOUS
 62
     7
 10
-47.832335999999991
 20
181.49999999999989
 30
0.0
 40
0.3
  0
LINE
  5
265
  8
0
  6
CONTINUOUS
 62
     7
 10
-65.5
 20
172.0
 30
0.0
 11
-45.54633299999999
 21
172.0
 31
0.0
  0
LINE
  5
266
  8
0
  6
CONTINUOUS
 62
     7
 10
-52.5
 20
181.49999999999989
 30
0.0
 11
-45.54633299999999
 21
181.49999999999989
 31
0.0
  0
TEXT
  5
267
  8
0
  6
CONTINUOUS
 62
     7
 10
-48.337072999999997
 20
183.53658999999999
 30
0.0
 40
2.0
  1
9.5
 50
89.900002000000001
 41
1.3571429999999991
  0
LINE
  5
268
  8
0
  6
CONTINUOUS
 62
     7
 10
-47.832335999999991
 20
181.49999999999989
 30
0.0
 11
-47.832335999999991
 21
186.25
 31
0.0
  0
CIRCLE
  5
269
  8
0
  6
CONTINUOUS
 62
     7
 10
-47.832335999999991
 20
181.49999999999989
 30
0.0
 40
0.3
  0
LINE
  5
26A
  8
0
  6
CONTINUOUS
 62
     7
 10
-47.832335999999991
 20
191.0
 30
0.0
 11
-47.832335999999991
 21
186.25
 31
0.0
  0
CIRCLE
  5
26B
  8
0
  6
CONTINUOUS
 62
     7
 10
-47.832335999999991
 20
191.0
 30
0.0
 40
0.3
  0
LINE
  5
26C
  8
0
  6
CONTINUOUS
 62
     7
 10
-65.5
 20
191.0
 30
0.0
 11
-45.54633299999999
 21
191.0
 31
0.0
  0
TEXT
  5
26D
  8
0
  6
CONTINUOUS
 62
     7
 10
-12.714286
 20
-89.376617000000024
 30
0.0
 40
2.0
  1
140
 41
1.221428699999999
  0
LINE
  5
26E
  8
0
  6
CONTINUOUS
 62
     7
 10
-80.0
 20
-89.876617000000024
 30
0.0
 11
-10.0
 21
-89.876617000000024
 31
0.0
  0
CIRCLE
  5
26F
  8
0
  6
CONTINUOUS
 62
     7
 10
-80.0
 20
-89.876617000000024
 30
0.0
 40
0.3
  0
LINE
  5
270
  8
0
  6
CONTINUOUS
 62
     7
 10
60.0
 20
-89.876617000000024
 30
0.0
 11
-10.0
 21
-89.876617000000024
 31
0.0
  0
CIRCLE
  5
271
  8
0
  6
CONTINUOUS
 62
     7
 10
60.0
 20
-89.876617000000024
 30
0.0
 40
0.3
  0
LINE
  5
272
  8
0
  6
CONTINUOUS
 62
     7
 10
-80.0
 20
-80.0
 30
0.0
 11
-80.0
 21
-92.162620999999987
 31
0.0
  0
LINE
  5
273
  8
0
  6
CONTINUOUS
 62
     7
 10
60.0
 20
-80.0
 30
0.0
 11
60.0
 21
-92.162620999999987
 31
0.0
  0
TEXT
  5
274
  8
0
  6
CONTINUOUS
 62
     7
 10
-314.21429000000001
 20
-89.500000000000014
 30
0.0
 40
2.0
  1
75
 41
1.0285716
  0
LINE
  5
275
  8
0
  6
CONTINUOUS
 62
     7
 10
-350.0
 20
-90.0
 30
0.0
 11
-312.5
 21
-90.0
 31
0.0
  0
CIRCLE
  5
276
  8
0
  6
CONTINUOUS
 62
     7
 10
-350.0
 20
-90.0
 30
0.0
 40
0.3
  0
LINE
  5
277
  8
0
  6
CONTINUOUS
 62
     7
 10
-275.0
 20
-90.0
 30
0.0
 11
-312.5
 21
-90.0
 31
0.0
  0
CIRCLE
  5
278
  8
0
  6
CONTINUOUS
 62
     7
 10
-275.0
 20
-90.0
 30
0.0
 40
0.3
  0
LINE
  5
279
  8
0
  6
CONTINUOUS
 62
     7
 10
-350.0
 20
-90.0
 30
0.0
 11
-350.0
 21
-92.052100999999993
 31
0.0
  0
LINE
  5
27A
  8
0
  6
CONTINUOUS
 62
     7
 10
-275.0
 20
-80.0
 30
0.0
 11
-275.0
 21
-92.286002999999994
 31
0.0
  0
TEXT
  5
27B
  8
0
  6
CONTINUOUS
 62
     7
 10
-31.714286000000001
 20
80.750000000000014
 30
0.0
 40
2.0
  1
70
 41
1.102041
  0
LINE
  5
27C
  8
0
  6
CONTINUOUS
 62
     7
 10
-65.0
 20
80.25
 30
0.0
 11
-30.0
 21
80.25
 31
0.0
  0
CIRCLE
  5
27D
  8
0
  6
CONTINUOUS
 62
     7
 10
-65.0
 20
80.25
 30
0.0
 40
0.3
  0
LINE
  5
27E
  8
0
  6
CONTINUOUS
 62
     7
 10
5.0
 20
80.25
 30
0.0
 11
-30.0
 21
80.25
 31
0.0
  0
CIRCLE
  5
27F
  8
0
  6
CONTINUOUS
 62
     7
 10
5.0
 20
80.25
 30
0.0
 40
0.3
  0
LINE
  5
280
  8
0
  6
CONTINUOUS
 62
     7
 10
-65.0
 20
80.25
 30
0.0
 11
-65.0
 21
79.866348000000002
 31
0.0
  0
LINE
  5
281
  8
0
  6
CONTINUOUS
 62
     7
 10
5.0
 20
105.0
 30
0.0
 11
5.0
 21
77.963996999999978
 31
0.0
  0
TEXT
  5
282
  8
0
  6
CONTINUOUS
 62
     7
 10
23.285713999999999
 20
80.750000000000014
 30
0.0
 40
2.0
  1
40
 41
1.102041
  0
LINE
  5
283
  8
0
  6
CONTINUOUS
 62
     7
 10
5.0
 20
80.25
 30
0.0
 11
25.0
 21
80.25
 31
0.0
  0
CIRCLE
  5
284
  8
0
  6
CONTINUOUS
 62
     7
 10
5.0
 20
80.25
 30
0.0
 40
0.3
  0
LINE
  5
285
  8
0
  6
CONTINUOUS
 62
     7
 10
45.0
 20
80.25
 30
0.0
 11
25.0
 21
80.25
 31
0.0
  0
CIRCLE
  5
286
  8
0
  6
CONTINUOUS
 62
     7
 10
45.0
 20
80.25
 30
0.0
 40
0.3
  0
LINE
  5
287
  8
0
  6
CONTINUOUS
 62
     7
 10
45.0
 20
80.25
 30
0.0
 11
45.0
 21
78.954796000000002
 31
0.0
  0
TEXT
  5
288
  8
0
  6
CONTINUOUS
 62
     7
 10
-16.214285999999991
 20
70.771361999999996
 30
0.0
 40
2.0
  1
39
 41
1.0285716
  0
LINE
  5
289
  8
0
  6
CONTINUOUS
 62
     7
 10
-34.0
 20
70.271361999999996
 30
0.0
 11
-14.5
 21
70.271361999999996
 31
0.0
  0
CIRCLE
  5
28A
  8
0
  6
CONTINUOUS
 62
     7
 10
-34.0
 20
70.271361999999996
 30
0.0
 40
0.3
  0
LINE
  5
28B
  8
0
  6
CONTINUOUS
 62
     7
 10
5.0
 20
70.271361999999996
 30
0.0
 11
-14.5
 21
70.271361999999996
 31
0.0
  0
CIRCLE
  5
28C
  8
0
  6
CONTINUOUS
 62
     7
 10
5.0
 20
70.271361999999996
 30
0.0
 40
0.3
  0
LINE
  5
28D
  8
0
  6
CONTINUOUS
 62
     7
 10
-34.0
 20
45.0
 30
0.0
 11
-34.0
 21
72.557365000000004
 31
0.0
  0
LINE
  5
28E
  8
0
  6
CONTINUOUS
 62
     7
 10
5.0
 20
105.0
 30
0.0
 11
5.0
 21
67.985359000000003
 31
0.0
  0
TEXT
  5
28F
  8
0
  6
CONTINUOUS
 62
     7
 10
-12.714286
 20
-50.0
 30
0.0
 40
2.0
  1
110
 41
1.436974999999999
  0
LINE
  5
290
  8
0
  6
CONTINUOUS
 62
     7
 10
-65.0
 20
-50.5
 30
0.0
 11
-10.0
 21
-50.5
 31
0.0
  0
CIRCLE
  5
291
  8
0
  6
CONTINUOUS
 62
     7
 10
-65.0
 20
-50.5
 30
0.0
 40
0.3
  0
LINE
  5
292
  8
0
  6
CONTINUOUS
 62
     7
 10
45.0
 20
-50.5
 30
0.0
 11
-10.0
 21
-50.5
 31
0.0
  0
CIRCLE
  5
293
  8
0
  6
CONTINUOUS
 62
     7
 10
45.0
 20
-50.5
 30
0.0
 40
0.3
  0
LINE
  5
294
  8
0
  6
CONTINUOUS
 62
     7
 10
-65.0
 20
-50.5
 30
0.0
 11
-65.0
 21
-52.850535999999998
 31
0.0
  0
LINE
  5
295
  8
0
  6
CONTINUOUS
 62
     7
 10
45.0
 20
-50.5
 30
0.0
 11
45.0
 21
-52.813324000000001
 31
0.0
  0
TEXT
  5
296
  8
0
  6
CONTINUOUS
 62
     7
 10
-12.714286
 20
-39.629798999999998
 30
0.0
 40
2.0
  1
125
 41
1.163265399999998
  0
LINE
  5
297
  8
0
  6
CONTINUOUS
 62
     7
 10
-72.5
 20
-40.129798999999998
 30
0.0
 11
-10.0
 21
-40.129798999999998
 31
0.0
  0
CIRCLE
  5
298
  8
0
  6
CONTINUOUS
 62
     7
 10
-72.5
 20
-40.129798999999998
 30
0.0
 40
0.3
  0
LINE
  5
299
  8
0
  6
CONTINUOUS
 62
     7
 10
52.5
 20
-40.129798999999998
 30
0.0
 11
-10.0
 21
-40.129798999999998
 31
0.0
  0
CIRCLE
  5
29A
  8
0
  6
CONTINUOUS
 62
     7
 10
52.5
 20
-40.129798999999998
 30
0.0
 40
0.3
  0
LINE
  5
29B
  8
0
  6
CONTINUOUS
 62
     7
 10
-72.5
 20
-50.0
 30
0.0
 11
-72.5
 21
-37.843800000000002
 31
0.0
  0
LINE
  5
29C
  8
0
  6
CONTINUOUS
 62
     7
 10
52.5
 20
-50.0
 30
0.0
 11
52.5
 21
-37.843800000000002
 31
0.0
  0
TEXT
  5
29D
  8
0
  6
CONTINUOUS
 62
     7
 10
69.268019999999993
 20
-69.213410999999994
 30
0.0
 40
2.0
  1
25
 50
89.900002000000001
 41
1.0285716
  0
LINE
  5
29E
  8
0
  6
CONTINUOUS
 62
     7
 10
69.771011000000001
 20
-80.0
 30
0.0
 11
69.771011000000001
 21
-67.5
 31
0.0
  0
CIRCLE
  5
29F
  8
0
  6
CONTINUOUS
 62
     7
 10
69.771011000000001
 20
-80.0
 30
0.0
 40
0.3
  0
LINE
  5
2A0
  8
0
  6
CONTINUOUS
 62
     7
 10
69.771011000000001
 20
-55.0
 30
0.0
 11
69.771011000000001
 21
-67.5
 31
0.0
  0
CIRCLE
  5
2A1
  8
0
  6
CONTINUOUS
 62
     7
 10
69.771011000000001
 20
-55.0
 30
0.0
 40
0.3
  0
LINE
  5
2A2
  8
0
  6
CONTINUOUS
 62
     7
 10
60.0
 20
-80.0
 30
0.0
 11
72.057013999999995
 21
-80.0
 31
0.0
  0
LINE
  5
2A3
  8
0
  6
CONTINUOUS
 62
     7
 10
57.5
 20
-55.0
 30
0.0
 11
72.057013999999995
 21
-55.0
 31
0.0
  0
TEXT
  5
2A4
  8
0
  6
CONTINUOUS
 62
     7
 10
69.268019999999993
 20
-21.71341099999999
 30
0.0
 40
2.0
  1
70
 50
89.900002000000001
 41
1.102041
  0
LINE
  5
2A5
  8
0
  6
CONTINUOUS
 62
     7
 10
69.771011000000001
 20
-55.0
 30
0.0
 11
69.771011000000001
 21
-20.0
 31
0.0
  0
CIRCLE
  5
2A6
  8
0
  6
CONTINUOUS
 62
     7
 10
69.771011000000001
 20
-55.0
 30
0.0
 40
0.3
  0
LINE
  5
2A7
  8
0
  6
CONTINUOUS
 62
     7
 10
69.771011000000001
 20
15.0
 30
0.0
 11
69.771011000000001
 21
-20.0
 31
0.0
  0
CIRCLE
  5
2A8
  8
0
  6
CONTINUOUS
 62
     7
 10
69.771011000000001
 20
15.0
 30
0.0
 40
0.3
  0
LINE
  5
2A9
  8
0
  6
CONTINUOUS
 62
     7
 10
57.5
 20
15.0
 30
0.0
 11
72.057013999999995
 21
15.0
 31
0.0
  0
TEXT
  5
2AA
  8
0
  6
CONTINUOUS
 62
     7
 10
69.268019999999993
 20
48.286588999999999
 30
0.0
 40
2.0
  1
70
 50
89.900002000000001
 41
1.102041
  0
LINE
  5
2AB
  8
0
  6
CONTINUOUS
 62
     7
 10
69.771011000000001
 20
15.0
 30
0.0
 11
69.771011000000001
 21
50.0
 31
0.0
  0
CIRCLE
  5
2AC
  8
0
  6
CONTINUOUS
 62
     7
 10
69.771011000000001
 20
15.0
 30
0.0
 40
0.3
  0
LINE
  5
2AD
  8
0
  6
CONTINUOUS
 62
     7
 10
69.771011000000001
 20
85.0
 30
0.0
 11
69.771011000000001
 21
50.0
 31
0.0
  0
CIRCLE
  5
2AE
  8
0
  6
CONTINUOUS
 62
     7
 10
69.771011000000001
 20
85.0
 30
0.0
 40
0.3
  0
LINE
  5
2AF
  8
0
  6
CONTINUOUS
 62
     7
 10
57.5
 20
85.0
 30
0.0
 11
72.057013999999995
 21
85.0
 31
0.0
  0
TEXT
  5
2B0
  8
0
  6
CONTINUOUS
 62
     7
 10
69.268019999999993
 20
95.786589000000006
 30
0.0
 40
2.0
  1
25
 50
89.900002000000001
 41
1.0285716
  0
LINE
  5
2B1
  8
0
  6
CONTINUOUS
 62
     7
 10
69.771011000000001
 20
85.0
 30
0.0
 11
69.771011000000001
 21
97.5
 31
0.0
  0
CIRCLE
  5
2B2
  8
0
  6
CONTINUOUS
 62
     7
 10
69.771011000000001
 20
85.0
 30
0.0
 40
0.3
  0
LINE
  5
2B3
  8
0
  6
CONTINUOUS
 62
     7
 10
69.771011000000001
 20
110.0
 30
0.0
 11
69.771011000000001
 21
97.5
 31
0.0
  0
CIRCLE
  5
2B4
  8
0
  6
CONTINUOUS
 62
     7
 10
69.771011000000001
 20
110.0
 30
0.0
 40
0.3
  0
LINE
  5
2B5
  8
0
  6
CONTINUOUS
 62
     7
 10
60.0
 20
110.0
 30
0.0
 11
72.057013999999995
 21
110.0
 31
0.0
  0
TEXT
  5
2B6
  8
0
  6
CONTINUOUS
 62
     7
 10
78.987855000000025
 20
12.286591
 30
0.0
 40
2.0
  1
190
 50
89.900002000000001
 41
1.221428699999999
  0
LINE
  5
2B7
  8
0
  6
CONTINUOUS
 62
     7
 10
79.492592000000002
 20
-80.0
 30
0.0
 11
79.492592000000002
 21
15.0
 31
0.0
  0
CIRCLE
  5
2B8
  8
0
  6
CONTINUOUS
 62
     7
 10
79.492592000000002
 20
-80.0
 30
0.0
 40
0.3
  0
LINE
  5
2B9
  8
0
  6
CONTINUOUS
 62
     7
 10
79.492592000000002
 20
110.0
 30
0.0
 11
79.492592000000002
 21
15.0
 31
0.0
  0
CIRCLE
  5
2BA
  8
0
  6
CONTINUOUS
 62
     7
 10
79.492592000000002
 20
110.0
 30
0.0
 40
0.3
  0
LINE
  5
2BB
  8
0
  6
CONTINUOUS
 62
     7
 10
60.0
 20
-80.0
 30
0.0
 11
81.778594999999981
 21
-80.0
 31
0.0
  0
LINE
  5
2BC
  8
0
  6
CONTINUOUS
 62
     7
 10
60.0
 20
110.0
 30
0.0
 11
81.778594999999981
 21
110.0
 31
0.0
  0
TEXT
  5
2BD
  8
0
  6
CONTINUOUS
 62
     7
 10
-329.21428999999989
 20
168.24532999999991
 30
0.0
 40
2.0
  1
45
 41
1.0285716
  0
LINE
  5
2BE
  8
0
  6
CONTINUOUS
 62
     7
 10
-350.0
 20
167.74532999999991
 30
0.0
 11
-327.49999999999989
 21
167.74532999999991
 31
0.0
  0
CIRCLE
  5
2BF
  8
0
  6
CONTINUOUS
 62
     7
 10
-350.0
 20
167.74532999999991
 30
0.0
 40
0.3
  0
LINE
  5
2C0
  8
0
  6
CONTINUOUS
 62
     7
 10
-305.0
 20
167.74532999999991
 30
0.0
 11
-327.49999999999989
 21
167.74532999999991
 31
0.0
  0
CIRCLE
  5
2C1
  8
0
  6
CONTINUOUS
 62
     7
 10
-305.0
 20
167.74532999999991
 30
0.0
 40
0.3
  0
LINE
  5
2C2
  8
0
  6
CONTINUOUS
 62
     7
 10
-350.0
 20
169.3051599999998
 30
0.0
 11
-350.0
 21
170.03132999999991
 31
0.0
  0
LINE
  5
2C3
  8
0
  6
CONTINUOUS
 62
     7
 10
-305.0
 20
170.03132999999991
 30
0.0
 11
-305.0
 21
170.55302
 31
0.0
  0
TEXT
  5
2C4
  8
0
  6
CONTINUOUS
 62
     7
 10
-208.76384999999991
 20
123.2865899999999
 30
0.0
 40
2.0
  1
Ｌ
 50
89.900002000000001
 41
0.9003605399999997
  0
LINE
  5
2C5
  8
0
  6
CONTINUOUS
 62
     7
 10
-208.26259999999991
 20
15.0
 30
0.0
 11
-208.26259999999991
 21
124.0
 31
0.0
  0
CIRCLE
  5
2C6
  8
0
  6
CONTINUOUS
 62
     7
 10
-208.26259999999991
 20
15.0
 30
0.0
 40
0.3
  0
LINE
  5
2C7
  8
0
  6
CONTINUOUS
 62
     7
 10
-208.26259999999991
 20
233.0
 30
0.0
 11
-208.26259999999991
 21
124.0
 31
0.0
  0
CIRCLE
  5
2C8
  8
0
  6
CONTINUOUS
 62
     7
 10
-208.26259999999991
 20
233.0
 30
0.0
 40
0.3
  0
LINE
  5
2C9
  8
0
  6
CONTINUOUS
 62
     7
 10
-259.06545999999997
 20
233.0
 30
0.0
 11
-205.97660999999999
 21
233.0
 31
0.0
  0
TEXT
  5
2CA
  8
0
  6
CONTINUOUS
 62
     7
 10
-247.21428999999989
 20
-89.500000000000014
 30
0.0
 40
2.0
  1
59
 41
1.0285716
  0
LINE
  5
2CB
  8
0
  6
CONTINUOUS
 62
     7
 10
-275.0
 20
-90.0
 30
0.0
 11
-245.5
 21
-90.0
 31
0.0
  0
CIRCLE
  5
2CC
  8
0
  6
CONTINUOUS
 62
     7
 10
-275.0
 20
-90.0
 30
0.0
 40
0.3
  0
LINE
  5
2CD
  8
0
  6
CONTINUOUS
 62
     7
 10
-216.0
 20
-90.0
 30
0.0
 11
-245.5
 21
-90.0
 31
0.0
  0
CIRCLE
  5
2CE
  8
0
  6
CONTINUOUS
 62
     7
 10
-216.0
 20
-90.0
 30
0.0
 40
0.3
  0
LINE
  5
2CF
  8
0
  6
CONTINUOUS
 62
     7
 10
-216.0
 20
6.0811405000000001
 30
0.0
 11
-216.0
 21
-92.286002999999994
 31
0.0
  0
LINE
  5
2D0
  8
0
  6
CONTINUOUS
 62
     7
 10
-3.0000062000000001
 20
142.5
 30
0.0
 11
-26.965720999999998
 21
117.88629999999991
 31
0.0
  0
LINE
  5
2D1
  8
0
  6
CONTINUOUS
 62
     7
 10
-26.965720999999998
 20
117.88629999999991
 30
0.0
 11
-56.840736
 21
117.88629999999991
 31
0.0
  0
CIRCLE
  5
2D2
  8
0
  6
CONTINUOUS
 62
     7
 10
-3.0000062000000001
 20
142.5
 30
0.0
 40
0.3
  0
TEXT
  5
2D3
  8
0
  6
CONTINUOUS
 62
     7
 10
-56.269308000000002
 20
118.38630000000001
 30
0.0
 40
2.0
  1
２－%%C５．５×%%C１０．５サラ
 41
0.8634387799999999
  0
TEXT
  5
2D4
  8
0
  6
CONTINUOUS
 62
     7
 10
-199.5
 20
13.285714
 30
0.0
 40
2.0
  1
23
 50
90.000003000000007
 41
1.0285716
  0
LINE
  5
2D5
  8
0
  6
CONTINUOUS
 62
     7
 10
-199.0
 20
3.5
 30
0.0
 11
-199.0
 21
15.0
 31
0.0
  0
CIRCLE
  5
2D6
  8
0
  6
CONTINUOUS
 62
     7
 10
-199.0
 20
3.5
 30
0.0
 40
0.3
  0
LINE
  5
2D7
  8
0
  6
CONTINUOUS
 62
     7
 10
-199.0
 20
26.5
 30
0.0
 11
-199.0
 21
15.0
 31
0.0
  0
CIRCLE
  5
2D8
  8
0
  6
CONTINUOUS
 62
     7
 10
-199.0
 20
26.5
 30
0.0
 40
0.3
  0
LINE
  5
2D9
  8
0
  6
CONTINUOUS
 62
     7
 10
-184.0
 20
3.5
 30
0.0
 11
-200.1999999999999
 21
3.5
 31
0.0
  0
LINE
  5
2DA
  8
0
  6
CONTINUOUS
 62
     7
 10
-184.0
 20
26.5
 30
0.0
 11
-200.1999999999999
 21
26.5
 31
0.0
  0
TEXT
  5
2DB
  8
0
  6
CONTINUOUS
 62
     7
 10
-111.71428999999991
 20
-11.0
 30
0.0
 40
2.0
  1
150
 41
1.221428699999999
  0
LINE
  5
2DC
  8
0
  6
CONTINUOUS
 62
     7
 10
-184.0
 20
-11.5
 30
0.0
 11
-109.0
 21
-11.5
 31
0.0
  0
CIRCLE
  5
2DD
  8
0
  6
CONTINUOUS
 62
     7
 10
-184.0
 20
-11.5
 30
0.0
 40
0.3
  0
LINE
  5
2DE
  8
0
  6
CONTINUOUS
 62
     7
 10
-34.0
 20
-11.5
 30
0.0
 11
-109.0
 21
-11.5
 31
0.0
  0
CIRCLE
  5
2DF
  8
0
  6
CONTINUOUS
 62
     7
 10
-34.0
 20
-11.5
 30
0.0
 40
0.3
  0
LINE
  5
2E0
  8
0
  6
CONTINUOUS
 62
     7
 10
-184.0
 20
3.5
 30
0.0
 11
-184.0
 21
-12.699999999999999
 31
0.0
  0
LINE
  5
2E1
  8
0
  6
CONTINUOUS
 62
     7
 10
-34.0
 20
-8.0
 30
0.0
 11
-34.0
 21
-12.699999999999999
 31
0.0
  0
LINE
  5
2E2
  8
0
  6
CONTINUOUS
 62
     7
 10
-129.03241
 20
207.99080000000001
 30
0.0
 11
-142.35431
 21
207.99080000000001
 31
0.0
  0
LINE
  5
2E3
  8
0
  6
CONTINUOUS
 62
     7
 10
-123.43303999999991
 20
193.42681999999991
 30
0.0
 11
-129.03241
 21
207.99080000000001
 31
0.0
  0
LINE
  5
2E4
  8
0
  6
CONTINUOUS
 62
     7
 10
-121.56697
 20
188.57318000000001
 30
0.0
 11
-123.43303999999991
 21
193.42681999999991
 31
0.0
  0
CIRCLE
  5
2E5
  8
0
  6
CONTINUOUS
 62
     7
 10
-121.56697
 20
188.57318000000001
 30
0.0
 40
0.3
  0
LINE
  5
2E6
  8
0
  6
CONTINUOUS
 62
     7
 10
-123.43303999999991
 20
193.42681999999991
 30
0.0
 11
-121.56697
 21
188.57318000000001
 31
0.0
  0
CIRCLE
  5
2E7
  8
0
  6
CONTINUOUS
 62
     7
 10
-123.43303999999991
 20
193.42681999999991
 30
0.0
 40
0.3
  0
TEXT
  5
2E8
  8
0
  6
CONTINUOUS
 62
     7
 10
-142.35429999999999
 20
208.49079999999989
 30
0.0
 40
2.0
  1
4-%%C5.2
 41
1.142857199999999
  0
TEXT
  5
2E9
  8
0
  6
CONTINUOUS
 62
     7
 10
-232.71428999999989
 20
-35.588608000000001
 30
0.0
 40
2.0
  1
30
 41
1.102041
  0
LINE
  5
2EA
  8
0
  6
CONTINUOUS
 62
     7
 10
-246.0
 20
-36.088608000000001
 30
0.0
 11
-231.0
 21
-36.088608000000001
 31
0.0
  0
CIRCLE
  5
2EB
  8
0
  6
CONTINUOUS
 62
     7
 10
-246.0
 20
-36.088608000000001
 30
0.0
 40
0.3
  0
LINE
  5
2EC
  8
0
  6
CONTINUOUS
 62
     7
 10
-216.0
 20
-36.088608000000001
 30
0.0
 11
-231.0
 21
-36.088608000000001
 31
0.0
  0
CIRCLE
  5
2ED
  8
0
  6
CONTINUOUS
 62
     7
 10
-216.0
 20
-36.088608000000001
 30
0.0
 40
0.3
  0
LINE
  5
2EE
  8
0
  6
CONTINUOUS
 62
     7
 10
-246.0
 20
-5.0
 30
0.0
 11
-246.0
 21
-37.288609000000001
 31
0.0
  0
LINE
  5
2EF
  8
0
  6
CONTINUOUS
 62
     7
 10
-216.0
 20
5.5
 30
0.0
 11
-216.0
 21
-37.288609000000001
 31
0.0
  0
LINE
  5
6DF
  8
0
  6
PHANTOM
 62
     7
 10
428.51373298430849
 20
247.89999
 30
0.0
 11
428.51373298430849
 21
153.5
 31
0.0
  0
LINE
  5
6E0
  8
0
  6
CENTER
 62
     7
 10
483.51373298430849
 20
281.0
 30
0.0
 11
483.51373298430849
 21
105.0
 31
0.0
  0
LINE
  5
6E1
  8
0
  6
CONTINUOUS
 62
     7
 10
469.5137329843086
 20
276.0
 30
0.0
 11
497.5137329843086
 21
276.0
 31
0.0
  0
LINE
  5
6E2
  8
0
  6
PHANTOM
 62
     7
 10
436.61374298430849
 20
233.0
 30
0.0
 11
462.51373298430849
 21
233.0
 31
0.0
  0
LINE
  5
6E3
  8
0
  6
CONTINUOUS
 62
     7
 10
467.5137329843086
 20
274.0
 30
0.0
 11
467.5137329843086
 21
233.0
 31
0.0
  0
LINE
  5
6E4
  8
0
  6
CONTINUOUS
 62
     7
 10
499.51373298430849
 20
274.0
 30
0.0
 11
499.51373298430849
 21
233.0
 31
0.0
  0
LINE
  5
6E5
  8
0
  6
CONTINUOUS
 62
     7
 10
769.5137329843086
 20
276.0
 30
0.0
 11
797.5137329843086
 21
276.0
 31
0.0
  0
LINE
  5
6E6
  8
0
  6
CONTINUOUS
 62
     7
 10
504.51373298430849
 20
233.0
 30
0.0
 11
504.51373298430849
 21
227.0
 31
0.0
  0
LINE
  5
6E7
  8
0
  6
CONTINUOUS
 62
     7
 10
462.51373298430849
 20
233.0
 30
0.0
 11
462.51373298430849
 21
227.0
 31
0.0
  0
LINE
  5
6E8
  8
0
  6
CONTINUOUS
 62
     7
 10
463.5137329843086
 20
226.0
 30
0.0
 11
503.51373298430849
 21
226.0
 31
0.0
  0
LINE
  5
6E9
  8
0
  6
CENTER
 62
     7
 10
477.5137329843086
 20
248.49999999999989
 30
0.0
 11
477.5137329843086
 21
233.49999999999989
 31
0.0
  0
LINE
  5
6EA
  8
0
  6
CENTER
 62
     7
 10
470.0137329843086
 20
241.0
 30
0.0
 11
485.0137329843086
 21
241.0
 31
0.0
  0
LINE
  5
6EB
  8
0
  6
CONTINUOUS
 62
     7
 10
462.51373298430849
 20
233.0
 30
0.0
 11
504.51373298430849
 21
233.0
 31
0.0
  0
LINE
  5
6EC
  8
0
  6
PHANTOM
 62
     7
 10
504.51373298430849
 20
233.0
 30
0.0
 11
514.48211298430863
 21
233.0
 31
0.0
  0
LINE
  5
6ED
  8
0
  6
CONTINUOUS
 62
     7
 10
486.5137329843086
 20
212.5
 30
0.0
 11
491.51373298430849
 21
212.5
 31
0.0
  0
LINE
  5
6EE
  8
0
  6
CONTINUOUS
 62
     7
 10
491.51373298430849
 20
212.5
 30
0.0
 11
491.51373298430849
 21
157.5
 31
0.0
  0
LINE
  5
6EF
  8
0
  6
CONTINUOUS
 62
     7
 10
475.5137329843086
 20
162.49997999999991
 30
0.0
 11
475.5137329843086
 21
157.5
 31
0.0
  0
LINE
  5
6F0
  8
0
  6
CONTINUOUS
 62
     7
 10
486.51346298430872
 20
212.50005999999991
 30
0.0
 11
475.5134629843086
 21
162.50008
 31
0.0
  0
LINE
  5
6F1
  8
0
  6
CONTINUOUS
 62
     7
 10
428.51373298430849
 20
-80.0
 30
0.0
 11
513.5137329843086
 21
-80.0
 31
0.0
  0
LINE
  5
6F2
  8
0
  6
CONTINUOUS
 62
     7
 10
428.51373298430849
 20
110.0
 30
0.0
 11
513.5137329843086
 21
110.0
 31
0.0
  0
LINE
  5
6F3
  8
0
  6
DASHED
 62
     7
 10
470.51373298430849
 20
118.75
 30
0.0
 11
496.5137329843086
 21
118.75
 31
0.0
  0
LINE
  5
6F4
  8
0
  6
CONTINUOUS
 62
     7
 10
432.51373298430849
 20
157.5
 30
0.0
 11
498.5137329843086
 21
157.5
 31
0.0
  0
LINE
  5
6F5
  8
0
  6
CONTINUOUS
 62
     7
 10
432.51373298430849
 20
153.5
 30
0.0
 11
498.5137329843086
 21
153.5
 31
0.0
  0
LINE
  5
6F6
  8
0
  6
CONTINUOUS
 62
     7
 10
432.51373298430849
 20
153.5
 30
0.0
 11
432.51373298430849
 21
127.5
 31
0.0
  0
LINE
  5
6F7
  8
0
  6
CONTINUOUS
 62
     7
 10
428.51373298430849
 20
127.5
 30
0.0
 11
432.51373298430849
 21
127.5
 31
0.0
  0
LINE
  5
6F8
  8
0
  6
CONTINUOUS
 62
     7
 10
498.5137329843086
 20
157.5
 30
0.0
 11
498.5137329843086
 21
153.5
 31
0.0
  0
LINE
  5
6F9
  8
0
  6
CONTINUOUS
 62
     7
 10
475.5137329843086
 20
153.5
 30
0.0
 11
475.5137329843086
 21
110.0
 31
0.0
  0
LINE
  5
6FA
  8
0
  6
CONTINUOUS
 62
     7
 10
491.51373298430849
 20
153.5
 30
0.0
 11
491.51373298430849
 21
110.0
 31
0.0
  0
LINE
  5
6FB
  8
0
  6
CENTER
 62
     7
 10
417.5137329843086
 20
142.5
 30
0.0
 11
437.51373298430849
 21
142.5
 31
0.0
  0
LINE
  5
6FC
  8
0
  6
CONTINUOUS
 62
     7
 10
430.81372298430858
 20
110.0
 30
0.0
 11
430.81372298430858
 21
-80.0
 31
0.0
  0
LINE
  5
6FD
  8
0
  6
CONTINUOUS
 62
     7
 10
513.5137329843086
 20
110.0
 30
0.0
 11
513.5137329843086
 21
-80.0
 31
0.0
  0
LINE
  5
6FE
  8
0
  6
PHANTOM
 62
     7
 10
428.51373298430849
 20
-80.0
 30
0.0
 11
428.51373298430849
 21
-95.0
 31
0.0
  0
LINE
  5
6FF
  8
0
  6
PHANTOM
 62
     7
 10
428.51373298430849
 20
127.5
 30
0.0
 11
428.51373298430849
 21
110.0
 31
0.0
  0
LINE
  5
700
  8
0
  6
CONTINUOUS
 62
     7
 10
428.51373298430849
 20
110.0
 30
0.0
 11
428.51373298430849
 21
-80.0
 31
0.0
  0
LINE
  5
701
  8
0
  6
CONTINUOUS
 62
     7
 10
428.51373298430849
 20
153.5
 30
0.0
 11
428.51373298430849
 21
127.5
 31
0.0
  0
LINE
  5
702
  8
0
  6
PHANTOM
 62
     7
 10
426.91372298430878
 20
247.89999
 30
0.0
 11
426.91372298430878
 21
-95.0
 31
0.0
  0
LINE
  5
703
  8
0
  6
CONTINUOUS
 62
     7
 10
838.5137329843086
 20
110.0
 30
0.0
 11
838.5137329843086
 21
-80.0
 31
0.0
  0
LINE
  5
704
  8
0
  6
CONTINUOUS
 62
     7
 10
698.5137329843086
 20
110.0
 30
0.0
 11
698.5137329843086
 21
26.5
 31
0.0
  0
LINE
  5
705
  8
0
  6
CONTINUOUS
 62
     7
 10
713.5137329843086
 20
110.0
 30
0.0
 11
713.5137329843086
 21
26.5
 31
0.0
  0
LINE
  5
706
  8
0
  6
CONTINUOUS
 62
     7
 10
823.5137329843086
 20
110.0
 30
0.0
 11
823.5137329843086
 21
-80.0
 31
0.0
  0
LINE
  5
707
  8
0
  6
CONTINUOUS
 62
     7
 10
698.5137329843086
 20
-80.0
 30
0.0
 11
838.5137329843086
 21
-80.0
 31
0.0
  0
LINE
  5
708
  8
0
  6
CONTINUOUS
 62
     7
 10
698.5137329843086
 20
110.0
 30
0.0
 11
838.5137329843086
 21
110.0
 31
0.0
  0
LINE
  5
709
  8
0
  6
CENTER
 62
     7
 10
783.5137329843086
 20
281.0
 30
0.0
 11
783.5137329843086
 21
105.0
 31
0.0
  0
LINE
  5
70A
  8
0
  6
CONTINUOUS
 62
     7
 10
775.5137329843086
 20
198.86362
 30
0.0
 11
775.5137329843086
 21
157.5
 31
0.0
  0
LINE
  5
70B
  8
0
  6
CONTINUOUS
 62
     7
 10
791.51373298430849
 20
198.86362
 30
0.0
 11
791.51373298430849
 21
157.5
 31
0.0
  0
LINE
  5
70C
  8
0
  6
CONTINUOUS
 62
     7
 10
776.09753428430861
 20
212.5
 30
0.0
 11
790.92993198430861
 21
212.5
 31
0.0
  0
LINE
  5
70D
  8
0
  6
CENTER
 62
     7
 10
767.5137329843086
 20
15.0
 30
0.0
 11
587.24382298430862
 21
15.0
 31
0.0
  0
LINE
  5
70E
  8
0
  6
CONTINUOUS
 62
     7
 10
768.5137329843086
 20
157.5
 30
0.0
 11
798.5137329843086
 21
157.5
 31
0.0
  0
LINE
  5
70F
  8
0
  6
CONTINUOUS
 62
     7
 10
768.5137329843086
 20
153.5
 30
0.0
 11
798.5137329843086
 21
153.5
 31
0.0
  0
LINE
  5
710
  8
0
  6
CONTINUOUS
 62
     7
 10
768.5137329843086
 20
127.5
 30
0.0
 11
775.5137329843086
 21
127.5
 31
0.0
  0
LINE
  5
711
  8
0
  6
CONTINUOUS
 62
     7
 10
768.5137329843086
 20
157.5
 30
0.0
 11
768.5137329843086
 21
127.5
 31
0.0
  0
LINE
  5
712
  8
0
  6
CONTINUOUS
 62
     7
 10
798.5137329843086
 20
157.5
 30
0.0
 11
798.5137329843086
 21
127.5
 31
0.0
  0
LINE
  5
713
  8
0
  6
DASHED
 62
     7
 10
770.51373298430849
 20
118.75
 30
0.0
 11
796.5137329843086
 21
118.75
 31
0.0
  0
LINE
  5
714
  8
0
  6
CONTINUOUS
 62
     7
 10
775.5137329843086
 20
153.5
 30
0.0
 11
775.5137329843086
 21
110.0
 31
0.0
  0
LINE
  5
715
  8
0
  6
CONTINUOUS
 62
     7
 10
791.51373298430849
 20
153.5
 30
0.0
 11
791.51373298430849
 21
110.0
 31
0.0
  0
LINE
  5
716
  8
0
  6
CENTER
 62
     7
 10
769.5137329843086
 20
142.5
 30
0.0
 11
780.5137329843086
 21
142.5
 31
0.0
  0
LINE
  5
717
  8
0
  6
CENTER
 62
     7
 10
786.5137329843086
 20
142.5
 30
0.0
 11
797.5137329843086
 21
142.5
 31
0.0
  0
LINE
  5
718
  8
0
  6
CONTINUOUS
 62
     7
 10
791.51373298430849
 20
127.5
 30
0.0
 11
798.5137329843086
 21
127.5
 31
0.0
  0
LINE
  5
719
  8
0
  6
CONTINUOUS
 62
     7
 10
745.51373298430849
 20
226.0
 30
0.0
 11
821.5137329843086
 21
226.0
 31
0.0
  0
LINE
  5
71A
  8
0
  6
CONTINUOUS
 62
     7
 10
744.5137329843086
 20
233.0
 30
0.0
 11
744.5137329843086
 21
227.0
 31
0.0
  0
LINE
  5
71B
  8
0
  6
CONTINUOUS
 62
     7
 10
822.5137329843086
 20
233.0
 30
0.0
 11
822.5137329843086
 21
227.0
 31
0.0
  0
LINE
  5
71C
  8
0
  6
CONTINUOUS
 62
     7
 10
744.5137329843086
 20
233.0
 30
0.0
 11
822.5137329843086
 21
233.0
 31
0.0
  0
LINE
  5
71D
  8
0
  6
PHANTOM
 62
     7
 10
822.5137329843086
 20
233.0
 30
0.0
 11
837.5137329843086
 21
233.0
 31
0.0
  0
LINE
  5
71E
  8
0
  6
CONTINUOUS
 62
     7
 10
767.5137329843086
 20
274.0
 30
0.0
 11
767.5137329843086
 21
233.0
 31
0.0
  0
LINE
  5
71F
  8
0
  6
CONTINUOUS
 62
     7
 10
799.51373298430849
 20
274.0
 30
0.0
 11
799.51373298430849
 21
233.0
 31
0.0
  0
LINE
  5
720
  8
0
  6
PHANTOM
 62
     7
 10
729.5137329843086
 20
233.0
 30
0.0
 11
744.5137329843086
 21
233.0
 31
0.0
  0
LINE
  5
721
  8
0
  6
PHANTOM
 62
     7
 10
729.5137329843086
 20
234.60000999999991
 30
0.0
 11
837.5137329843086
 21
234.60000999999991
 31
0.0
  0
LINE
  5
722
  8
0
  6
CENTER
 62
     7
 10
757.51373298430849
 20
243.0
 30
0.0
 11
757.51373298430849
 21
217.69999999999999
 31
0.0
  0
LINE
  5
723
  8
0
  6
CONTINUOUS
 62
     7
 10
756.0137329843086
 20
222.6999999999999
 30
0.0
 11
759.0137329843086
 21
222.6999999999999
 31
0.0
  0
LINE
  5
724
  8
0
  6
CONTINUOUS
 62
     7
 10
753.0137329843086
 20
226.0
 30
0.0
 11
753.0137329843086
 21
225.69999999999999
 31
0.0
  0
LINE
  5
725
  8
0
  6
CONTINUOUS
 62
     7
 10
762.01373298430849
 20
226.0
 30
0.0
 11
762.01373298430849
 21
225.69999999999999
 31
0.0
  0
LINE
  5
726
  8
0
  6
CONTINUOUS
 62
     7
 10
755.0137329843086
 20
238.0
 30
0.0
 11
760.0137329843086
 21
238.0
 31
0.0
  0
LINE
  5
727
  8
0
  6
CONTINUOUS
 62
     7
 10
760.0137329843086
 20
238.0
 30
0.0
 11
760.0137329843086
 21
233.0
 31
0.0
  0
LINE
  5
728
  8
0
  6
CONTINUOUS
 62
     7
 10
755.0137329843086
 20
238.0
 30
0.0
 11
755.0137329843086
 21
233.0
 31
0.0
  0
LINE
  5
729
  8
0
  6
CONTINUOUS
 62
     7
 10
755.41373498430858
 20
238.0
 30
0.0
 11
755.41373498430858
 21
233.0
 31
0.0
  0
LINE
  5
72A
  8
0
  6
CONTINUOUS
 62
     7
 10
759.61373098430863
 20
238.0
 30
0.0
 11
759.61373098430863
 21
233.0
 31
0.0
  0
LINE
  5
72B
  8
0
  6
CONTINUOUS
 62
     7
 10
807.41373498430858
 20
238.0
 30
0.0
 11
807.41373498430858
 21
233.0
 31
0.0
  0
LINE
  5
72C
  8
0
  6
CENTER
 62
     7
 10
809.51373298430849
 20
243.0
 30
0.0
 11
809.51373298430849
 21
217.69999999999999
 31
0.0
  0
LINE
  5
72D
  8
0
  6
CONTINUOUS
 62
     7
 10
811.0137329843086
 20
222.6999999999999
 30
0.0
 11
808.0137329843086
 21
222.6999999999999
 31
0.0
  0
LINE
  5
72E
  8
0
  6
CONTINUOUS
 62
     7
 10
814.01373298430849
 20
226.0
 30
0.0
 11
814.01373298430849
 21
225.69999999999999
 31
0.0
  0
LINE
  5
72F
  8
0
  6
CONTINUOUS
 62
     7
 10
805.01373298430849
 20
226.0
 30
0.0
 11
805.01373298430849
 21
225.69999999999999
 31
0.0
  0
LINE
  5
730
  8
0
  6
CONTINUOUS
 62
     7
 10
812.01373298430849
 20
238.0
 30
0.0
 11
807.0137329843086
 21
238.0
 31
0.0
  0
LINE
  5
731
  8
0
  6
CONTINUOUS
 62
     7
 10
807.0137329843086
 20
238.0
 30
0.0
 11
807.0137329843086
 21
233.0
 31
0.0
  0
LINE
  5
732
  8
0
  6
CONTINUOUS
 62
     7
 10
812.01373298430849
 20
238.0
 30
0.0
 11
812.01373298430849
 21
233.0
 31
0.0
  0
LINE
  5
733
  8
0
  6
CONTINUOUS
 62
     7
 10
811.6137309843084
 20
238.0
 30
0.0
 11
811.6137309843084
 21
233.0
 31
0.0
  0
LINE
  5
734
  8
0
  6
PHANTOM
 62
     7
 10
436.61374298430849
 20
234.60000999999991
 30
0.0
 11
514.48211298430863
 21
234.60000999999991
 31
0.0
  0
LINE
  5
735
  8
0
  6
CONTINUOUS
 62
     7
 10
422.5137329843086
 20
145.0
 30
0.0
 11
422.5137329843086
 21
140.0
 31
0.0
  0
LINE
  5
736
  8
0
  6
CONTINUOUS
 62
     7
 10
422.5137329843086
 20
145.0
 30
0.0
 11
428.51373298430849
 21
145.0
 31
0.0
  0
LINE
  5
737
  8
0
  6
CONTINUOUS
 62
     7
 10
422.5137329843086
 20
140.0
 30
0.0
 11
428.51373298430849
 21
140.0
 31
0.0
  0
LINE
  5
738
  8
0
  6
CONTINUOUS
 62
     7
 10
422.5137329843086
 20
144.60001
 30
0.0
 11
428.51373298430849
 21
144.60001
 31
0.0
  0
LINE
  5
739
  8
0
  6
CONTINUOUS
 62
     7
 10
422.5137329843086
 20
140.39999
 30
0.0
 11
428.51373298430849
 21
140.39999
 31
0.0
  0
LINE
  5
73A
  8
0
  6
CONTINUOUS
 62
     7
 10
472.5137329843086
 20
222.70000999999999
 30
0.0
 11
475.5137329843086
 21
222.70000999999999
 31
0.0
  0
LINE
  5
73B
  8
0
  6
CONTINUOUS
 62
     7
 10
469.5137329843086
 20
226.0
 30
0.0
 11
469.5137329843086
 21
225.69999999999999
 31
0.0
  0
LINE
  5
73C
  8
0
  6
CONTINUOUS
 62
     7
 10
478.51373298430849
 20
226.0
 30
0.0
 11
478.51373298430849
 21
225.69999999999999
 31
0.0
  0
LINE
  5
73D
  8
0
  6
CENTER
 62
     7
 10
474.0137329843086
 20
243.0
 30
0.0
 11
474.0137329843086
 21
217.69999999999999
 31
0.0
  0
LINE
  5
73E
  8
0
  6
CONTINUOUS
 62
     7
 10
471.91372298430849
 20
238.0
 30
0.0
 11
471.91372298430849
 21
233.0
 31
0.0
  0
LINE
  5
73F
  8
0
  6
CONTINUOUS
 62
     7
 10
471.5137329843086
 20
238.0
 30
0.0
 11
471.5137329843086
 21
233.0
 31
0.0
  0
LINE
  5
740
  8
0
  6
CONTINUOUS
 62
     7
 10
471.5137329843086
 20
238.0
 30
0.0
 11
476.5137329843086
 21
238.0
 31
0.0
  0
LINE
  5
741
  8
0
  6
CONTINUOUS
 62
     7
 10
476.1137429843086
 20
238.0
 30
0.0
 11
476.1137429843086
 21
233.0
 31
0.0
  0
LINE
  5
742
  8
0
  6
CONTINUOUS
 62
     7
 10
476.5137329843086
 20
238.0
 30
0.0
 11
476.5137329843086
 21
233.0
 31
0.0
  0
LINE
  5
743
  8
0
  6
CONTINUOUS
 62
     7
 10
491.51373298430849
 20
222.70000999999999
 30
0.0
 11
494.5137329843086
 21
222.70000999999999
 31
0.0
  0
LINE
  5
744
  8
0
  6
CONTINUOUS
 62
     7
 10
488.5137329843086
 20
226.0
 30
0.0
 11
488.5137329843086
 21
225.69999999999999
 31
0.0
  0
LINE
  5
745
  8
0
  6
CONTINUOUS
 62
     7
 10
497.5137329843086
 20
226.0
 30
0.0
 11
497.5137329843086
 21
225.69999999999999
 31
0.0
  0
LINE
  5
746
  8
0
  6
CENTER
 62
     7
 10
493.0137329843086
 20
243.0
 30
0.0
 11
493.0137329843086
 21
217.69999999999999
 31
0.0
  0
LINE
  5
747
  8
0
  6
CONTINUOUS
 62
     7
 10
490.91372298430861
 20
238.0
 30
0.0
 11
490.91372298430861
 21
233.0
 31
0.0
  0
LINE
  5
748
  8
0
  6
CONTINUOUS
 62
     7
 10
490.5137329843086
 20
238.0
 30
0.0
 11
490.5137329843086
 21
233.0
 31
0.0
  0
LINE
  5
749
  8
0
  6
CONTINUOUS
 62
     7
 10
490.5137329843086
 20
238.0
 30
0.0
 11
495.51373298430849
 21
238.0
 31
0.0
  0
LINE
  5
74A
  8
0
  6
CONTINUOUS
 62
     7
 10
495.11374298430849
 20
238.0
 30
0.0
 11
495.11374298430849
 21
233.0
 31
0.0
  0
LINE
  5
74B
  8
0
  6
CONTINUOUS
 62
     7
 10
495.51373298430849
 20
238.0
 30
0.0
 11
495.51373298430849
 21
233.0
 31
0.0
  0
LINE
  5
74C
  8
0
  6
CENTER
 62
     7
 10
682.0137329843086
 20
207.5
 30
0.0
 11
682.0137329843086
 21
155.4999999999998
 31
0.0
  0
LINE
  5
74D
  8
0
  6
CONTINUOUS
 62
     7
 10
643.01373298430872
 20
200.49999999999989
 30
0.0
 11
643.01373298430872
 21
162.5
 31
0.0
  0
LINE
  5
74E
  8
0
  6
CONTINUOUS
 62
     7
 10
721.01373298430849
 20
200.49999999999989
 30
0.0
 11
721.01373298430849
 21
162.5
 31
0.0
  0
LINE
  5
74F
  8
0
  6
CENTER
 62
     7
 10
638.0137329843086
 20
181.49999999999989
 30
0.0
 11
670.51373298430849
 21
181.49999999999989
 31
0.0
  0
LINE
  5
750
  8
0
  6
CONTINUOUS
 62
     7
 10
645.01373298430872
 20
202.49999999999989
 30
0.0
 11
719.0137329843086
 21
202.49999999999989
 31
0.0
  0
LINE
  5
751
  8
0
  6
CONTINUOUS
 62
     7
 10
645.01373298430872
 20
160.4999999999998
 30
0.0
 11
719.0137329843086
 21
160.4999999999998
 31
0.0
  0
LINE
  5
752
  8
0
  6
CONTINUOUS
 62
     7
 10
695.01373298430849
 20
192.5
 30
0.0
 11
695.01373298430849
 21
170.5
 31
0.0
  0
LINE
  5
753
  8
0
  6
CONTINUOUS
 62
     7
 10
669.01373298430872
 20
192.5
 30
0.0
 11
669.01373298430872
 21
170.5
 31
0.0
  0
LINE
  5
754
  8
0
  6
CONTINUOUS
 62
     7
 10
671.01373298430872
 20
194.5
 30
0.0
 11
693.0137329843086
 21
194.5
 31
0.0
  0
LINE
  5
755
  8
0
  6
CONTINUOUS
 62
     7
 10
671.01373298430872
 20
168.5
 30
0.0
 11
693.0137329843086
 21
168.5
 31
0.0
  0
LINE
  5
756
  8
0
  6
CENTER
 62
     7
 10
622.47638298430854
 20
175.5
 30
0.0
 11
700.01373298430849
 21
175.5
 31
0.0
  0
LINE
  5
757
  8
0
  6
CONTINUOUS
 62
     7
 10
670.01373298430872
 20
181.0
 30
0.0
 11
670.01373298430872
 21
170.0
 31
0.0
  0
LINE
  5
758
  8
0
  6
CONTINUOUS
 62
     7
 10
694.0137329843086
 20
181.0
 30
0.0
 11
694.0137329843086
 21
170.00002000000001
 31
0.0
  0
LINE
  5
759
  8
0
  6
CONTINUOUS
 62
     7
 10
670.51373298430849
 20
181.49999999999989
 30
0.0
 11
670.51373298430849
 21
169.5
 31
0.0
  0
LINE
  5
75A
  8
0
  6
CONTINUOUS
 62
     7
 10
693.5137329843086
 20
181.49999999999989
 30
0.0
 11
693.5137329843086
 21
169.5
 31
0.0
  0
LINE
  5
75B
  8
0
  6
CONTINUOUS
 62
     7
 10
670.51373298430849
 20
181.49999999999989
 30
0.0
 11
693.5137329843086
 21
181.49999999999989
 31
0.0
  0
LINE
  5
75C
  8
0
  6
CONTINUOUS
 62
     7
 10
670.51373298430849
 20
169.5
 30
0.0
 11
693.51371798430853
 21
169.5
 31
0.0
  0
LINE
  5
75D
  8
0
  6
CONTINUOUS
 62
     7
 10
670.01376298430864
 20
169.99996999999991
 30
0.0
 11
670.51376298430876
 21
169.49996999999991
 31
0.0
  0
LINE
  5
75E
  8
0
  6
CONTINUOUS
 62
     7
 10
694.01380898430864
 20
169.99991999999989
 30
0.0
 11
693.51380898430864
 21
169.4999199999998
 31
0.0
  0
LINE
  5
75F
  8
0
  6
CONTINUOUS
 62
     7
 10
693.51375598430855
 20
181.49996999999991
 30
0.0
 11
694.01375598430855
 21
180.99996999999991
 31
0.0
  0
LINE
  5
760
  8
0
  6
CONTINUOUS
 62
     7
 10
670.51378298430859
 20
181.49995000000001
 30
0.0
 11
670.01378298430859
 21
180.99995000000001
 31
0.0
  0
LINE
  5
761
  8
0
  6
CONTINUOUS
 62
     7
 10
669.01373298430872
 20
171.5
 30
0.0
 11
670.01373298430872
 21
171.5
 31
0.0
  0
LINE
  5
762
  8
0
  6
CONTINUOUS
 62
     7
 10
669.01373298430872
 20
179.49999999999989
 30
0.0
 11
670.01373298430872
 21
179.49999999999989
 31
0.0
  0
LINE
  5
763
  8
0
  6
CONTINUOUS
 62
     7
 10
694.0137329843086
 20
179.49999999999989
 30
0.0
 11
695.01373298430849
 21
179.49999999999989
 31
0.0
  0
LINE
  5
764
  8
0
  6
CONTINUOUS
 62
     7
 10
694.0137329843086
 20
171.5
 30
0.0
 11
695.01373298430849
 21
171.5
 31
0.0
  0
LINE
  5
765
  8
0
  6
CENTER
 62
     7
 10
651.0137329843086
 20
172.0
 30
0.0
 11
661.0137329843086
 21
172.0
 31
0.0
  0
LINE
  5
766
  8
0
  6
CENTER
 62
     7
 10
651.0137329843086
 20
191.0
 30
0.0
 11
661.0137329843086
 21
191.0
 31
0.0
  0
LINE
  5
767
  8
0
  6
CENTER
 62
     7
 10
703.0137329843086
 20
172.0
 30
0.0
 11
713.0137329843086
 21
172.0
 31
0.0
  0
LINE
  5
768
  8
0
  6
CENTER
 62
     7
 10
703.0137329843086
 20
191.0
 30
0.0
 11
713.0137329843086
 21
191.0
 31
0.0
  0
LINE
  5
769
  8
0
  6
CENTER
 62
     7
 10
693.5137329843086
 20
181.49999999999989
 30
0.0
 11
726.0137329843086
 21
181.49999999999989
 31
0.0
  0
LINE
  5
76A
  8
0
  6
DASHED
 62
     7
 10
649.0137329843086
 20
196.0
 30
0.0
 11
663.0137329843086
 21
196.0
 31
0.0
  0
LINE
  5
76B
  8
0
  6
DASHED
 62
     7
 10
649.0137329843086
 20
167.0
 30
0.0
 11
663.0137329843086
 21
167.0
 31
0.0
  0
LINE
  5
76C
  8
0
  6
DASHED
 62
     7
 10
663.0137329843086
 20
196.0
 30
0.0
 11
663.0137329843086
 21
167.0
 31
0.0
  0
LINE
  5
76D
  8
0
  6
DASHED
 62
     7
 10
649.0137329843086
 20
196.0
 30
0.0
 11
649.0137329843086
 21
167.0
 31
0.0
  0
LINE
  5
76E
  8
0
  6
DASHED
 62
     7
 10
715.0137329843086
 20
167.0
 30
0.0
 11
701.0137329843086
 21
167.0
 31
0.0
  0
LINE
  5
76F
  8
0
  6
DASHED
 62
     7
 10
701.0137329843086
 20
196.0
 30
0.0
 11
701.0137329843086
 21
167.0
 31
0.0
  0
LINE
  5
770
  8
0
  6
DASHED
 62
     7
 10
715.0137329843086
 20
196.0
 30
0.0
 11
715.0137329843086
 21
167.0
 31
0.0
  0
LINE
  5
771
  8
0
  6
DASHED
 62
     7
 10
715.0137329843086
 20
196.0
 30
0.0
 11
701.0137329843086
 21
196.0
 31
0.0
  0
LINE
  5
772
  8
0
  6
CENTER
 62
     7
 10
656.0137329843086
 20
201.0
 30
0.0
 11
656.0137329843086
 21
162.0
 31
0.0
  0
LINE
  5
773
  8
0
  6
PHANTOM
 62
     7
 10
413.5137329843086
 20
255.0
 30
0.0
 11
461.5137329843086
 21
255.0
 31
0.0
  0
LINE
  5
774
  8
0
  6
PHANTOM
 62
     7
 10
436.61374298430849
 20
236.20000999999999
 30
0.0
 11
461.5137329843086
 21
236.20000999999999
 31
0.0
  0
LINE
  5
775
  8
0
  6
PHANTOM
 62
     7
 10
461.5137329843086
 20
253.39998999999989
 30
0.0
 11
461.5137329843086
 21
236.20000999999999
 31
0.0
  0
LINE
  5
776
  8
0
  6
PHANTOM
 62
     7
 10
463.1137429843086
 20
253.39998999999989
 30
0.0
 11
463.1137429843086
 21
236.20000999999999
 31
0.0
  0
LINE
  5
777
  8
0
  6
PHANTOM
 62
     7
 10
413.5137329843086
 20
253.39998999999989
 30
0.0
 11
461.5137329843086
 21
253.39998999999989
 31
0.0
  0
LINE
  5
778
  8
0
  6
PHANTOM
 62
     7
 10
408.51373298430849
 20
249.39998999999989
 30
0.0
 11
441.91372298430861
 21
249.39998999999989
 31
0.0
  0
LINE
  5
779
  8
0
  6
PHANTOM
 62
     7
 10
428.51373298430849
 20
229.39999
 30
0.0
 11
430.01373298430877
 21
229.39999
 31
0.0
  0
LINE
  5
77A
  8
0
  6
PHANTOM
 62
     7
 10
403.51373298430849
 20
247.89999
 30
0.0
 11
441.91372298430861
 21
247.89999
 31
0.0
  0
LINE
  5
77B
  8
0
  6
PHANTOM
 62
     7
 10
430.01373298430877
 20
241.96875
 30
0.0
 11
430.01373298430877
 21
229.39999
 31
0.0
  0
LINE
  5
77C
  8
0
  6
PHANTOM
 62
     7
 10
408.51373298430849
 20
249.39998999999989
 30
0.0
 11
408.51373298430849
 21
247.89999
 31
0.0
  0
LINE
  5
77D
  8
0
  6
PHANTOM
 62
     7
 10
403.51373298430849
 20
245.59997999999999
 30
0.0
 11
424.6137429843086
 21
245.59997999999999
 31
0.0
  0
LINE
  5
77E
  8
0
  6
PHANTOM
 62
     7
 10
424.6137429843086
 20
245.59998999999999
 30
0.0
 11
424.6137429843086
 21
222.89999
 31
0.0
  0
LINE
  5
77F
  8
0
  6
PHANTOM
 62
     7
 10
424.6137429843086
 20
222.89999
 30
0.0
 11
426.91372298430878
 21
222.89999
 31
0.0
  0
LINE
  5
780
  8
0
  6
CENTER
 62
     7
 10
726.5137329843086
 20
102.0
 30
0.0
 11
726.5137329843086
 21
89.0
 31
0.0
  0
LINE
  5
781
  8
0
  6
CENTER
 62
     7
 10
720.01373298430849
 20
95.5
 30
0.0
 11
733.01373298430849
 21
95.5
 31
0.0
  0
LINE
  5
782
  8
0
  6
CENTER
 62
     7
 10
726.5137329843086
 20
-59.0
 30
0.0
 11
726.5137329843086
 21
-72.0
 31
0.0
  0
LINE
  5
783
  8
0
  6
CENTER
 62
     7
 10
720.01373298430849
 20
-65.5
 30
0.0
 11
733.01373298430849
 21
-65.5
 31
0.0
  0
LINE
  5
784
  8
0
  6
CENTER
 62
     7
 10
810.51373298430849
 20
-59.0
 30
0.0
 11
810.51373298430849
 21
-72.0
 31
0.0
  0
LINE
  5
785
  8
0
  6
CENTER
 62
     7
 10
804.01373298430849
 20
-65.5
 30
0.0
 11
817.0137329843086
 21
-65.5
 31
0.0
  0
LINE
  5
786
  8
0
  6
CENTER
 62
     7
 10
810.51373298430849
 20
102.0
 30
0.0
 11
810.51373298430849
 21
89.0
 31
0.0
  0
LINE
  5
787
  8
0
  6
CENTER
 62
     7
 10
804.01373298430849
 20
95.5
 30
0.0
 11
817.0137329843086
 21
95.5
 31
0.0
  0
LINE
  5
788
  8
0
  6
DASHED
 62
     7
 10
658.51373298430849
 20
181.89999
 30
0.0
 11
658.51373298430849
 21
181.10001
 31
0.0
  0
LINE
  5
789
  8
0
  6
DASHED
 62
     7
 10
653.51373298430849
 20
181.89999
 30
0.0
 11
653.51373298430849
 21
181.10001
 31
0.0
  0
LINE
  5
78A
  8
0
  6
DASHED
 62
     7
 10
655.61374298430871
 20
184.0
 30
0.0
 11
656.41372298430861
 21
184.0
 31
0.0
  0
LINE
  5
78B
  8
0
  6
DASHED
 62
     7
 10
655.61374298430871
 20
179.0
 30
0.0
 11
656.41372298430861
 21
179.0
 31
0.0
  0
LINE
  5
78C
  8
0
  6
DASHED
 62
     7
 10
655.61374298430871
 20
184.0
 30
0.0
 11
655.61374298430871
 21
183.39999
 31
0.0
  0
LINE
  5
78D
  8
0
  6
DASHED
 62
     7
 10
656.41372298430861
 20
184.0
 30
0.0
 11
656.41372298430861
 21
183.39999
 31
0.0
  0
LINE
  5
78E
  8
0
  6
DASHED
 62
     7
 10
653.51373298430849
 20
181.10001
 30
0.0
 11
654.11374298430871
 21
181.10001
 31
0.0
  0
LINE
  5
78F
  8
0
  6
DASHED
 62
     7
 10
653.51373298430849
 20
181.89999
 30
0.0
 11
654.11374298430871
 21
181.89999
 31
0.0
  0
LINE
  5
790
  8
0
  6
DASHED
 62
     7
 10
657.91372298430861
 20
181.89999
 30
0.0
 11
658.51373298430849
 21
181.89999
 31
0.0
  0
LINE
  5
791
  8
0
  6
DASHED
 62
     7
 10
655.61374298430871
 20
179.60001
 30
0.0
 11
655.61374298430871
 21
179.0
 31
0.0
  0
LINE
  5
792
  8
0
  6
DASHED
 62
     7
 10
656.41372298430861
 20
179.60001
 30
0.0
 11
656.41372298430861
 21
179.0
 31
0.0
  0
LINE
  5
793
  8
0
  6
DASHED
 62
     7
 10
657.91372298430861
 20
181.10001
 30
0.0
 11
658.51373298430849
 21
181.10001
 31
0.0
  0
LINE
  5
794
  8
0
  6
DASHED
 62
     7
 10
705.5137329843086
 20
181.89999
 30
0.0
 11
705.5137329843086
 21
181.10001
 31
0.0
  0
LINE
  5
795
  8
0
  6
DASHED
 62
     7
 10
710.5137329843086
 20
181.89999
 30
0.0
 11
710.5137329843086
 21
181.10001
 31
0.0
  0
LINE
  5
796
  8
0
  6
DASHED
 62
     7
 10
708.41372698430848
 20
184.0
 30
0.0
 11
707.6137389843085
 21
184.0
 31
0.0
  0
LINE
  5
797
  8
0
  6
DASHED
 62
     7
 10
708.41372698430848
 20
179.0
 30
0.0
 11
707.6137389843085
 21
179.0
 31
0.0
  0
LINE
  5
798
  8
0
  6
DASHED
 62
     7
 10
708.41372698430848
 20
184.0
 30
0.0
 11
708.41372698430848
 21
183.39999
 31
0.0
  0
LINE
  5
799
  8
0
  6
DASHED
 62
     7
 10
707.6137389843085
 20
184.0
 30
0.0
 11
707.6137389843085
 21
183.39999
 31
0.0
  0
LINE
  5
79A
  8
0
  6
DASHED
 62
     7
 10
710.5137329843086
 20
181.10001
 30
0.0
 11
709.9137269843086
 21
181.10001
 31
0.0
  0
LINE
  5
79B
  8
0
  6
DASHED
 62
     7
 10
710.5137329843086
 20
181.89999
 30
0.0
 11
709.9137269843086
 21
181.89999
 31
0.0
  0
LINE
  5
79C
  8
0
  6
DASHED
 62
     7
 10
706.11373898430861
 20
181.89999
 30
0.0
 11
705.5137329843086
 21
181.89999
 31
0.0
  0
LINE
  5
79D
  8
0
  6
DASHED
 62
     7
 10
708.41372698430848
 20
179.60001
 30
0.0
 11
708.41372698430848
 21
179.0
 31
0.0
  0
LINE
  5
79E
  8
0
  6
DASHED
 62
     7
 10
707.6137389843085
 20
179.60001
 30
0.0
 11
707.6137389843085
 21
179.0
 31
0.0
  0
LINE
  5
79F
  8
0
  6
DASHED
 62
     7
 10
706.11373898430861
 20
181.10001
 30
0.0
 11
705.5137329843086
 21
181.10001
 31
0.0
  0
LINE
  5
7A0
  8
0
  6
CONTINUOUS
 62
     7
 10
481.5137329843086
 20
238.24999999999989
 30
0.0
 11
481.5137329843086
 21
233.0
 31
0.0
  0
LINE
  5
7A1
  8
0
  6
CONTINUOUS
 62
     7
 10
485.5137329843086
 20
238.24999999999989
 30
0.0
 11
485.5137329843086
 21
233.0
 31
0.0
  0
LINE
  5
7A2
  8
0
  6
CONTINUOUS
 62
     7
 10
485.13373298430861
 20
238.24999999999989
 30
0.0
 11
485.13373298430861
 21
233.0
 31
0.0
  0
LINE
  5
7A3
  8
0
  6
CONTINUOUS
 62
     7
 10
481.8937329843086
 20
238.24999999999989
 30
0.0
 11
481.8937329843086
 21
233.0
 31
0.0
  0
LINE
  5
7A4
  8
0
  6
CONTINUOUS
 62
     7
 10
481.5137329843086
 20
238.24999999999989
 30
0.0
 11
485.5137329843086
 21
238.24999999999989
 31
0.0
  0
LINE
  5
7A5
  8
0
  6
CONTINUOUS
 62
     7
 10
755.5137329843086
 20
238.24999999999989
 30
0.0
 11
759.5137329843086
 21
238.24999999999989
 31
0.0
  0
LINE
  5
7A6
  8
0
  6
CONTINUOUS
 62
     7
 10
755.5137329843086
 20
238.24999999999989
 30
0.0
 11
755.5137329843086
 21
238.0
 31
0.0
  0
LINE
  5
7A7
  8
0
  6
CONTINUOUS
 62
     7
 10
759.5137329843086
 20
238.24999999999989
 30
0.0
 11
759.5137329843086
 21
238.0
 31
0.0
  0
LINE
  5
7A8
  8
0
  6
CONTINUOUS
 62
     7
 10
755.8937339843086
 20
238.24999999999989
 30
0.0
 11
755.8937339843086
 21
238.0
 31
0.0
  0
LINE
  5
7A9
  8
0
  6
CONTINUOUS
 62
     7
 10
759.13373198430861
 20
238.24999999999989
 30
0.0
 11
759.13373198430861
 21
238.0
 31
0.0
  0
LINE
  5
7AA
  8
0
  6
CONTINUOUS
 62
     7
 10
811.5137329843086
 20
238.24999999999989
 30
0.0
 11
811.5137329843086
 21
238.0
 31
0.0
  0
LINE
  5
7AB
  8
0
  6
CONTINUOUS
 62
     7
 10
811.13373198430861
 20
238.24999999999989
 30
0.0
 11
811.13373198430861
 21
238.0
 31
0.0
  0
LINE
  5
7AC
  8
0
  6
CONTINUOUS
 62
     7
 10
811.5137329843086
 20
238.24999999999989
 30
0.0
 11
807.51373298430849
 21
238.24999999999989
 31
0.0
  0
LINE
  5
7AD
  8
0
  6
CONTINUOUS
 62
     7
 10
807.8937339843086
 20
238.24999999999989
 30
0.0
 11
807.8937339843086
 21
238.0
 31
0.0
  0
LINE
  5
7AE
  8
0
  6
CONTINUOUS
 62
     7
 10
807.51373298430849
 20
238.24999999999989
 30
0.0
 11
807.51373298430849
 21
238.0
 31
0.0
  0
LINE
  5
7AF
  8
0
  6
CENTER
 62
     7
 10
706.0137329843086
 20
91.5
 30
0.0
 11
706.0137329843086
 21
78.5
 31
0.0
  0
LINE
  5
7B0
  8
0
  6
CENTER
 62
     7
 10
699.51373298430849
 20
85.0
 30
0.0
 11
712.51373298430849
 21
85.0
 31
0.0
  0
LINE
  5
7B1
  8
0
  6
CENTER
 62
     7
 10
831.01373298430849
 20
91.5
 30
0.0
 11
831.01373298430849
 21
78.5
 31
0.0
  0
LINE
  5
7B2
  8
0
  6
CENTER
 62
     7
 10
824.51373298430849
 20
85.0
 30
0.0
 11
837.5137329843086
 21
85.0
 31
0.0
  0
LINE
  5
7B3
  8
0
  6
CENTER
 62
     7
 10
831.01373298430849
 20
21.499999999999989
 30
0.0
 11
831.01373298430849
 21
8.5
 31
0.0
  0
LINE
  5
7B4
  8
0
  6
CENTER
 62
     7
 10
824.51373298430849
 20
15.0
 30
0.0
 11
837.5137329843086
 21
15.0
 31
0.0
  0
LINE
  5
7B5
  8
0
  6
CENTER
 62
     7
 10
831.01373298430849
 20
-48.5
 30
0.0
 11
831.01373298430849
 21
-61.5
 31
0.0
  0
LINE
  5
7B6
  8
0
  6
CENTER
 62
     7
 10
824.51373298430849
 20
-55.0
 30
0.0
 11
837.5137329843086
 21
-55.0
 31
0.0
  0
LINE
  5
7B7
  8
0
  6
CENTER
 62
     7
 10
706.0137329843086
 20
-48.5
 30
0.0
 11
706.0137329843086
 21
-61.5
 31
0.0
  0
LINE
  5
7B8
  8
0
  6
CENTER
 62
     7
 10
699.51373298430849
 20
-55.0
 30
0.0
 11
712.51373298430849
 21
-55.0
 31
0.0
  0
LINE
  5
7B9
  8
0
  6
CENTER
 62
     7
 10
508.51373298430849
 20
-65.5
 30
0.0
 11
522.41372298430861
 21
-65.5
 31
0.0
  0
LINE
  5
7BA
  8
0
  6
CONTINUOUS
 62
     7
 10
517.41372298430849
 20
-63.75
 30
0.0
 11
517.41372298430849
 21
-67.25
 31
0.0
  0
LINE
  5
7BB
  8
0
  6
CONTINUOUS
 62
     7
 10
513.5137329843086
 20
-70.75
 30
0.0
 11
513.91372298430849
 21
-70.75
 31
0.0
  0
LINE
  5
7BC
  8
0
  6
CONTINUOUS
 62
     7
 10
513.5137329843086
 20
-60.25
 30
0.0
 11
513.91372298430849
 21
-60.25
 31
0.0
  0
LINE
  5
7BD
  8
0
  6
CENTER
 62
     7
 10
508.51373298430849
 20
95.5
 30
0.0
 11
522.41372298430861
 21
95.5
 31
0.0
  0
LINE
  5
7BE
  8
0
  6
CONTINUOUS
 62
     7
 10
517.41372298430849
 20
97.250000000000014
 30
0.0
 11
517.41372298430849
 21
93.75
 31
0.0
  0
LINE
  5
7BF
  8
0
  6
CONTINUOUS
 62
     7
 10
513.5137329843086
 20
90.25
 30
0.0
 11
513.91372298430849
 21
90.25
 31
0.0
  0
LINE
  5
7C0
  8
0
  6
CONTINUOUS
 62
     7
 10
513.5137329843086
 20
100.75
 30
0.0
 11
513.91372298430849
 21
100.75
 31
0.0
  0
LINE
  5
7C1
  8
0
  6
CENTER
 62
     7
 10
415.81372298430853
 20
85.0
 30
0.0
 11
437.71371298430847
 21
85.0
 31
0.0
  0
LINE
  5
7C2
  8
0
  6
CONTINUOUS
 62
     7
 10
434.71371298430847
 20
86.75
 30
0.0
 11
434.71371298430847
 21
83.250000000000014
 31
0.0
  0
LINE
  5
7C3
  8
0
  6
CONTINUOUS
 62
     7
 10
430.81372298430858
 20
79.75
 30
0.0
 11
431.21371298430859
 21
79.75
 31
0.0
  0
LINE
  5
7C4
  8
0
  6
CONTINUOUS
 62
     7
 10
430.81372298430858
 20
90.25
 30
0.0
 11
431.21371298430859
 21
90.25
 31
0.0
  0
LINE
  5
7C5
  8
0
  6
CONTINUOUS
 62
     7
 10
418.81372298430858
 20
82.0
 30
0.0
 11
428.51373298430849
 21
82.0
 31
0.0
  0
LINE
  5
7C6
  8
0
  6
CONTINUOUS
 62
     7
 10
418.81372298430858
 20
88.0
 30
0.0
 11
428.51373298430849
 21
88.0
 31
0.0
  0
LINE
  5
7C7
  8
0
  6
CONTINUOUS
 62
     7
 10
418.81372298430858
 20
87.5
 30
0.0
 11
428.51373298430849
 21
87.5
 31
0.0
  0
LINE
  5
7C8
  8
0
  6
CONTINUOUS
 62
     7
 10
418.81372298430858
 20
82.5
 30
0.0
 11
428.51373298430849
 21
82.5
 31
0.0
  0
LINE
  5
7C9
  8
0
  6
CONTINUOUS
 62
     7
 10
418.81372298430858
 20
12.5
 30
0.0
 11
428.51373298430849
 21
12.5
 31
0.0
  0
LINE
  5
7CA
  8
0
  6
CENTER
 62
     7
 10
415.81372298430853
 20
15.0
 30
0.0
 11
437.71371298430847
 21
15.0
 31
0.0
  0
LINE
  5
7CB
  8
0
  6
CONTINUOUS
 62
     7
 10
434.71371298430847
 20
16.75
 30
0.0
 11
434.71371298430847
 21
13.25
 31
0.0
  0
LINE
  5
7CC
  8
0
  6
CONTINUOUS
 62
     7
 10
430.81372298430858
 20
9.75
 30
0.0
 11
431.21371298430859
 21
9.75
 31
0.0
  0
LINE
  5
7CD
  8
0
  6
CONTINUOUS
 62
     7
 10
430.81372298430858
 20
20.249999999999989
 30
0.0
 11
431.21371298430859
 21
20.249999999999989
 31
0.0
  0
LINE
  5
7CE
  8
0
  6
CONTINUOUS
 62
     7
 10
418.81372298430858
 20
12.0
 30
0.0
 11
428.51373298430849
 21
12.0
 31
0.0
  0
LINE
  5
7CF
  8
0
  6
CONTINUOUS
 62
     7
 10
418.81372298430858
 20
18.0
 30
0.0
 11
428.51373298430849
 21
18.0
 31
0.0
  0
LINE
  5
7D0
  8
0
  6
CONTINUOUS
 62
     7
 10
418.81372298430858
 20
17.5
 30
0.0
 11
428.51373298430849
 21
17.5
 31
0.0
  0
LINE
  5
7D1
  8
0
  6
CONTINUOUS
 62
     7
 10
418.81372298430858
 20
-57.5
 30
0.0
 11
428.51373298430849
 21
-57.5
 31
0.0
  0
LINE
  5
7D2
  8
0
  6
CENTER
 62
     7
 10
415.81372298430853
 20
-55.0
 30
0.0
 11
437.71371298430847
 21
-55.0
 31
0.0
  0
LINE
  5
7D3
  8
0
  6
CONTINUOUS
 62
     7
 10
434.71371298430847
 20
-53.25
 30
0.0
 11
434.71371298430847
 21
-56.75
 31
0.0
  0
LINE
  5
7D4
  8
0
  6
CONTINUOUS
 62
     7
 10
430.81372298430858
 20
-60.25
 30
0.0
 11
431.21371298430859
 21
-60.25
 31
0.0
  0
LINE
  5
7D5
  8
0
  6
CONTINUOUS
 62
     7
 10
430.81372298430858
 20
-49.75
 30
0.0
 11
431.21371298430859
 21
-49.75
 31
0.0
  0
LINE
  5
7D6
  8
0
  6
CONTINUOUS
 62
     7
 10
418.81372298430858
 20
-58.0
 30
0.0
 11
428.51373298430849
 21
-58.0
 31
0.0
  0
LINE
  5
7D7
  8
0
  6
CONTINUOUS
 62
     7
 10
418.81372298430858
 20
-52.0
 30
0.0
 11
428.51373298430849
 21
-52.0
 31
0.0
  0
LINE
  5
7D8
  8
0
  6
CONTINUOUS
 62
     7
 10
418.81372298430858
 20
-52.5
 30
0.0
 11
428.51373298430849
 21
-52.5
 31
0.0
  0
LINE
  5
7D9
  8
0
  6
CONTINUOUS
 62
     7
 10
418.81372298430858
 20
88.0
 30
0.0
 11
418.81372298430858
 21
82.0
 31
0.0
  0
LINE
  5
7DA
  8
0
  6
CONTINUOUS
 62
     7
 10
418.81372298430858
 20
18.0
 30
0.0
 11
418.81372298430858
 21
12.0
 31
0.0
  0
LINE
  5
7DB
  8
0
  6
CONTINUOUS
 62
     7
 10
418.81372298430858
 20
-52.0
 30
0.0
 11
418.81372298430858
 21
-58.0
 31
0.0
  0
LINE
  5
7DC
  8
0
  6
CONTINUOUS
 62
     7
 10
513.5137329843086
 20
35.0
 30
0.0
 11
513.5137329843086
 21
-5.0
 31
0.0
  0
LINE
  5
7DD
  8
0
  6
CENTER
 62
     7
 10
580.2511329843087
 20
15.0
 30
0.0
 11
511.5137329843086
 21
15.0
 31
0.0
  0
LINE
  5
7DE
  8
0
  6
CONTINUOUS
 62
     7
 10
698.5137329843086
 20
3.5
 30
0.0
 11
698.5137329843086
 21
-80.0
 31
0.0
  0
LINE
  5
7DF
  8
0
  6
CONTINUOUS
 62
     7
 10
713.5137329843086
 20
3.5
 30
0.0
 11
713.5137329843086
 21
-80.0
 31
0.0
  0
LINE
  5
7E0
  8
0
  6
CENTER
 62
     7
 10
744.5137329843086
 20
38.0
 30
0.0
 11
744.5137329843086
 21
-8.0
 31
0.0
  0
LINE
  5
7E1
  8
0
  6
CONTINUOUS
 62
     7
 10
572.5137329843086
 20
24.5
 30
0.0
 11
572.5137329843086
 21
5.5
 31
0.0
  0
LINE
  5
7E2
  8
0
  6
CONTINUOUS
 62
     7
 10
513.5137329843086
 20
-5.0
 30
0.0
 11
542.5137329843086
 21
-5.0
 31
0.0
  0
LINE
  5
7E3
  8
0
  6
CONTINUOUS
 62
     7
 10
513.5137329843086
 20
35.0
 30
0.0
 11
542.5137329843086
 21
35.0
 31
0.0
  0
LINE
  5
7E4
  8
0
  6
CONTINUOUS
 62
     7
 10
542.5137329843086
 20
35.0
 30
0.0
 11
542.5137329843086
 21
-5.0
 31
0.0
  0
LINE
  5
7E5
  8
0
  6
CONTINUOUS
 62
     7
 10
744.5137329843086
 20
3.5
 30
0.0
 11
596.5137329843086
 21
3.5
 31
0.0
  0
LINE
  5
7E6
  8
0
  6
CONTINUOUS
 62
     7
 10
744.5137329843086
 20
26.5
 30
0.0
 11
596.5137329843086
 21
26.5
 31
0.0
  0
LINE
  5
7E7
  8
0
  6
CONTINUOUS
 62
     7
 10
570.51373298430849
 20
3.5
 30
0.0
 11
544.5137329843086
 21
3.5
 31
0.0
  0
LINE
  5
7E8
  8
0
  6
CONTINUOUS
 62
     7
 10
570.51373298430849
 20
26.5
 30
0.0
 11
544.5137329843086
 21
26.5
 31
0.0
  0
LINE
  5
7E9
  8
0
  6
CONTINUOUS
 62
     7
 10
542.5137329843086
 20
-4.9999980999999991
 30
0.0
 11
571.08917298430845
 21
3.584572300000004
 31
0.0
  0
LINE
  5
7EA
  8
0
  6
CONTINUOUS
 62
     7
 10
542.51375298430855
 20
34.999991999999992
 30
0.0
 11
571.08917298430845
 21
26.415426
 31
0.0
  0
LINE
  5
7EB
  8
0
  6
CENTER
 62
     7
 10
708.01373298430849
 20
201.0
 30
0.0
 11
708.01373298430849
 21
162.0
 31
0.0
  0
LINE
  5
7EC
  8
0
  6
CONTINUOUS
 62
     7
 10
653.41373298430869
 20
194.39582999999999
 30
0.0
 11
653.41373298430869
 21
187.6041699999999
 31
0.0
  0
LINE
  5
7ED
  8
0
  6
CONTINUOUS
 62
     7
 10
658.61373298430863
 20
194.39582999999999
 30
0.0
 11
658.61373298430863
 21
187.6041699999999
 31
0.0
  0
LINE
  5
7EE
  8
0
  6
CONTINUOUS
 62
     7
 10
705.41373498430858
 20
194.39582999999999
 30
0.0
 11
705.41373498430858
 21
187.6041699999999
 31
0.0
  0
LINE
  5
7EF
  8
0
  6
CONTINUOUS
 62
     7
 10
710.61373098430863
 20
194.39582999999999
 30
0.0
 11
710.61373098430863
 21
187.6041699999999
 31
0.0
  0
LINE
  5
7F0
  8
0
  6
CONTINUOUS
 62
     7
 10
653.41373298430869
 20
175.39582999999999
 30
0.0
 11
653.41373298430869
 21
168.6041699999999
 31
0.0
  0
LINE
  5
7F1
  8
0
  6
CONTINUOUS
 62
     7
 10
658.61373298430863
 20
175.39582999999999
 30
0.0
 11
658.61373298430863
 21
168.6041699999999
 31
0.0
  0
LINE
  5
7F2
  8
0
  6
CONTINUOUS
 62
     7
 10
705.41373498430858
 20
175.39582999999999
 30
0.0
 11
705.41373498430858
 21
168.6041699999999
 31
0.0
  0
LINE
  5
7F3
  8
0
  6
CONTINUOUS
 62
     7
 10
710.61373098430863
 20
175.39582999999999
 30
0.0
 11
710.61373098430863
 21
168.6041699999999
 31
0.0
  0
LINE
  5
7F4
  8
0
  6
CONTINUOUS
 62
     7
 10
594.5137329843086
 20
24.5
 30
0.0
 11
594.5137329843086
 21
5.5
 31
0.0
  0
LINE
  5
7F5
  8
0
  6
PHANTOM
 62
     7
 10
430.01367298430853
 20
241.96892
 30
0.0
 11
442.71371298430847
 21
246.41435000000001
 31
0.0
  0
LINE
  5
7F6
  8
0
  6
PHANTOM
 62
     7
 10
429.26367298430858
 20
243.26799
 30
0.0
 11
441.96371298430859
 21
247.71339
 31
0.0
  0
ARC
  5
7F7
  8
0
  6
CONTINUOUS
 62
     7
 10
469.5137329843086
 20
274.0
 30
0.0
 40
2.0
 50
89.999982000000799
 51
179.99995999999999
  0
ARC
  5
7F8
  8
0
  6
CONTINUOUS
 62
     7
 10
497.5137329843086
 20
274.0
 30
0.0
 40
2.0
 50
0.0
 51
89.999982000000799
  0
CIRCLE
  5
7F9
  8
0
  6
DASHED
 62
     7
 10
477.5137329843086
 20
241.0
 30
0.0
 40
6.0
  0
ARC
  5
7FA
  8
0
  6
CONTINUOUS
 62
     7
 10
432.51373298430849
 20
153.5
 30
0.0
 40
4.0
 50
89.999982000000799
 51
179.99995999999999
  0
ARC
  5
7FB
  8
0
  6
CONTINUOUS
 62
     7
 10
769.5137329843086
 20
274.0
 30
0.0
 40
2.0
 50
89.999982000000799
 51
179.99995999999999
  0
ARC
  5
7FC
  8
0
  6
CONTINUOUS
 62
     7
 10
797.5137329843086
 20
274.0
 30
0.0
 40
2.0
 50
0.0
 51
89.999982000000799
  0
ARC
  5
7FD
  8
0
  6
CONTINUOUS
 62
     7
 10
745.51373298430849
 20
227.0
 30
0.0
 40
1.0
 50
179.9999799999996
 51
270.0000299999997
  0
ARC
  5
7FE
  8
0
  6
CONTINUOUS
 62
     7
 10
821.5137329843086
 20
227.0
 30
0.0
 40
1.0
 50
270.0000199999987
 51
0.0
  0
ARC
  5
7FF
  8
0
  6
CONTINUOUS
 62
     7
 10
756.0137329843086
 20
225.69999999999999
 30
0.0
 40
3.0
 50
179.9999799999996
 51
270.0000299999997
  0
ARC
  5
800
  8
0
  6
CONTINUOUS
 62
     7
 10
759.0137329843086
 20
225.69999999999999
 30
0.0
 40
3.0
 50
270.0000199999987
 51
0.0
  0
ARC
  5
801
  8
0
  6
CONTINUOUS
 62
     7
 10
808.0137329843086
 20
225.69999999999999
 30
0.0
 40
3.0
 50
179.99995999999999
 51
269.99995000000149
  0
ARC
  5
802
  8
0
  6
CONTINUOUS
 62
     7
 10
811.0137329843086
 20
225.69999999999999
 30
0.0
 40
3.0
 50
269.99995999999919
 51
0.0
  0
ARC
  5
803
  8
0
  6
CONTINUOUS
 62
     7
 10
463.5137329843086
 20
227.0
 30
0.0
 40
1.0
 50
179.9999799999996
 51
270.0000299999997
  0
ARC
  5
804
  8
0
  6
CONTINUOUS
 62
     7
 10
503.51373298430849
 20
227.0
 30
0.0
 40
1.0
 50
270.0000199999987
 51
0.0
  0
ARC
  5
805
  8
0
  6
CONTINUOUS
 62
     7
 10
472.5137329843086
 20
225.70000999999999
 30
0.0
 40
3.0
 50
179.9999799999996
 51
270.0000299999997
  0
ARC
  5
806
  8
0
  6
CONTINUOUS
 62
     7
 10
475.5137329843086
 20
225.70000999999999
 30
0.0
 40
3.0
 50
270.0000199999987
 51
0.0
  0
ARC
  5
807
  8
0
  6
CONTINUOUS
 62
     7
 10
491.51373298430849
 20
225.70000999999999
 30
0.0
 40
3.0
 50
179.9999799999996
 51
270.0000299999997
  0
ARC
  5
808
  8
0
  6
CONTINUOUS
 62
     7
 10
494.5137329843086
 20
225.70000999999999
 30
0.0
 40
3.0
 50
270.0000199999987
 51
0.0
  0
ARC
  5
809
  8
0
  6
CONTINUOUS
 62
     7
 10
645.01373298430872
 20
200.49999999999989
 30
0.0
 40
2.0
 50
89.999982000000799
 51
179.99995999999999
  0
ARC
  5
80A
  8
0
  6
CONTINUOUS
 62
     7
 10
645.01373298430872
 20
162.5
 30
0.0
 40
2.0
 50
179.9999799999996
 51
270.0000299999997
  0
ARC
  5
80B
  8
0
  6
CONTINUOUS
 62
     7
 10
719.0137329843086
 20
162.5
 30
0.0
 40
2.0
 50
270.0000199999987
 51
0.0
  0
ARC
  5
80C
  8
0
  6
CONTINUOUS
 62
     7
 10
719.0137329843086
 20
200.49999999999989
 30
0.0
 40
2.0
 50
0.0
 51
89.999982000000799
  0
ARC
  5
80D
  8
0
  6
CONTINUOUS
 62
     7
 10
671.01373298430872
 20
192.5
 30
0.0
 40
2.0
 50
89.999982000000799
 51
179.99995999999999
  0
ARC
  5
80E
  8
0
  6
CONTINUOUS
 62
     7
 10
671.01373298430872
 20
170.5
 30
0.0
 40
2.0
 50
179.9999799999996
 51
270.0000299999997
  0
ARC
  5
80F
  8
0
  6
CONTINUOUS
 62
     7
 10
693.0137329843086
 20
170.5
 30
0.0
 40
2.0
 50
270.0000199999987
 51
0.0
  0
ARC
  5
810
  8
0
  6
CONTINUOUS
 62
     7
 10
693.0137329843086
 20
192.5
 30
0.0
 40
2.0
 50
0.0
 51
89.999982000000799
  0
ARC
  5
811
  8
0
  6
PHANTOM
 62
     7
 10
436.61374298430849
 20
234.60000999999991
 30
0.0
 40
1.6000061000000001
 50
89.999982000000799
 51
270.0
  0
ARC
  5
812
  8
0
  6
PHANTOM
 62
     7
 10
461.5137329843086
 20
236.20000999999999
 30
0.0
 40
1.6000000000000001
 50
270.0000199999987
 51
0.0
  0
ARC
  5
813
  8
0
  6
PHANTOM
 62
     7
 10
461.5137329843086
 20
253.39998999999989
 30
0.0
 40
1.6000000000000001
 50
0.0
 51
89.999982000000799
  0
ARC
  5
814
  8
0
  6
PHANTOM
 62
     7
 10
441.91372298430861
 20
247.79998999999989
 30
0.0
 40
1.6000000000000001
 50
299.99971999999889
 51
89.999982000000799
  0
ARC
  5
815
  8
0
  6
PHANTOM
 62
     7
 10
441.91372298430861
 20
247.79998999999989
 30
0.0
 40
0.10000002
 50
299.99971999999889
 51
89.999982000000799
  0
ARC
  5
816
  8
0
  6
PHANTOM
 62
     7
 10
430.01373298430877
 20
241.96875
 30
0.0
 40
1.5
 50
119.99995000000079
 51
179.99995999999999
  0
ARC
  5
817
  8
0
  6
PHANTOM
 62
     7
 10
424.6137429843086
 20
245.59997999999999
 30
0.0
 40
2.299999999999998
 50
0.0
 51
89.999982000000799
  0
CIRCLE
  5
818
  8
0
  6
CONTINUOUS
 62
     7
 10
726.5137329843086
 20
95.5
 30
0.0
 40
5.25
  0
CIRCLE
  5
819
  8
0
  6
CONTINUOUS
 62
     7
 10
726.5137329843086
 20
-65.5
 30
0.0
 40
5.25
  0
CIRCLE
  5
81A
  8
0
  6
CONTINUOUS
 62
     7
 10
810.51373298430849
 20
-65.5
 30
0.0
 40
5.25
  0
CIRCLE
  5
81B
  8
0
  6
CONTINUOUS
 62
     7
 10
810.51373298430849
 20
95.5
 30
0.0
 40
5.25
  0
CIRCLE
  5
81C
  8
0
  6
DASHED
 62
     7
 10
656.0137329843086
 20
181.49999999999989
 30
0.0
 40
3.5
  0
ARC
  5
81D
  8
0
  6
CONTINUOUS
 62
     7
 10
656.0137329843086
 20
188.49999999999989
 30
0.0
 40
2.75
 50
199.01126999999951
 51
340.9887399999995
  0
ARC
  5
81E
  8
0
  6
CONTINUOUS
 62
     7
 10
656.0137329843086
 20
193.5
 30
0.0
 40
2.75
 50
19.011265000000339
 51
160.98873000000049
  0
ARC
  5
81F
  8
0
  6
CONTINUOUS
 62
     7
 10
656.0137329843086
 20
174.5
 30
0.0
 40
2.75
 50
19.011265000000339
 51
160.98873000000049
  0
ARC
  5
820
  8
0
  6
CONTINUOUS
 62
     7
 10
656.0137329843086
 20
169.5
 30
0.0
 40
2.75
 50
199.01126999999951
 51
340.9887399999995
  0
ARC
  5
821
  8
0
  6
CONTINUOUS
 62
     7
 10
708.01373298430849
 20
169.5
 30
0.0
 40
2.75
 50
199.01126999999951
 51
340.9887399999995
  0
ARC
  5
822
  8
0
  6
CONTINUOUS
 62
     7
 10
708.01373298430849
 20
174.5
 30
0.0
 40
2.75
 50
19.011265000000339
 51
160.98873000000049
  0
ARC
  5
823
  8
0
  6
CONTINUOUS
 62
     7
 10
708.01373298430849
 20
188.49999999999989
 30
0.0
 40
2.75
 50
199.01126999999951
 51
340.9887399999995
  0
ARC
  5
824
  8
0
  6
CONTINUOUS
 62
     7
 10
708.01373298430849
 20
193.5
 30
0.0
 40
2.75
 50
19.011265000000339
 51
160.98873000000049
  0
ARC
  5
825
  8
0
  6
DASHED
 62
     7
 10
654.11374298430871
 20
183.39999
 30
0.0
 40
1.5
 50
270.0000199999987
 51
0.0
  0
ARC
  5
826
  8
0
  6
DASHED
 62
     7
 10
657.91372298430861
 20
183.39999
 30
0.0
 40
1.5
 50
179.9999799999996
 51
270.0000299999997
  0
ARC
  5
827
  8
0
  6
DASHED
 62
     7
 10
657.91372298430861
 20
179.60001
 30
0.0
 40
1.5
 50
89.999982000000799
 51
179.99995999999999
  0
ARC
  5
828
  8
0
  6
DASHED
 62
     7
 10
654.11374298430871
 20
179.60001
 30
0.0
 40
1.5
 50
0.0
 51
89.999982000000799
  0
ARC
  5
829
  8
0
  6
DASHED
 62
     7
 10
706.11373898430861
 20
179.60001
 30
0.0
 40
1.5
 50
0.0
 51
89.999982000000799
  0
ARC
  5
82A
  8
0
  6
DASHED
 62
     7
 10
709.9137269843086
 20
179.60001
 30
0.0
 40
1.5
 50
89.999982000000799
 51
179.99995999999999
  0
CIRCLE
  5
82B
  8
0
  6
DASHED
 62
     7
 10
708.01373298430849
 20
181.49999999999989
 30
0.0
 40
3.5
  0
ARC
  5
82C
  8
0
  6
DASHED
 62
     7
 10
709.9137269843086
 20
183.39999
 30
0.0
 40
1.5
 50
179.99995999999999
 51
269.99995000000149
  0
ARC
  5
82D
  8
0
  6
DASHED
 62
     7
 10
706.11373898430861
 20
183.39999
 30
0.0
 40
1.5
 50
269.99995999999919
 51
0.0
  0
ARC
  5
82E
  8
0
  6
CONTINUOUS
 62
     7
 10
513.91372298430849
 20
-67.25
 30
0.0
 40
3.5
 50
270.0000199999987
 51
0.0
  0
ARC
  5
82F
  8
0
  6
CONTINUOUS
 62
     7
 10
513.91372298430849
 20
-63.75
 30
0.0
 40
3.5
 50
0.0
 51
89.999982000000799
  0
ARC
  5
830
  8
0
  6
CONTINUOUS
 62
     7
 10
513.91372298430849
 20
93.75
 30
0.0
 40
3.5
 50
270.0000199999987
 51
0.0
  0
ARC
  5
831
  8
0
  6
CONTINUOUS
 62
     7
 10
513.91372298430849
 20
97.250000000000014
 30
0.0
 40
3.5
 50
0.0
 51
89.999982000000799
  0
ARC
  5
832
  8
0
  6
CONTINUOUS
 62
     7
 10
431.21371298430859
 20
83.250000000000014
 30
0.0
 40
3.5
 50
270.0000199999987
 51
0.0
  0
ARC
  5
833
  8
0
  6
CONTINUOUS
 62
     7
 10
431.21371298430859
 20
86.75
 30
0.0
 40
3.5
 50
0.0
 51
89.999982000000799
  0
ARC
  5
834
  8
0
  6
CONTINUOUS
 62
     7
 10
431.21371298430859
 20
13.25
 30
0.0
 40
3.5
 50
270.0000199999987
 51
0.0
  0
ARC
  5
835
  8
0
  6
CONTINUOUS
 62
     7
 10
431.21371298430859
 20
16.75
 30
0.0
 40
3.5
 50
0.0
 51
89.999982000000799
  0
ARC
  5
836
  8
0
  6
CONTINUOUS
 62
     7
 10
431.21371298430859
 20
-56.75
 30
0.0
 40
3.5
 50
270.0000199999987
 51
0.0
  0
ARC
  5
837
  8
0
  6
CONTINUOUS
 62
     7
 10
431.21371298430859
 20
-53.25
 30
0.0
 40
3.5
 50
0.0
 51
89.999982000000799
  0
ARC
  5
838
  8
0
  6
CONTINUOUS
 62
     7
 10
744.5137329843086
 20
15.0
 30
0.0
 40
20.0
 50
215.09960999999919
 51
144.90039000000081
  0
ARC
  5
839
  8
0
  6
CONTINUOUS
 62
     7
 10
775.5137329843086
 20
142.5
 30
0.0
 40
5.0
 50
89.999982000000799
 51
270.0
  0
ARC
  5
83A
  8
0
  6
CONTINUOUS
 62
     7
 10
791.51373298430849
 20
142.5
 30
0.0
 40
5.0
 50
270.0000199999987
 51
89.999982000000799
  0
ARC
  5
83B
  8
0
  6
CONTINUOUS
 62
     7
 10
744.5137329843086
 20
15.0
 30
0.0
 40
11.5
 50
270.0000199999987
 51
89.999982000000799
  0
ARC
  5
83C
  8
0
  6
CONTINUOUS
 62
     7
 10
570.51373298430849
 20
24.5
 30
0.0
 40
2.0
 50
0.0
 51
89.999982000000799
  0
ARC
  5
83D
  8
0
  6
CONTINUOUS
 62
     7
 10
570.51373298430849
 20
5.5
 30
0.0
 40
2.0
 50
270.0000199999987
 51
0.0
  0
ARC
  5
83E
  8
0
  6
CONTINUOUS
 62
     7
 10
544.5137329843086
 20
5.5
 30
0.0
 40
2.0
 50
179.9999799999996
 51
270.0000299999997
  0
ARC
  5
83F
  8
0
  6
CONTINUOUS
 62
     7
 10
544.5137329843086
 20
24.5
 30
0.0
 40
2.0
 50
89.999982000000799
 51
179.99995999999999
  0
CIRCLE
  5
840
  8
0
  6
CONTINUOUS
 62
     7
 10
708.01373298430849
 20
191.0
 30
0.0
 40
2.599999899999998
  0
CIRCLE
  5
841
  8
0
  6
CONTINUOUS
 62
     7
 10
708.01373298430849
 20
172.0
 30
0.0
 40
2.599999899999998
  0
CIRCLE
  5
842
  8
0
  6
CONTINUOUS
 62
     7
 10
656.0137329843086
 20
172.0
 30
0.0
 40
2.599999899999998
  0
CIRCLE
  5
843
  8
0
  6
CONTINUOUS
 62
     7
 10
656.0137329843086
 20
191.0
 30
0.0
 40
2.599999899999998
  0
ARC
  5
844
  8
0
  6
CONTINUOUS
 62
     7
 10
775.5137329843086
 20
142.5
 30
0.0
 40
2.75
 50
90.000003000000945
 51
270.0
  0
ARC
  5
845
  8
0
  6
CONTINUOUS
 62
     7
 10
791.51373298430849
 20
142.5
 30
0.0
 40
2.75
 50
270.0
 51
90.000003000000945
  0
CIRCLE
  5
846
  8
0
  6
CONTINUOUS
 62
     7
 10
706.0137329843086
 20
-55.0
 30
0.0
 40
3.25
  0
CIRCLE
  5
847
  8
0
  6
CONTINUOUS
 62
     7
 10
706.0137329843086
 20
85.0
 30
0.0
 40
3.25
  0
CIRCLE
  5
848
  8
0
  6
CONTINUOUS
 62
     7
 10
831.01373298430849
 20
85.0
 30
0.0
 40
3.25
  0
CIRCLE
  5
849
  8
0
  6
CONTINUOUS
 62
     7
 10
831.01373298430849
 20
15.0
 30
0.0
 40
3.25
  0
CIRCLE
  5
84A
  8
0
  6
CONTINUOUS
 62
     7
 10
831.01373298430849
 20
-55.0
 30
0.0
 40
3.25
  0
ARC
  5
84B
  8
0
  6
CONTINUOUS
 62
     7
 10
596.5137329843086
 20
24.5
 30
0.0
 40
2.0
 50
90.000003000000945
 51
180.0000100000002
  0
ARC
  5
84C
  8
0
  6
CONTINUOUS
 62
     7
 10
596.5137329843086
 20
5.5
 30
0.0
 40
2.0
 50
179.9999899999998
 51
270.0
  0
ARC
  5
84D
  8
0
  6
CONTINUOUS
 62
     7
 10
429.51373298430849
 20
142.5
 30
0.0
 40
5.0
 50
306.86990000000162
 51
53.130102000000349
  0
POLYLINE
  5
84E
  8
0
  6
CONTINUOUS
 62
     7
 66
     1
 10
0.0
 20
0.0
 30
0.0
  0
VERTEX
  5
84F
  8
0
  6
CONTINUOUS
 62
     7
 10
776.09753428430861
 20
212.5
 30
0.0
 42
0.0045433417
  0
VERTEX
  5
850
  8
0
  6
CONTINUOUS
 62
     7
 10
775.88323718430854
 20
209.77782999999991
 30
0.0
 42
0.0031077418
  0
VERTEX
  5
851
  8
0
  6
CONTINUOUS
 62
     7
 10
775.76776508430862
 20
207.95452999999989
 30
0.0
 42
0.0037783832
  0
VERTEX
  5
852
  8
0
  6
CONTINUOUS
 62
     7
 10
775.65571308430845
 20
205.68830999999989
 30
0.0
 42
0.0035484738
  0
VERTEX
  5
853
  8
0
  6
CONTINUOUS
 62
     7
 10
775.57647708430852
 20
203.4090699999999
 30
0.0
 42
0.0027576421
  0
VERTEX
  5
854
  8
0
  6
CONTINUOUS
 62
     7
 10
775.53616378430854
 20
201.59415999999999
 30
0.0
 42
0.0042457186
  0
VERTEX
  5
855
  8
0
  6
CONTINUOUS
 62
     7
 10
775.5137329843086
 20
198.86362
 30
0.0
  0
SEQEND
  5
856
  8
0
 62
     7
  0
POLYLINE
  5
857
  8
0
  6
CONTINUOUS
 62
     7
 66
     1
 10
0.0
 20
0.0
 30
0.0
  0
VERTEX
  5
858
  8
0
  6
CONTINUOUS
 62
     7
 10
790.92993198430861
 20
212.5
 30
0.0
 42
-0.0045434002
  0
VERTEX
  5
859
  8
0
  6
CONTINUOUS
 62
     7
 10
791.1442289843086
 20
209.77782999999991
 30
0.0
 42
-0.0031078229
  0
VERTEX
  5
85A
  8
0
  6
CONTINUOUS
 62
     7
 10
791.25970098430855
 20
207.95452999999989
 30
0.0
 42
-0.0037784332
  0
VERTEX
  5
85B
  8
0
  6
CONTINUOUS
 62
     7
 10
791.37175198430862
 20
205.68830999999989
 30
0.0
 42
-0.0035483707
  0
VERTEX
  5
85C
  8
0
  6
CONTINUOUS
 62
     7
 10
791.45098698430854
 20
203.4090699999999
 30
0.0
 42
-0.0027575215
  0
VERTEX
  5
85D
  8
0
  6
CONTINUOUS
 62
     7
 10
791.49130098430862
 20
201.59415999999999
 30
0.0
 42
-0.0042455976
  0
VERTEX
  5
85E
  8
0
  6
CONTINUOUS
 62
     7
 10
791.51373298430849
 20
198.86362
 30
0.0
  0
SEQEND
  5
85F
  8
0
 62
     7
  0
TEXT
  5
860
  8
0
  6
CONTINUOUS
 62
     7
 10
618.23881298430854
 20
169.09994
 30
0.0
 40
3.2000000000000002
  1
調整寸法
 50
90.000003000000007
 41
0.85124966
  0
TEXT
  5
861
  8
0
  6
CONTINUOUS
 62
     7
 10
624.07638298430857
 20
188.93047999999999
 30
0.0
 40
3.2000000000000002
  1
2.5
 50
90.000003000000007
 41
1.3571429999999991
  0
TEXT
  5
862
  8
0
  6
CONTINUOUS
 62
     7
 10
624.0402129843086
 20
153.67712
 30
0.0
 40
3.2000000000000002
  1
2.5
 50
90.000003000000007
 41
1.3571429999999991
  0
LINE
  5
863
  8
0
  6
CONTINUOUS
 62
     7
 10
622.47638298430854
 20
180.49999999999989
 30
0.0
 11
622.47638298430854
 21
175.5
 31
0.0
  0
LINE
  5
864
  8
0
  6
CONTINUOUS
 62
     7
 10
622.47638298430854
 20
180.49999999999989
 30
0.0
 11
623.47638298430854
 21
177.5
 31
0.0
  0
LINE
  5
865
  8
0
  6
CONTINUOUS
 62
     7
 10
622.47638298430854
 20
180.49999999999989
 30
0.0
 11
621.47638298430854
 21
177.5
 31
0.0
  0
LINE
  5
866
  8
0
  6
CONTINUOUS
 62
     7
 10
622.47638298430854
 20
170.5
 30
0.0
 11
622.47638298430854
 21
175.5
 31
0.0
  0
LINE
  5
867
  8
0
  6
CONTINUOUS
 62
     7
 10
622.47638298430854
 20
170.5
 30
0.0
 11
621.47638298430854
 21
173.5
 31
0.0
  0
LINE
  5
868
  8
0
  6
CONTINUOUS
 62
     7
 10
622.47638298430854
 20
170.5
 30
0.0
 11
623.47638298430854
 21
173.5
 31
0.0
  0
TEXT
  5
869
  8
0
  6
CONTINUOUS
 62
     7
 10
807.78565798430861
 20
133.2865899999999
 30
0.0
 40
2.0
  1
15
 50
89.900002000000001
 41
1.2857145000000001
  0
LINE
  5
86A
  8
0
  6
CONTINUOUS
 62
     7
 10
808.28864898430868
 20
127.5
 30
0.0
 11
808.28864898430868
 21
135.0
 31
0.0
  0
CIRCLE
  5
86B
  8
0
  6
CONTINUOUS
 62
     7
 10
808.28864898430868
 20
127.5
 30
0.0
 40
0.3
  0
LINE
  5
86C
  8
0
  6
CONTINUOUS
 62
     7
 10
808.28864898430868
 20
142.5
 30
0.0
 11
808.28864898430868
 21
135.0
 31
0.0
  0
CIRCLE
  5
86D
  8
0
  6
CONTINUOUS
 62
     7
 10
808.28864898430868
 20
142.5
 30
0.0
 40
0.3
  0
LINE
  5
86E
  8
0
  6
CONTINUOUS
 62
     7
 10
798.5137329843086
 20
127.5
 30
0.0
 11
810.57464998430851
 21
127.5
 31
0.0
  0
LINE
  5
86F
  8
0
  6
CONTINUOUS
 62
     7
 10
797.5137329843086
 20
142.5
 30
0.0
 11
810.57464998430851
 21
142.5
 31
0.0
  0
TEXT
  5
870
  8
0
  6
CONTINUOUS
 62
     7
 10
807.78565798430861
 20
148.28658999999999
 30
0.0
 40
2.0
  1
15
 50
89.900002000000001
 41
1.2857145000000001
  0
LINE
  5
871
  8
0
  6
CONTINUOUS
 62
     7
 10
808.28864898430868
 20
142.5
 30
0.0
 11
808.28864898430868
 21
150.0
 31
0.0
  0
CIRCLE
  5
872
  8
0
  6
CONTINUOUS
 62
     7
 10
808.28864898430868
 20
142.5
 30
0.0
 40
0.3
  0
LINE
  5
873
  8
0
  6
CONTINUOUS
 62
     7
 10
808.28864898430868
 20
157.5
 30
0.0
 11
808.28864898430868
 21
150.0
 31
0.0
  0
CIRCLE
  5
874
  8
0
  6
CONTINUOUS
 62
     7
 10
808.28864898430868
 20
157.5
 30
0.0
 40
0.3
  0
LINE
  5
875
  8
0
  6
CONTINUOUS
 62
     7
 10
798.5137329843086
 20
157.5
 30
0.0
 11
810.57464998430851
 21
157.5
 31
0.0
  0
TEXT
  5
876
  8
0
  6
CONTINUOUS
 62
     7
 10
817.79458598430858
 20
140.78658999999999
 30
0.0
 40
2.0
  1
30
 50
89.900002000000001
 41
1.102041
  0
LINE
  5
877
  8
0
  6
CONTINUOUS
 62
     7
 10
818.29757698430865
 20
127.5
 30
0.0
 11
818.29757698430865
 21
142.5
 31
0.0
  0
CIRCLE
  5
878
  8
0
  6
CONTINUOUS
 62
     7
 10
818.29757698430865
 20
127.5
 30
0.0
 40
0.3
  0
LINE
  5
879
  8
0
  6
CONTINUOUS
 62
     7
 10
818.29757698430865
 20
157.5
 30
0.0
 11
818.29757698430865
 21
142.5
 31
0.0
  0
CIRCLE
  5
87A
  8
0
  6
CONTINUOUS
 62
     7
 10
818.29757698430865
 20
157.5
 30
0.0
 40
0.3
  0
LINE
  5
87B
  8
0
  6
CONTINUOUS
 62
     7
 10
798.5137329843086
 20
127.5
 30
0.0
 11
820.5835759843086
 21
127.5
 31
0.0
  0
LINE
  5
87C
  8
0
  6
CONTINUOUS
 62
     7
 10
798.5137329843086
 20
157.5
 30
0.0
 11
820.5835759843086
 21
157.5
 31
0.0
  0
TEXT
  5
87D
  8
0
  6
CONTINUOUS
 62
     7
 10
771.29944698430859
 20
168.04601999999991
 30
0.0
 40
2.0
  1
7
 41
1.071429
  0
LINE
  5
87E
  8
0
  6
CONTINUOUS
 62
     7
 10
768.5137329843086
 20
167.54602
 30
0.0
 11
772.0137329843086
 21
167.54602
 31
0.0
  0
CIRCLE
  5
87F
  8
0
  6
CONTINUOUS
 62
     7
 10
768.5137329843086
 20
167.54602
 30
0.0
 40
0.3
  0
LINE
  5
880
  8
0
  6
CONTINUOUS
 62
     7
 10
775.5137329843086
 20
167.54602
 30
0.0
 11
772.0137329843086
 21
167.54602
 31
0.0
  0
CIRCLE
  5
881
  8
0
  6
CONTINUOUS
 62
     7
 10
775.5137329843086
 20
167.54602
 30
0.0
 40
0.3
  0
LINE
  5
882
  8
0
  6
CONTINUOUS
 62
     7
 10
768.5137329843086
 20
157.5
 30
0.0
 11
768.5137329843086
 21
169.8320199999998
 31
0.0
  0
LINE
  5
883
  8
0
  6
CONTINUOUS
 62
     7
 10
775.5137329843086
 20
167.5
 30
0.0
 11
775.5137329843086
 21
169.8320199999998
 31
0.0
  0
TEXT
  5
884
  8
0
  6
CONTINUOUS
 62
     7
 10
781.79944698430847
 20
168.04601999999991
 30
0.0
 40
2.0
  1
16
 41
1.2857145000000001
  0
LINE
  5
885
  8
0
  6
CONTINUOUS
 62
     7
 10
775.5137329843086
 20
167.54602
 30
0.0
 11
783.5137329843086
 21
167.54602
 31
0.0
  0
CIRCLE
  5
886
  8
0
  6
CONTINUOUS
 62
     7
 10
775.5137329843086
 20
167.54602
 30
0.0
 40
0.3
  0
LINE
  5
887
  8
0
  6
CONTINUOUS
 62
     7
 10
791.51373298430849
 20
167.54602
 30
0.0
 11
783.5137329843086
 21
167.54602
 31
0.0
  0
CIRCLE
  5
888
  8
0
  6
CONTINUOUS
 62
     7
 10
791.51373298430849
 20
167.54602
 30
0.0
 40
0.3
  0
LINE
  5
889
  8
0
  6
CONTINUOUS
 62
     7
 10
791.51373298430849
 20
167.5
 30
0.0
 11
791.51373298430849
 21
169.8320199999998
 31
0.0
  0
TEXT
  5
88A
  8
0
  6
CONTINUOUS
 62
     7
 10
794.29944698430847
 20
168.04601999999991
 30
0.0
 40
2.0
  1
7
 41
1.071429
  0
LINE
  5
88B
  8
0
  6
CONTINUOUS
 62
     7
 10
791.51373298430849
 20
167.54602
 30
0.0
 11
795.01373298430849
 21
167.54602
 31
0.0
  0
CIRCLE
  5
88C
  8
0
  6
CONTINUOUS
 62
     7
 10
791.51373298430849
 20
167.54602
 30
0.0
 40
0.3
  0
LINE
  5
88D
  8
0
  6
CONTINUOUS
 62
     7
 10
798.5137329843086
 20
167.54602
 30
0.0
 11
795.01373298430849
 21
167.54602
 31
0.0
  0
CIRCLE
  5
88E
  8
0
  6
CONTINUOUS
 62
     7
 10
798.5137329843086
 20
167.54602
 30
0.0
 40
0.3
  0
LINE
  5
88F
  8
0
  6
CONTINUOUS
 62
     7
 10
798.5137329843086
 20
157.5
 30
0.0
 11
798.5137329843086
 21
169.8320199999998
 31
0.0
  0
TEXT
  5
890
  8
0
  6
CONTINUOUS
 62
     7
 10
781.79944698430847
 20
178.08095
 30
0.0
 40
2.0
  1
30
 41
1.102041
  0
LINE
  5
891
  8
0
  6
CONTINUOUS
 62
     7
 10
768.5137329843086
 20
177.58095
 30
0.0
 11
783.5137329843086
 21
177.58095
 31
0.0
  0
CIRCLE
  5
892
  8
0
  6
CONTINUOUS
 62
     7
 10
768.5137329843086
 20
177.58095
 30
0.0
 40
0.3
  0
LINE
  5
893
  8
0
  6
CONTINUOUS
 62
     7
 10
798.5137329843086
 20
177.58095
 30
0.0
 11
783.5137329843086
 21
177.58095
 31
0.0
  0
CIRCLE
  5
894
  8
0
  6
CONTINUOUS
 62
     7
 10
798.5137329843086
 20
177.58095
 30
0.0
 40
0.3
  0
LINE
  5
895
  8
0
  6
CONTINUOUS
 62
     7
 10
768.5137329843086
 20
157.5
 30
0.0
 11
768.5137329843086
 21
179.86694
 31
0.0
  0
LINE
  5
896
  8
0
  6
CONTINUOUS
 62
     7
 10
798.5137329843086
 20
157.5
 30
0.0
 11
798.5137329843086
 21
179.86694
 31
0.0
  0
TEXT
  5
897
  8
0
  6
CONTINUOUS
 62
     7
 10
494.83103298430871
 20
144.01711999999981
 30
0.0
 40
2.0
  1
%%C16
 41
1.163265399999998
  0
LINE
  5
898
  8
0
  6
CONTINUOUS
 62
     7
 10
475.5137329843086
 20
143.51712000000001
 30
0.0
 11
483.51373298430849
 21
143.51712000000001
 31
0.0
  0
LINE
  5
899
  8
0
  6
CONTINUOUS
 62
     7
 10
483.51373298430849
 20
143.51712000000001
 30
0.0
 11
500.2596129843086
 21
143.51712000000001
 31
0.0
  0
CIRCLE
  5
89A
  8
0
  6
CONTINUOUS
 62
     7
 10
475.5137329843086
 20
143.51712000000001
 30
0.0
 40
0.3
  0
LINE
  5
89B
  8
0
  6
CONTINUOUS
 62
     7
 10
491.51373298430849
 20
143.51712000000001
 30
0.0
 11
483.51373298430849
 21
143.51712000000001
 31
0.0
  0
CIRCLE
  5
89C
  8
0
  6
CONTINUOUS
 62
     7
 10
491.51373298430849
 20
143.51712000000001
 30
0.0
 40
0.3
  0
LINE
  5
89D
  8
0
  6
CONTINUOUS
 62
     7
 10
475.5137329843086
 20
143.5
 30
0.0
 11
475.5137329843086
 21
144.71711999999991
 31
0.0
  0
LINE
  5
89E
  8
0
  6
CONTINUOUS
 62
     7
 10
491.51373298430849
 20
143.5
 30
0.0
 11
491.51373298430849
 21
144.71711999999991
 31
0.0
  0
TEXT
  5
89F
  8
0
  6
CONTINUOUS
 62
     7
 10
513.98087298430846
 20
228.7865899999999
 30
0.0
 40
2.0
  1
7
 50
89.900002000000001
 41
1.071429
  0
LINE
  5
8A0
  8
0
  6
CONTINUOUS
 62
     7
 10
514.48211298430863
 20
226.0
 30
0.0
 11
514.48211298430863
 21
229.49999999999989
 31
0.0
  0
CIRCLE
  5
8A1
  8
0
  6
CONTINUOUS
 62
     7
 10
514.48211298430863
 20
226.0
 30
0.0
 40
0.3
  0
LINE
  5
8A2
  8
0
  6
CONTINUOUS
 62
     7
 10
514.48211298430863
 20
233.0
 30
0.0
 11
514.48211298430863
 21
229.49999999999989
 31
0.0
  0
CIRCLE
  5
8A3
  8
0
  6
CONTINUOUS
 62
     7
 10
514.48211298430863
 20
233.0
 30
0.0
 40
0.3
  0
LINE
  5
8A4
  8
0
  6
CONTINUOUS
 62
     7
 10
503.51373298430849
 20
226.0
 30
0.0
 11
516.76812298430855
 21
226.0
 31
0.0
  0
LINE
  5
8A5
  8
0
  6
CONTINUOUS
 62
     7
 10
514.5137329843086
 20
233.0
 30
0.0
 11
512.1961029843086
 21
233.0
 31
0.0
  0
TEXT
  5
8A6
  8
0
  6
CONTINUOUS
 62
     7
 10
513.97912298430856
 20
252.78658999999999
 30
0.0
 40
2.0
  1
43
 50
89.900002000000001
 41
1.0285716
  0
LINE
  5
8A7
  8
0
  6
CONTINUOUS
 62
     7
 10
514.48211298430863
 20
233.0
 30
0.0
 11
514.48211298430863
 21
254.49999999999989
 31
0.0
  0
CIRCLE
  5
8A8
  8
0
  6
CONTINUOUS
 62
     7
 10
514.48211298430863
 20
233.0
 30
0.0
 40
0.3
  0
LINE
  5
8A9
  8
0
  6
CONTINUOUS
 62
     7
 10
514.48211298430863
 20
276.0
 30
0.0
 11
514.48211298430863
 21
254.49999999999989
 31
0.0
  0
CIRCLE
  5
8AA
  8
0
  6
CONTINUOUS
 62
     7
 10
514.48211298430863
 20
276.0
 30
0.0
 40
0.3
  0
LINE
  5
8AB
  8
0
  6
CONTINUOUS
 62
     7
 10
497.5137329843086
 20
276.0
 30
0.0
 11
516.76812298430855
 21
276.0
 31
0.0
  0
TEXT
  5
8AC
  8
0
  6
CONTINUOUS
 62
     7
 10
481.7994429843086
 20
286.66005999999987
 30
0.0
 40
2.0
  1
32
 41
1.0285716
  0
LINE
  5
8AD
  8
0
  6
CONTINUOUS
 62
     7
 10
467.5137329843086
 20
286.16005999999999
 30
0.0
 11
483.51373298430849
 21
286.16005999999999
 31
0.0
  0
CIRCLE
  5
8AE
  8
0
  6
CONTINUOUS
 62
     7
 10
467.5137329843086
 20
286.16005999999999
 30
0.0
 40
0.3
  0
LINE
  5
8AF
  8
0
  6
CONTINUOUS
 62
     7
 10
499.51373298430849
 20
286.16005999999999
 30
0.0
 11
483.51373298430849
 21
286.16005999999999
 31
0.0
  0
CIRCLE
  5
8B0
  8
0
  6
CONTINUOUS
 62
     7
 10
499.51373298430849
 20
286.16005999999999
 30
0.0
 40
0.3
  0
LINE
  5
8B1
  8
0
  6
CONTINUOUS
 62
     7
 10
467.5137329843086
 20
274.0
 30
0.0
 11
467.5137329843086
 21
288.44607999999988
 31
0.0
  0
LINE
  5
8B2
  8
0
  6
CONTINUOUS
 62
     7
 10
499.51373298430849
 20
274.0
 30
0.0
 11
499.51373298430849
 21
288.44607999999988
 31
0.0
  0
TEXT
  5
8B3
  8
0
  6
CONTINUOUS
 62
     7
 10
528.92957298430872
 20
226.78659999999999
 30
0.0
 40
2.0
  1
ストロ－ク　５０ｍ／ｍ
 50
89.900002000000001
 41
0.8440876599999999
  0
LINE
  5
8B4
  8
0
  6
CONTINUOUS
 62
     7
 10
529.44827298430846
 20
212.5
 30
0.0
 11
529.44827298430846
 21
237.5
 31
0.0
  0
CIRCLE
  5
8B5
  8
0
  6
CONTINUOUS
 62
     7
 10
529.44827298430846
 20
212.5
 30
0.0
 40
0.3
  0
LINE
  5
8B6
  8
0
  6
CONTINUOUS
 62
     7
 10
529.44827298430846
 20
262.5
 30
0.0
 11
529.44827298430846
 21
237.5
 31
0.0
  0
CIRCLE
  5
8B7
  8
0
  6
CONTINUOUS
 62
     7
 10
529.44827298430846
 20
262.5
 30
0.0
 40
0.3
  0
LINE
  5
8B8
  8
0
  6
CONTINUOUS
 62
     7
 10
491.51373298430849
 20
212.5
 30
0.0
 11
531.73425298430857
 21
212.5
 31
0.0
  0
LINE
  5
8B9
  8
0
  6
CONTINUOUS
 62
     7
 10
529.51373298430849
 20
262.5
 30
0.0
 11
527.16229298430846
 21
262.5
 31
0.0
  0
TEXT
  5
8BA
  8
0
  6
CONTINUOUS
 62
     7
 10
781.79944698430847
 20
286.46190999999999
 30
0.0
 40
2.0
  1
32
 41
1.0285716
  0
LINE
  5
8BB
  8
0
  6
CONTINUOUS
 62
     7
 10
767.5137329843086
 20
285.96190999999988
 30
0.0
 11
783.5137329843086
 21
285.96190999999988
 31
0.0
  0
CIRCLE
  5
8BC
  8
0
  6
CONTINUOUS
 62
     7
 10
767.5137329843086
 20
285.96190999999988
 30
0.0
 40
0.3
  0
LINE
  5
8BD
  8
0
  6
CONTINUOUS
 62
     7
 10
799.51373298430849
 20
285.96190999999988
 30
0.0
 11
783.5137329843086
 21
285.96190999999988
 31
0.0
  0
CIRCLE
  5
8BE
  8
0
  6
CONTINUOUS
 62
     7
 10
799.51373298430849
 20
285.96190999999988
 30
0.0
 40
0.3
  0
LINE
  5
8BF
  8
0
  6
CONTINUOUS
 62
     7
 10
767.5137329843086
 20
274.0
 30
0.0
 11
767.5137329843086
 21
288.24792000000002
 31
0.0
  0
LINE
  5
8C0
  8
0
  6
CONTINUOUS
 62
     7
 10
799.51373298430849
 20
274.0
 30
0.0
 11
799.51373298430849
 21
288.24792000000002
 31
0.0
  0
TEXT
  5
8C1
  8
0
  6
CONTINUOUS
 62
     7
 10
632.59094298430875
 20
177.7865899999999
 30
0.0
 40
2.0
  1
6
 50
89.900002000000001
 41
1.071429
  0
LINE
  5
8C2
  8
0
  6
CONTINUOUS
 62
     7
 10
633.09219298430855
 20
181.49999999999989
 30
0.0
 11
633.09219298430855
 21
178.5
 31
0.0
  0
CIRCLE
  5
8C3
  8
0
  6
CONTINUOUS
 62
     7
 10
633.09219298430855
 20
181.49999999999989
 30
0.0
 40
0.3
  0
LINE
  5
8C4
  8
0
  6
CONTINUOUS
 62
     7
 10
633.09219298430855
 20
175.5
 30
0.0
 11
633.09219298430855
 21
178.5
 31
0.0
  0
CIRCLE
  5
8C5
  8
0
  6
CONTINUOUS
 62
     7
 10
633.09219298430855
 20
175.5
 30
0.0
 40
0.3
  0
LINE
  5
8C6
  8
0
  6
CONTINUOUS
 62
     7
 10
638.0137329843086
 20
181.49999999999989
 30
0.0
 11
630.80620298430858
 21
181.49999999999989
 31
0.0
  0
TEXT
  5
8C7
  8
0
  6
CONTINUOUS
 62
     7
 10
647.79944298430871
 20
151.15450999999999
 30
0.0
 40
2.0
  1
13
 41
1.2857145000000001
  0
LINE
  5
8C8
  8
0
  6
CONTINUOUS
 62
     7
 10
643.01373298430872
 20
150.65450999999999
 30
0.0
 11
649.51373298430849
 21
150.65450999999999
 31
0.0
  0
CIRCLE
  5
8C9
  8
0
  6
CONTINUOUS
 62
     7
 10
643.01373298430872
 20
150.65450999999999
 30
0.0
 40
0.3
  0
LINE
  5
8CA
  8
0
  6
CONTINUOUS
 62
     7
 10
656.0137329843086
 20
150.65450999999999
 30
0.0
 11
649.51373298430849
 21
150.65450999999999
 31
0.0
  0
CIRCLE
  5
8CB
  8
0
  6
CONTINUOUS
 62
     7
 10
656.0137329843086
 20
150.65450999999999
 30
0.0
 40
0.3
  0
LINE
  5
8CC
  8
0
  6
CONTINUOUS
 62
     7
 10
643.01373298430872
 20
162.5
 30
0.0
 11
643.01373298430872
 21
148.3685199999999
 31
0.0
  0
LINE
  5
8CD
  8
0
  6
CONTINUOUS
 62
     7
 10
656.0137329843086
 20
162.0
 30
0.0
 11
656.0137329843086
 21
148.3685199999999
 31
0.0
  0
TEXT
  5
8CE
  8
0
  6
CONTINUOUS
 62
     7
 10
680.29944698430859
 20
151.15450999999999
 30
0.0
 40
2.0
  1
52
 41
1.0285716
  0
LINE
  5
8CF
  8
0
  6
CONTINUOUS
 62
     7
 10
656.0137329843086
 20
150.65450999999999
 30
0.0
 11
682.0137329843086
 21
150.65450999999999
 31
0.0
  0
CIRCLE
  5
8D0
  8
0
  6
CONTINUOUS
 62
     7
 10
656.0137329843086
 20
150.65450999999999
 30
0.0
 40
0.3
  0
LINE
  5
8D1
  8
0
  6
CONTINUOUS
 62
     7
 10
708.01373298430849
 20
150.65450999999999
 30
0.0
 11
682.0137329843086
 21
150.65450999999999
 31
0.0
  0
CIRCLE
  5
8D2
  8
0
  6
CONTINUOUS
 62
     7
 10
708.01373298430849
 20
150.65450999999999
 30
0.0
 40
0.3
  0
LINE
  5
8D3
  8
0
  6
CONTINUOUS
 62
     7
 10
708.01373298430849
 20
162.0
 30
0.0
 11
708.01373298430849
 21
148.3685199999999
 31
0.0
  0
TEXT
  5
8D4
  8
0
  6
CONTINUOUS
 62
     7
 10
712.79944698430859
 20
151.15450999999999
 30
0.0
 40
2.0
  1
13
 41
1.2857145000000001
  0
LINE
  5
8D5
  8
0
  6
CONTINUOUS
 62
     7
 10
708.01373298430849
 20
150.65450999999999
 30
0.0
 11
714.5137329843086
 21
150.65450999999999
 31
0.0
  0
CIRCLE
  5
8D6
  8
0
  6
CONTINUOUS
 62
     7
 10
708.01373298430849
 20
150.65450999999999
 30
0.0
 40
0.3
  0
LINE
  5
8D7
  8
0
  6
CONTINUOUS
 62
     7
 10
721.01373298430849
 20
150.65450999999999
 30
0.0
 11
714.5137329843086
 21
150.65450999999999
 31
0.0
  0
CIRCLE
  5
8D8
  8
0
  6
CONTINUOUS
 62
     7
 10
721.01373298430849
 20
150.65450999999999
 30
0.0
 40
0.3
  0
LINE
  5
8D9
  8
0
  6
CONTINUOUS
 62
     7
 10
721.01373298430849
 20
162.5
 30
0.0
 11
721.01373298430849
 21
148.3685199999999
 31
0.0
  0
TEXT
  5
8DA
  8
0
  6
CONTINUOUS
 62
     7
 10
680.29944698430859
 20
141.29896999999991
 30
0.0
 40
2.0
  1
78
 41
1.0285716
  0
LINE
  5
8DB
  8
0
  6
CONTINUOUS
 62
     7
 10
643.01373298430872
 20
140.79896999999991
 30
0.0
 11
682.0137329843086
 21
140.79896999999991
 31
0.0
  0
CIRCLE
  5
8DC
  8
0
  6
CONTINUOUS
 62
     7
 10
643.01373298430872
 20
140.79896999999991
 30
0.0
 40
0.3
  0
LINE
  5
8DD
  8
0
  6
CONTINUOUS
 62
     7
 10
721.01373298430849
 20
140.79896999999991
 30
0.0
 11
682.0137329843086
 21
140.79896999999991
 31
0.0
  0
CIRCLE
  5
8DE
  8
0
  6
CONTINUOUS
 62
     7
 10
721.01373298430849
 20
140.79896999999991
 30
0.0
 40
0.3
  0
LINE
  5
8DF
  8
0
  6
CONTINUOUS
 62
     7
 10
643.01373298430872
 20
162.5
 30
0.0
 11
643.01373298430872
 21
138.51297
 31
0.0
  0
LINE
  5
8E0
  8
0
  6
CONTINUOUS
 62
     7
 10
721.01373298430849
 20
162.5
 30
0.0
 11
721.01373298430849
 21
138.51297
 31
0.0
  0
TEXT
  5
8E1
  8
0
  6
CONTINUOUS
 62
     7
 10
740.2301869843086
 20
162.53570999999999
 30
0.0
 40
2.0
  1
11.5
 50
90.000003000000007
 41
1.5918368999999979
  0
LINE
  5
8E2
  8
0
  6
CONTINUOUS
 62
     7
 10
740.73018698430849
 20
160.4999999999998
 30
0.0
 11
740.73018698430849
 21
166.25
 31
0.0
  0
CIRCLE
  5
8E3
  8
0
  6
CONTINUOUS
 62
     7
 10
740.73018698430849
 20
160.4999999999998
 30
0.0
 40
0.3
  0
LINE
  5
8E4
  8
0
  6
CONTINUOUS
 62
     7
 10
740.73018698430849
 20
172.0
 30
0.0
 11
740.73018698430849
 21
166.25
 31
0.0
  0
CIRCLE
  5
8E5
  8
0
  6
CONTINUOUS
 62
     7
 10
740.73018698430849
 20
172.0
 30
0.0
 40
0.3
  0
LINE
  5
8E6
  8
0
  6
CONTINUOUS
 62
     7
 10
719.0137329843086
 20
160.4999999999998
 30
0.0
 11
741.93018398430866
 21
160.4999999999998
 31
0.0
  0
LINE
  5
8E7
  8
0
  6
CONTINUOUS
 62
     7
 10
713.0137329843086
 20
172.0
 30
0.0
 11
741.93018398430866
 21
172.0
 31
0.0
  0
TEXT
  5
8E8
  8
0
  6
CONTINUOUS
 62
     7
 10
740.22719498430854
 20
179.7865899999999
 30
0.0
 40
2.0
  1
19
 50
89.900002000000001
 41
1.2857145000000001
  0
LINE
  5
8E9
  8
0
  6
CONTINUOUS
 62
     7
 10
740.73018698430849
 20
172.0
 30
0.0
 11
740.73018698430849
 21
181.49999999999989
 31
0.0
  0
CIRCLE
  5
8EA
  8
0
  6
CONTINUOUS
 62
     7
 10
740.73018698430849
 20
172.0
 30
0.0
 40
0.3
  0
LINE
  5
8EB
  8
0
  6
CONTINUOUS
 62
     7
 10
740.73018698430849
 20
191.0
 30
0.0
 11
740.73018698430849
 21
181.49999999999989
 31
0.0
  0
CIRCLE
  5
8EC
  8
0
  6
CONTINUOUS
 62
     7
 10
740.73018698430849
 20
191.0
 30
0.0
 40
0.3
  0
LINE
  5
8ED
  8
0
  6
CONTINUOUS
 62
     7
 10
713.0137329843086
 20
191.0
 30
0.0
 11
743.01618998430865
 21
191.0
 31
0.0
  0
TEXT
  5
8EE
  8
0
  6
CONTINUOUS
 62
     7
 10
740.2301869843086
 20
193.03570999999999
 30
0.0
 40
2.0
  1
11.5
 50
90.000003000000007
 41
1.5918368999999979
  0
LINE
  5
8EF
  8
0
  6
CONTINUOUS
 62
     7
 10
740.73018698430849
 20
191.0
 30
0.0
 11
740.73018698430849
 21
196.75
 31
0.0
  0
CIRCLE
  5
8F0
  8
0
  6
CONTINUOUS
 62
     7
 10
740.73018698430849
 20
191.0
 30
0.0
 40
0.3
  0
LINE
  5
8F1
  8
0
  6
CONTINUOUS
 62
     7
 10
740.73018698430849
 20
202.49999999999989
 30
0.0
 11
740.73018698430849
 21
196.75
 31
0.0
  0
CIRCLE
  5
8F2
  8
0
  6
CONTINUOUS
 62
     7
 10
740.73018698430849
 20
202.49999999999989
 30
0.0
 40
0.3
  0
LINE
  5
8F3
  8
0
  6
CONTINUOUS
 62
     7
 10
719.0137329843086
 20
202.49999999999989
 30
0.0
 11
741.93018398430866
 21
202.49999999999989
 31
0.0
  0
TEXT
  5
8F4
  8
0
  6
CONTINUOUS
 62
     7
 10
750.27598498430848
 20
179.7865899999999
 30
0.0
 40
2.0
  1
42
 50
89.900002000000001
 41
1.0285716
  0
LINE
  5
8F5
  8
0
  6
CONTINUOUS
 62
     7
 10
750.77897698430854
 20
160.4999999999998
 30
0.0
 11
750.77897698430854
 21
181.49999999999989
 31
0.0
  0
CIRCLE
  5
8F6
  8
0
  6
CONTINUOUS
 62
     7
 10
750.77897698430854
 20
160.4999999999998
 30
0.0
 40
0.3
  0
LINE
  5
8F7
  8
0
  6
CONTINUOUS
 62
     7
 10
750.77897698430854
 20
202.49999999999989
 30
0.0
 11
750.77897698430854
 21
181.49999999999989
 31
0.0
  0
CIRCLE
  5
8F8
  8
0
  6
CONTINUOUS
 62
     7
 10
750.77897698430854
 20
202.49999999999989
 30
0.0
 40
0.3
  0
LINE
  5
8F9
  8
0
  6
CONTINUOUS
 62
     7
 10
719.0137329843086
 20
160.4999999999998
 30
0.0
 11
753.06497998430859
 21
160.4999999999998
 31
0.0
  0
LINE
  5
8FA
  8
0
  6
CONTINUOUS
 62
     7
 10
719.0137329843086
 20
202.49999999999989
 30
0.0
 11
753.06497998430859
 21
202.49999999999989
 31
0.0
  0
TEXT
  5
8FB
  8
0
  6
CONTINUOUS
 62
     7
 10
730.17665998430857
 20
174.03658999999999
 30
0.0
 40
2.0
  1
9.5
 50
89.900002000000001
 41
1.3571429999999991
  0
LINE
  5
8FC
  8
0
  6
CONTINUOUS
 62
     7
 10
730.68139698430855
 20
172.0
 30
0.0
 11
730.68139698430855
 21
176.75
 31
0.0
  0
CIRCLE
  5
8FD
  8
0
  6
CONTINUOUS
 62
     7
 10
730.68139698430855
 20
172.0
 30
0.0
 40
0.3
  0
LINE
  5
8FE
  8
0
  6
CONTINUOUS
 62
     7
 10
730.68139698430855
 20
181.49999999999989
 30
0.0
 11
730.68139698430855
 21
176.75
 31
0.0
  0
CIRCLE
  5
8FF
  8
0
  6
CONTINUOUS
 62
     7
 10
730.68139698430855
 20
181.49999999999989
 30
0.0
 40
0.3
  0
LINE
  5
900
  8
0
  6
CONTINUOUS
 62
     7
 10
713.0137329843086
 20
172.0
 30
0.0
 11
732.9673999843086
 21
172.0
 31
0.0
  0
LINE
  5
901
  8
0
  6
CONTINUOUS
 62
     7
 10
726.0137329843086
 20
181.49999999999989
 30
0.0
 11
732.9673999843086
 21
181.49999999999989
 31
0.0
  0
TEXT
  5
902
  8
0
  6
CONTINUOUS
 62
     7
 10
730.17665998430857
 20
183.53658999999999
 30
0.0
 40
2.0
  1
9.5
 50
89.900002000000001
 41
1.3571429999999991
  0
LINE
  5
903
  8
0
  6
CONTINUOUS
 62
     7
 10
730.68139698430855
 20
181.49999999999989
 30
0.0
 11
730.68139698430855
 21
186.25
 31
0.0
  0
CIRCLE
  5
904
  8
0
  6
CONTINUOUS
 62
     7
 10
730.68139698430855
 20
181.49999999999989
 30
0.0
 40
0.3
  0
LINE
  5
905
  8
0
  6
CONTINUOUS
 62
     7
 10
730.68139698430855
 20
191.0
 30
0.0
 11
730.68139698430855
 21
186.25
 31
0.0
  0
CIRCLE
  5
906
  8
0
  6
CONTINUOUS
 62
     7
 10
730.68139698430855
 20
191.0
 30
0.0
 40
0.3
  0
LINE
  5
907
  8
0
  6
CONTINUOUS
 62
     7
 10
713.0137329843086
 20
191.0
 30
0.0
 11
732.9673999843086
 21
191.0
 31
0.0
  0
TEXT
  5
908
  8
0
  6
CONTINUOUS
 62
     7
 10
765.79944698430847
 20
-89.376617000000024
 30
0.0
 40
2.0
  1
140
 41
1.221428699999999
  0
LINE
  5
909
  8
0
  6
CONTINUOUS
 62
     7
 10
698.5137329843086
 20
-89.876617000000024
 30
0.0
 11
768.5137329843086
 21
-89.876617000000024
 31
0.0
  0
CIRCLE
  5
90A
  8
0
  6
CONTINUOUS
 62
     7
 10
698.5137329843086
 20
-89.876617000000024
 30
0.0
 40
0.3
  0
LINE
  5
90B
  8
0
  6
CONTINUOUS
 62
     7
 10
838.5137329843086
 20
-89.876617000000024
 30
0.0
 11
768.5137329843086
 21
-89.876617000000024
 31
0.0
  0
CIRCLE
  5
90C
  8
0
  6
CONTINUOUS
 62
     7
 10
838.5137329843086
 20
-89.876617000000024
 30
0.0
 40
0.3
  0
LINE
  5
90D
  8
0
  6
CONTINUOUS
 62
     7
 10
698.5137329843086
 20
-80.0
 30
0.0
 11
698.5137329843086
 21
-92.162620999999987
 31
0.0
  0
LINE
  5
90E
  8
0
  6
CONTINUOUS
 62
     7
 10
838.5137329843086
 20
-80.0
 30
0.0
 11
838.5137329843086
 21
-92.162620999999987
 31
0.0
  0
TEXT
  5
90F
  8
0
  6
CONTINUOUS
 62
     7
 10
746.79944698430859
 20
80.750000000000014
 30
0.0
 40
2.0
  1
70
 41
1.102041
  0
LINE
  5
910
  8
0
  6
CONTINUOUS
 62
     7
 10
713.5137329843086
 20
80.25
 30
0.0
 11
748.5137329843086
 21
80.25
 31
0.0
  0
CIRCLE
  5
911
  8
0
  6
CONTINUOUS
 62
     7
 10
713.5137329843086
 20
80.25
 30
0.0
 40
0.3
  0
LINE
  5
912
  8
0
  6
CONTINUOUS
 62
     7
 10
783.5137329843086
 20
80.25
 30
0.0
 11
748.5137329843086
 21
80.25
 31
0.0
  0
CIRCLE
  5
913
  8
0
  6
CONTINUOUS
 62
     7
 10
783.5137329843086
 20
80.25
 30
0.0
 40
0.3
  0
LINE
  5
914
  8
0
  6
CONTINUOUS
 62
     7
 10
713.5137329843086
 20
80.25
 30
0.0
 11
713.5137329843086
 21
79.866348000000016
 31
0.0
  0
LINE
  5
915
  8
0
  6
CONTINUOUS
 62
     7
 10
783.5137329843086
 20
105.0
 30
0.0
 11
783.5137329843086
 21
77.963996999999978
 31
0.0
  0
TEXT
  5
916
  8
0
  6
CONTINUOUS
 62
     7
 10
801.79944698430847
 20
80.750000000000014
 30
0.0
 40
2.0
  1
40
 41
1.102041
  0
LINE
  5
917
  8
0
  6
CONTINUOUS
 62
     7
 10
783.5137329843086
 20
80.25
 30
0.0
 11
803.5137329843086
 21
80.25
 31
0.0
  0
CIRCLE
  5
918
  8
0
  6
CONTINUOUS
 62
     7
 10
783.5137329843086
 20
80.25
 30
0.0
 40
0.3
  0
LINE
  5
919
  8
0
  6
CONTINUOUS
 62
     7
 10
823.5137329843086
 20
80.25
 30
0.0
 11
803.5137329843086
 21
80.25
 31
0.0
  0
CIRCLE
  5
91A
  8
0
  6
CONTINUOUS
 62
     7
 10
823.5137329843086
 20
80.25
 30
0.0
 40
0.3
  0
LINE
  5
91B
  8
0
  6
CONTINUOUS
 62
     7
 10
823.5137329843086
 20
80.25
 30
0.0
 11
823.5137329843086
 21
78.954795999999973
 31
0.0
  0
TEXT
  5
91C
  8
0
  6
CONTINUOUS
 62
     7
 10
762.29944698430847
 20
70.771362000000011
 30
0.0
 40
2.0
  1
39
 41
1.0285716
  0
LINE
  5
91D
  8
0
  6
CONTINUOUS
 62
     7
 10
744.5137329843086
 20
70.271362000000011
 30
0.0
 11
764.0137329843086
 21
70.271362000000011
 31
0.0
  0
CIRCLE
  5
91E
  8
0
  6
CONTINUOUS
 62
     7
 10
744.5137329843086
 20
70.271362000000011
 30
0.0
 40
0.3
  0
LINE
  5
91F
  8
0
  6
CONTINUOUS
 62
     7
 10
783.5137329843086
 20
70.271362000000011
 30
0.0
 11
764.0137329843086
 21
70.271362000000011
 31
0.0
  0
CIRCLE
  5
920
  8
0
  6
CONTINUOUS
 62
     7
 10
783.5137329843086
 20
70.271362000000011
 30
0.0
 40
0.3
  0
LINE
  5
921
  8
0
  6
CONTINUOUS
 62
     7
 10
744.5137329843086
 20
45.0
 30
0.0
 11
744.5137329843086
 21
72.557365000000004
 31
0.0
  0
LINE
  5
922
  8
0
  6
CONTINUOUS
 62
     7
 10
783.5137329843086
 20
105.0
 30
0.0
 11
783.5137329843086
 21
67.985359000000017
 31
0.0
  0
TEXT
  5
923
  8
0
  6
CONTINUOUS
 62
     7
 10
765.79944698430847
 20
-50.0
 30
0.0
 40
2.0
  1
110
 41
1.436974999999999
  0
LINE
  5
924
  8
0
  6
CONTINUOUS
 62
     7
 10
713.5137329843086
 20
-50.5
 30
0.0
 11
768.5137329843086
 21
-50.5
 31
0.0
  0
CIRCLE
  5
925
  8
0
  6
CONTINUOUS
 62
     7
 10
713.5137329843086
 20
-50.5
 30
0.0
 40
0.3
  0
LINE
  5
926
  8
0
  6
CONTINUOUS
 62
     7
 10
823.5137329843086
 20
-50.5
 30
0.0
 11
768.5137329843086
 21
-50.5
 31
0.0
  0
CIRCLE
  5
927
  8
0
  6
CONTINUOUS
 62
     7
 10
823.5137329843086
 20
-50.5
 30
0.0
 40
0.3
  0
LINE
  5
928
  8
0
  6
CONTINUOUS
 62
     7
 10
713.5137329843086
 20
-50.5
 30
0.0
 11
713.5137329843086
 21
-52.850536000000012
 31
0.0
  0
LINE
  5
929
  8
0
  6
CONTINUOUS
 62
     7
 10
823.5137329843086
 20
-50.5
 30
0.0
 11
823.5137329843086
 21
-52.813324000000001
 31
0.0
  0
TEXT
  5
92A
  8
0
  6
CONTINUOUS
 62
     7
 10
765.79944698430847
 20
-39.629798999999998
 30
0.0
 40
2.0
  1
125
 41
1.163265399999998
  0
LINE
  5
92B
  8
0
  6
CONTINUOUS
 62
     7
 10
706.0137329843086
 20
-40.129798999999998
 30
0.0
 11
768.5137329843086
 21
-40.129798999999998
 31
0.0
  0
CIRCLE
  5
92C
  8
0
  6
CONTINUOUS
 62
     7
 10
706.0137329843086
 20
-40.129798999999998
 30
0.0
 40
0.3
  0
LINE
  5
92D
  8
0
  6
CONTINUOUS
 62
     7
 10
831.01373298430849
 20
-40.129798999999998
 30
0.0
 11
768.5137329843086
 21
-40.129798999999998
 31
0.0
  0
CIRCLE
  5
92E
  8
0
  6
CONTINUOUS
 62
     7
 10
831.01373298430849
 20
-40.129798999999998
 30
0.0
 40
0.3
  0
LINE
  5
92F
  8
0
  6
CONTINUOUS
 62
     7
 10
706.0137329843086
 20
-50.0
 30
0.0
 11
706.0137329843086
 21
-37.843800000000002
 31
0.0
  0
LINE
  5
930
  8
0
  6
CONTINUOUS
 62
     7
 10
831.01373298430849
 20
-50.0
 30
0.0
 11
831.01373298430849
 21
-37.843800000000002
 31
0.0
  0
TEXT
  5
931
  8
0
  6
CONTINUOUS
 62
     7
 10
847.78175298430858
 20
-69.213410999999994
 30
0.0
 40
2.0
  1
25
 50
89.900002000000001
 41
1.0285716
  0
LINE
  5
932
  8
0
  6
CONTINUOUS
 62
     7
 10
848.28474398430853
 20
-80.0
 30
0.0
 11
848.28474398430853
 21
-67.5
 31
0.0
  0
CIRCLE
  5
933
  8
0
  6
CONTINUOUS
 62
     7
 10
848.28474398430853
 20
-80.0
 30
0.0
 40
0.3
  0
LINE
  5
934
  8
0
  6
CONTINUOUS
 62
     7
 10
848.28474398430853
 20
-55.0
 30
0.0
 11
848.28474398430853
 21
-67.5
 31
0.0
  0
CIRCLE
  5
935
  8
0
  6
CONTINUOUS
 62
     7
 10
848.28474398430853
 20
-55.0
 30
0.0
 40
0.3
  0
LINE
  5
936
  8
0
  6
CONTINUOUS
 62
     7
 10
838.5137329843086
 20
-80.0
 30
0.0
 11
850.57074698430858
 21
-80.0
 31
0.0
  0
LINE
  5
937
  8
0
  6
CONTINUOUS
 62
     7
 10
836.0137329843086
 20
-55.0
 30
0.0
 11
850.57074698430858
 21
-55.0
 31
0.0
  0
TEXT
  5
938
  8
0
  6
CONTINUOUS
 62
     7
 10
847.78175298430858
 20
-21.71341099999999
 30
0.0
 40
2.0
  1
70
 50
89.900002000000001
 41
1.102041
  0
LINE
  5
939
  8
0
  6
CONTINUOUS
 62
     7
 10
848.28474398430853
 20
-55.0
 30
0.0
 11
848.28474398430853
 21
-20.0
 31
0.0
  0
CIRCLE
  5
93A
  8
0
  6
CONTINUOUS
 62
     7
 10
848.28474398430853
 20
-55.0
 30
0.0
 40
0.3
  0
LINE
  5
93B
  8
0
  6
CONTINUOUS
 62
     7
 10
848.28474398430853
 20
15.0
 30
0.0
 11
848.28474398430853
 21
-20.0
 31
0.0
  0
CIRCLE
  5
93C
  8
0
  6
CONTINUOUS
 62
     7
 10
848.28474398430853
 20
15.0
 30
0.0
 40
0.3
  0
LINE
  5
93D
  8
0
  6
CONTINUOUS
 62
     7
 10
836.0137329843086
 20
15.0
 30
0.0
 11
850.57074698430858
 21
15.0
 31
0.0
  0
TEXT
  5
93E
  8
0
  6
CONTINUOUS
 62
     7
 10
847.78175298430858
 20
48.286588999999992
 30
0.0
 40
2.0
  1
70
 50
89.900002000000001
 41
1.102041
  0
LINE
  5
93F
  8
0
  6
CONTINUOUS
 62
     7
 10
848.28474398430853
 20
15.0
 30
0.0
 11
848.28474398430853
 21
50.0
 31
0.0
  0
CIRCLE
  5
940
  8
0
  6
CONTINUOUS
 62
     7
 10
848.28474398430853
 20
15.0
 30
0.0
 40
0.3
  0
LINE
  5
941
  8
0
  6
CONTINUOUS
 62
     7
 10
848.28474398430853
 20
85.0
 30
0.0
 11
848.28474398430853
 21
50.0
 31
0.0
  0
CIRCLE
  5
942
  8
0
  6
CONTINUOUS
 62
     7
 10
848.28474398430853
 20
85.0
 30
0.0
 40
0.3
  0
LINE
  5
943
  8
0
  6
CONTINUOUS
 62
     7
 10
836.0137329843086
 20
85.0
 30
0.0
 11
850.57074698430858
 21
85.0
 31
0.0
  0
TEXT
  5
944
  8
0
  6
CONTINUOUS
 62
     7
 10
847.78175298430858
 20
95.786588999999978
 30
0.0
 40
2.0
  1
25
 50
89.900002000000001
 41
1.0285716
  0
LINE
  5
945
  8
0
  6
CONTINUOUS
 62
     7
 10
848.28474398430853
 20
85.0
 30
0.0
 11
848.28474398430853
 21
97.5
 31
0.0
  0
CIRCLE
  5
946
  8
0
  6
CONTINUOUS
 62
     7
 10
848.28474398430853
 20
85.0
 30
0.0
 40
0.3
  0
LINE
  5
947
  8
0
  6
CONTINUOUS
 62
     7
 10
848.28474398430853
 20
110.0
 30
0.0
 11
848.28474398430853
 21
97.5
 31
0.0
  0
CIRCLE
  5
948
  8
0
  6
CONTINUOUS
 62
     7
 10
848.28474398430853
 20
110.0
 30
0.0
 40
0.3
  0
LINE
  5
949
  8
0
  6
CONTINUOUS
 62
     7
 10
838.5137329843086
 20
110.0
 30
0.0
 11
850.57074698430858
 21
110.0
 31
0.0
  0
TEXT
  5
94A
  8
0
  6
CONTINUOUS
 62
     7
 10
857.50158798430869
 20
12.286591
 30
0.0
 40
2.0
  1
190
 50
89.900002000000001
 41
1.221428699999999
  0
LINE
  5
94B
  8
0
  6
CONTINUOUS
 62
     7
 10
858.00632498430866
 20
-80.0
 30
0.0
 11
858.00632498430866
 21
15.0
 31
0.0
  0
CIRCLE
  5
94C
  8
0
  6
CONTINUOUS
 62
     7
 10
858.00632498430866
 20
-80.0
 30
0.0
 40
0.3
  0
LINE
  5
94D
  8
0
  6
CONTINUOUS
 62
     7
 10
858.00632498430866
 20
110.0
 30
0.0
 11
858.00632498430866
 21
15.0
 31
0.0
  0
CIRCLE
  5
94E
  8
0
  6
CONTINUOUS
 62
     7
 10
858.00632498430866
 20
110.0
 30
0.0
 40
0.3
  0
LINE
  5
94F
  8
0
  6
CONTINUOUS
 62
     7
 10
838.5137329843086
 20
-80.0
 30
0.0
 11
860.2923279843086
 21
-80.0
 31
0.0
  0
LINE
  5
950
  8
0
  6
CONTINUOUS
 62
     7
 10
838.5137329843086
 20
110.0
 30
0.0
 11
860.2923279843086
 21
110.0
 31
0.0
  0
TEXT
  5
951
  8
0
  6
CONTINUOUS
 62
     7
 10
579.74988298430856
 20
123.2865899999999
 30
0.0
 40
2.0
  1
Ｌ
 50
89.900002000000001
 41
0.9003605399999997
  0
LINE
  5
952
  8
0
  6
CONTINUOUS
 62
     7
 10
580.2511329843087
 20
15.0
 30
0.0
 11
580.2511329843087
 21
124.0
 31
0.0
  0
CIRCLE
  5
953
  8
0
  6
CONTINUOUS
 62
     7
 10
580.2511329843087
 20
15.0
 30
0.0
 40
0.3
  0
LINE
  5
954
  8
0
  6
CONTINUOUS
 62
     7
 10
580.2511329843087
 20
233.0
 30
0.0
 11
580.2511329843087
 21
124.0
 31
0.0
  0
CIRCLE
  5
955
  8
0
  6
CONTINUOUS
 62
     7
 10
580.2511329843087
 20
233.0
 30
0.0
 40
0.3
  0
LINE
  5
956
  8
0
  6
CONTINUOUS
 62
     7
 10
529.44827298430846
 20
233.0
 30
0.0
 11
582.53712298430855
 21
233.0
 31
0.0
  0
TEXT
  5
957
  8
0
  6
CONTINUOUS
 62
     7
 10
541.29944298430871
 20
-89.500000000000014
 30
0.0
 40
2.0
  1
59
 41
1.0285716
  0
LINE
  5
958
  8
0
  6
CONTINUOUS
 62
     7
 10
513.5137329843086
 20
-90.0
 30
0.0
 11
543.01373298430872
 21
-90.0
 31
0.0
  0
CIRCLE
  5
959
  8
0
  6
CONTINUOUS
 62
     7
 10
513.5137329843086
 20
-90.0
 30
0.0
 40
0.3
  0
LINE
  5
95A
  8
0
  6
CONTINUOUS
 62
     7
 10
572.5137329843086
 20
-90.0
 30
0.0
 11
543.01373298430872
 21
-90.0
 31
0.0
  0
CIRCLE
  5
95B
  8
0
  6
CONTINUOUS
 62
     7
 10
572.5137329843086
 20
-90.0
 30
0.0
 40
0.3
  0
LINE
  5
95C
  8
0
  6
CONTINUOUS
 62
     7
 10
572.5137329843086
 20
6.0811405000000027
 30
0.0
 11
572.5137329843086
 21
-92.286002999999994
 31
0.0
  0
LINE
  5
95D
  8
0
  6
CONTINUOUS
 62
     7
 10
775.51372678430857
 20
142.5
 30
0.0
 11
751.54801198430846
 21
117.88629999999991
 31
0.0
  0
LINE
  5
95E
  8
0
  6
CONTINUOUS
 62
     7
 10
751.54801198430846
 20
117.88629999999991
 30
0.0
 11
721.67299698430861
 21
117.88629999999991
 31
0.0
  0
CIRCLE
  5
95F
  8
0
  6
CONTINUOUS
 62
     7
 10
775.51372678430857
 20
142.5
 30
0.0
 40
0.3
  0
TEXT
  5
960
  8
0
  6
CONTINUOUS
 62
     7
 10
722.24442498430858
 20
118.38630000000001
 30
0.0
 40
2.0
  1
２－%%C５．５×%%C１０．５サラ
 41
0.8634387799999999
  0
TEXT
  5
961
  8
0
  6
CONTINUOUS
 62
     7
 10
586.74382298430862
 20
13.285714
 30
0.0
 40
2.0
  1
23
 50
90.000003000000007
 41
1.0285716
  0
LINE
  5
962
  8
0
  6
CONTINUOUS
 62
     7
 10
587.24382298430862
 20
3.5
 30
0.0
 11
587.24382298430862
 21
15.0
 31
0.0
  0
CIRCLE
  5
963
  8
0
  6
CONTINUOUS
 62
     7
 10
587.24382298430862
 20
3.5
 30
0.0
 40
0.3
  0
LINE
  5
964
  8
0
  6
CONTINUOUS
 62
     7
 10
587.24382298430862
 20
26.5
 30
0.0
 11
587.24382298430862
 21
15.0
 31
0.0
  0
CIRCLE
  5
965
  8
0
  6
CONTINUOUS
 62
     7
 10
587.24382298430862
 20
26.5
 30
0.0
 40
0.3
  0
LINE
  5
966
  8
0
  6
CONTINUOUS
 62
     7
 10
594.5137329843086
 20
3.5
 30
0.0
 11
586.04382298430869
 21
3.5
 31
0.0
  0
LINE
  5
967
  8
0
  6
CONTINUOUS
 62
     7
 10
594.5137329843086
 20
26.5
 30
0.0
 11
586.04382298430869
 21
26.5
 31
0.0
  0
TEXT
  5
968
  8
0
  6
CONTINUOUS
 62
     7
 10
666.79944298430871
 20
-11.0
 30
0.0
 40
2.0
  1
150
 41
1.221428699999999
  0
LINE
  5
969
  8
0
  6
CONTINUOUS
 62
     7
 10
594.5137329843086
 20
-11.5
 30
0.0
 11
669.5137329843086
 21
-11.5
 31
0.0
  0
CIRCLE
  5
96A
  8
0
  6
CONTINUOUS
 62
     7
 10
594.5137329843086
 20
-11.5
 30
0.0
 40
0.3
  0
LINE
  5
96B
  8
0
  6
CONTINUOUS
 62
     7
 10
744.5137329843086
 20
-11.5
 30
0.0
 11
669.5137329843086
 21
-11.5
 31
0.0
  0
CIRCLE
  5
96C
  8
0
  6
CONTINUOUS
 62
     7
 10
744.5137329843086
 20
-11.5
 30
0.0
 40
0.3
  0
LINE
  5
96D
  8
0
  6
CONTINUOUS
 62
     7
 10
594.5137329843086
 20
3.5
 30
0.0
 11
594.5137329843086
 21
-12.699999999999999
 31
0.0
  0
LINE
  5
96E
  8
0
  6
CONTINUOUS
 62
     7
 10
744.5137329843086
 20
-8.0
 30
0.0
 11
744.5137329843086
 21
-12.699999999999999
 31
0.0
  0
LINE
  5
96F
  8
0
  6
CONTINUOUS
 62
     7
 10
649.48132298430846
 20
207.99080000000001
 30
0.0
 11
636.15942298430855
 21
207.99080000000001
 31
0.0
  0
LINE
  5
970
  8
0
  6
CONTINUOUS
 62
     7
 10
655.08069298430871
 20
193.42681999999991
 30
0.0
 11
649.48132298430846
 21
207.99080000000001
 31
0.0
  0
LINE
  5
971
  8
0
  6
CONTINUOUS
 62
     7
 10
656.94676298430863
 20
188.57318000000001
 30
0.0
 11
655.08069298430871
 21
193.42681999999991
 31
0.0
  0
CIRCLE
  5
972
  8
0
  6
CONTINUOUS
 62
     7
 10
656.94676298430863
 20
188.57318000000001
 30
0.0
 40
0.3
  0
LINE
  5
973
  8
0
  6
CONTINUOUS
 62
     7
 10
655.08069298430871
 20
193.42681999999991
 30
0.0
 11
656.94676298430863
 21
188.57318000000001
 31
0.0
  0
CIRCLE
  5
974
  8
0
  6
CONTINUOUS
 62
     7
 10
655.08069298430871
 20
193.42681999999991
 30
0.0
 40
0.3
  0
TEXT
  5
975
  8
0
  6
CONTINUOUS
 62
     7
 10
636.15943298430864
 20
208.49079999999989
 30
0.0
 40
2.0
  1
4-%%C5.2
 41
1.142857199999999
  0
TEXT
  5
976
  8
0
  6
CONTINUOUS
 62
     7
 10
555.7994429843086
 20
-35.588608000000001
 30
0.0
 40
2.0
  1
30
 41
1.102041
  0
LINE
  5
977
  8
0
  6
CONTINUOUS
 62
     7
 10
542.5137329843086
 20
-36.088608000000001
 30
0.0
 11
557.51373298430849
 21
-36.088608000000001
 31
0.0
  0
CIRCLE
  5
978
  8
0
  6
CONTINUOUS
 62
     7
 10
542.5137329843086
 20
-36.088608000000001
 30
0.0
 40
0.3
  0
LINE
  5
979
  8
0
  6
CONTINUOUS
 62
     7
 10
572.5137329843086
 20
-36.088608000000001
 30
0.0
 11
557.51373298430849
 21
-36.088608000000001
 31
0.0
  0
CIRCLE
  5
97A
  8
0
  6
CONTINUOUS
 62
     7
 10
572.5137329843086
 20
-36.088608000000001
 30
0.0
 40
0.3
  0
LINE
  5
97B
  8
0
  6
CONTINUOUS
 62
     7
 10
542.5137329843086
 20
-5.0
 30
0.0
 11
542.5137329843086
 21
-37.288609000000001
 31
0.0
  0
LINE
  5
97C
  8
0
  6
CONTINUOUS
 62
     7
 10
572.5137329843086
 20
5.5
 30
0.0
 11
572.5137329843086
 21
-37.288609000000001
 31
0.0
  0
TEXT
  5
97D
  8
0
  6
CONTINUOUS
 62
     7
 10
454.29944298430848
 20
168.24532999999991
 30
0.0
 40
2.0
  1
55
 41
1.0285716
  0
LINE
  5
97E
  8
0
  6
CONTINUOUS
 62
     7
 10
428.51373298430849
 20
167.74532999999991
 30
0.0
 11
456.0137329843086
 21
167.74532999999991
 31
0.0
  0
CIRCLE
  5
97F
  8
0
  6
CONTINUOUS
 62
     7
 10
428.51373298430849
 20
167.74532999999991
 30
0.0
 40
0.3
  0
LINE
  5
980
  8
0
  6
CONTINUOUS
 62
     7
 10
483.51373298430849
 20
167.74532999999991
 30
0.0
 11
456.0137329843086
 21
167.74532999999991
 31
0.0
  0
CIRCLE
  5
981
  8
0
  6
CONTINUOUS
 62
     7
 10
483.51373298430849
 20
167.74532999999991
 30
0.0
 40
0.3
  0
TEXT
  5
982
  8
0
  6
CONTINUOUS
 62
     7
 10
469.2994429843086
 20
-89.500000000000014
 30
0.0
 40
2.0
  1
85
 41
1.0285716
  0
LINE
  5
983
  8
0
  6
CONTINUOUS
 62
     7
 10
428.51373298430849
 20
-90.0
 30
0.0
 11
471.01373298430849
 21
-90.0
 31
0.0
  0
CIRCLE
  5
984
  8
0
  6
CONTINUOUS
 62
     7
 10
428.51373298430849
 20
-90.0
 30
0.0
 40
0.3
  0
LINE
  5
985
  8
0
  6
CONTINUOUS
 62
     7
 10
513.5137329843086
 20
-90.0
 30
0.0
 11
471.01373298430849
 21
-90.0
 31
0.0
  0
CIRCLE
  5
986
  8
0
  6
CONTINUOUS
 62
     7
 10
513.5137329843086
 20
-90.0
 30
0.0
 40
0.3
  0
LINE
  5
987
  8
0
  6
CONTINUOUS
 62
     7
 10
513.5137329843086
 20
-80.0
 30
0.0
 11
513.5137329843086
 21
-91.199996999999996
 31
0.0
  0
INSERT
  5
995
  8
AM_6
  2
*U5
 10
0.0
 20
0.0
 30
0.0
  0
INSERT
  5
997
  8
AM_6
  2
*U6
 10
0.0
 20
0.0
 30
0.0
  0
ENDSEC
  0
EOF
