  0
SECTION
  2
HEADER
  9
$ACADVER
  1
AC1015
  9
$ACADMAINTVER
 70
    14
  9
$DWGCODEPAGE
  3
ANSI_932
  9
$INSBASE
 10
0.0
 20
0.0
 30
0.0
  9
$EXTMIN
 10
-191.2671501615675
 20
-59.16250000000011
 30
0.0
  9
$EXTMAX
 10
47.95622999999999
 20
171.1347
 30
0.0
  9
$LIMMIN
 10
0.0
 20
0.0
  9
$LIMMAX
 10
12.0
 20
9.0
  9
$ORTHOMODE
 70
     0
  9
$REGENMODE
 70
     1
  9
$FILLMODE
 70
     1
  9
$QTEXTMODE
 70
     0
  9
$MIRRTEXT
 70
     1
  9
$LTSCALE
 40
1.0
  9
$ATTMODE
 70
     1
  9
$TEXTSIZE
 40
0.2
  9
$TRACEWID
 40
0.05
  9
$TEXTSTYLE
  7
STANDARD
  9
$CLAYER
  8
0
  9
$CELTYPE
  6
CONTINUOUS
  9
$CECOLOR
 62
   256
  9
$CELTSCALE
 40
1.0
  9
$DISPSILH
 70
     0
  9
$DIMSCALE
 40
1.0
  9
$DIMASZ
 40
0.18
  9
$DIMEXO
 40
0.0625
  9
$DIMDLI
 40
0.38
  9
$DIMRND
 40
0.0
  9
$DIMDLE
 40
0.0
  9
$DIMEXE
 40
0.18
  9
$DIMTP
 40
0.0
  9
$DIMTM
 40
0.0
  9
$DIMTXT
 40
0.18
  9
$DIMCEN
 40
0.09
  9
$DIMTSZ
 40
0.0
  9
$DIMTOL
 70
     0
  9
$DIMLIM
 70
     0
  9
$DIMTIH
 70
     1
  9
$DIMTOH
 70
     1
  9
$DIMSE1
 70
     0
  9
$DIMSE2
 70
     0
  9
$DIMTAD
 70
     0
  9
$DIMZIN
 70
     0
  9
$DIMBLK
  1

  9
$DIMASO
 70
     1
  9
$DIMSHO
 70
     1
  9
$DIMPOST
  1

  9
$DIMAPOST
  1

  9
$DIMALT
 70
     0
  9
$DIMALTD
 70
     2
  9
$DIMALTF
 40
25.4
  9
$DIMLFAC
 40
1.0
  9
$DIMTOFL
 70
     0
  9
$DIMTVP
 40
0.0
  9
$DIMTIX
 70
     0
  9
$DIMSOXD
 70
     0
  9
$DIMSAH
 70
     0
  9
$DIMBLK1
  1

  9
$DIMBLK2
  1

  9
$DIMSTYLE
  2
STANDARD
  9
$DIMCLRD
 70
     0
  9
$DIMCLRE
 70
     0
  9
$DIMCLRT
 70
     0
  9
$DIMTFAC
 40
1.0
  9
$DIMGAP
 40
0.09
  9
$DIMJUST
 70
     0
  9
$DIMSD1
 70
     0
  9
$DIMSD2
 70
     0
  9
$DIMTOLJ
 70
     1
  9
$DIMTZIN
 70
     0
  9
$DIMALTZ
 70
     0
  9
$DIMALTTZ
 70
     0
  9
$DIMUPT
 70
     0
  9
$DIMDEC
 70
     4
  9
$DIMTDEC
 70
     4
  9
$DIMALTU
 70
     2
  9
$DIMALTTD
 70
     2
  9
$DIMTXSTY
  7
STANDARD
  9
$DIMAUNIT
 70
     0
  9
$DIMADEC
 70
     0
  9
$DIMALTRND
 40
0.0
  9
$DIMAZIN
 70
     0
  9
$DIMDSEP
 70
    46
  9
$DIMATFIT
 70
     3
  9
$DIMFRAC
 70
     0
  9
$DIMLDRBLK
  1

  9
$DIMLUNIT
 70
     2
  9
$DIMLWD
 70
    -2
  9
$DIMLWE
 70
    -2
  9
$DIMTMOVE
 70
     0
  9
$LUNITS
 70
     2
  9
$LUPREC
 70
     4
  9
$SKETCHINC
 40
0.1
  9
$FILLETRAD
 40
0.0
  9
$AUNITS
 70
     0
  9
$AUPREC
 70
     0
  9
$MENU
  1
.
  9
$ELEVATION
 40
0.0
  9
$PELEVATION
 40
0.0
  9
$THICKNESS
 40
0.0
  9
$LIMCHECK
 70
     0
  9
$CHAMFERA
 40
0.0
  9
$CHAMFERB
 40
0.0
  9
$CHAMFERC
 40
0.0
  9
$CHAMFERD
 40
0.0
  9
$SKPOLY
 70
     0
  9
$TDCREATE
 40
2452877.632238668
  9
$TDUCREATE
 40
2452877.257238669
  9
$TDUPDATE
 40
2453040.735643507
  9
$TDUUPDATE
 40
2453040.360643507
  9
$TDINDWG
 40
0.0070600579
  9
$TDUSRTIMER
 40
0.0070599421
  9
$USRTIMER
 70
     1
  9
$ANGBASE
 50
0.0
  9
$ANGDIR
 70
     0
  9
$PDMODE
 70
     0
  9
$PDSIZE
 40
0.0
  9
$PLINEWID
 40
0.0
  9
$SPLFRAME
 70
     0
  9
$SPLINETYPE
 70
     6
  9
$SPLINESEGS
 70
     8
  9
$HANDSEED
  5
2B4
  9
$SURFTAB1
 70
     6
  9
$SURFTAB2
 70
     6
  9
$SURFTYPE
 70
     6
  9
$SURFU
 70
     6
  9
$SURFV
 70
     6
  9
$UCSBASE
  2

  9
$UCSNAME
  2

  9
$UCSORG
 10
0.0
 20
0.0
 30
0.0
  9
$UCSXDIR
 10
1.0
 20
0.0
 30
0.0
  9
$UCSYDIR
 10
0.0
 20
1.0
 30
0.0
  9
$UCSORTHOREF
  2

  9
$UCSORTHOVIEW
 70
     0
  9
$UCSORGTOP
 10
0.0
 20
0.0
 30
0.0
  9
$UCSORGBOTTOM
 10
0.0
 20
0.0
 30
0.0
  9
$UCSORGLEFT
 10
0.0
 20
0.0
 30
0.0
  9
$UCSORGRIGHT
 10
0.0
 20
0.0
 30
0.0
  9
$UCSORGFRONT
 10
0.0
 20
0.0
 30
0.0
  9
$UCSORGBACK
 10
0.0
 20
0.0
 30
0.0
  9
$PUCSBASE
  2

  9
$PUCSNAME
  2

  9
$PUCSORG
 10
0.0
 20
0.0
 30
0.0
  9
$PUCSXDIR
 10
1.0
 20
0.0
 30
0.0
  9
$PUCSYDIR
 10
0.0
 20
1.0
 30
0.0
  9
$PUCSORTHOREF
  2

  9
$PUCSORTHOVIEW
 70
     0
  9
$PUCSORGTOP
 10
0.0
 20
0.0
 30
0.0
  9
$PUCSORGBOTTOM
 10
0.0
 20
0.0
 30
0.0
  9
$PUCSORGLEFT
 10
0.0
 20
0.0
 30
0.0
  9
$PUCSORGRIGHT
 10
0.0
 20
0.0
 30
0.0
  9
$PUCSORGFRONT
 10
0.0
 20
0.0
 30
0.0
  9
$PUCSORGBACK
 10
0.0
 20
0.0
 30
0.0
  9
$USERI1
 70
     0
  9
$USERI2
 70
     0
  9
$USERI3
 70
     0
  9
$USERI4
 70
     0
  9
$USERI5
 70
     0
  9
$USERR1
 40
0.0
  9
$USERR2
 40
0.0
  9
$USERR3
 40
0.0
  9
$USERR4
 40
0.0
  9
$USERR5
 40
0.0
  9
$WORLDVIEW
 70
     1
  9
$SHADEDGE
 70
     3
  9
$SHADEDIF
 70
    70
  9
$TILEMODE
 70
     1
  9
$MAXACTVP
 70
    64
  9
$PINSBASE
 10
0.0
 20
0.0
 30
0.0
  9
$PLIMCHECK
 70
     0
  9
$PEXTMIN
 10
1.000000000000000E+20
 20
1.000000000000000E+20
 30
1.000000000000000E+20
  9
$PEXTMAX
 10
-1.000000000000000E+20
 20
-1.000000000000000E+20
 30
-1.000000000000000E+20
  9
$PLIMMIN
 10
0.0
 20
0.0
  9
$PLIMMAX
 10
12.0
 20
9.0
  9
$UNITMODE
 70
     0
  9
$VISRETAIN
 70
     1
  9
$PLINEGEN
 70
     0
  9
$PSLTSCALE
 70
     1
  9
$TREEDEPTH
 70
  3020
  9
$CMLSTYLE
  2
Standard
  9
$CMLJUST
 70
     0
  9
$CMLSCALE
 40
1.0
  9
$PROXYGRAPHICS
 70
     1
  9
$MEASUREMENT
 70
     0
  9
$CELWEIGHT
370
    -1
  9
$ENDCAPS
280
     0
  9
$JOINSTYLE
280
     0
  9
$LWDISPLAY
290
     0
  9
$INSUNITS
 70
     0
  9
$HYPERLINKBASE
  1

  9
$STYLESHEET
  1

  9
$XEDIT
290
     1
  9
$CEPSNTYPE
380
     0
  9
$PSTYLEMODE
290
     1
  9
$FINGERPRINTGUID
  2
{53DBD1D1-4C47-4F95-BE96-A24808B23F25}
  9
$VERSIONGUID
  2
{558AA7CB-0F05-4F1C-B4A7-0FB378F56F6C}
  9
$EXTNAMES
290
     1
  9
$PSVPSCALE
 40
0.0
  9
$OLESTARTUP
290
     0
  0
ENDSEC
  0
SECTION
  2
CLASSES
  0
CLASS
  1
ACDBDICTIONARYWDFLT
  2
AcDbDictionaryWithDefault
  3
AutoCAD 2000
 90
        0
280
     0
281
     0
  0
CLASS
  1
ACDBPLACEHOLDER
  2
AcDbPlaceHolder
  3
AutoCAD 2000
 90
        0
280
     0
281
     0
  0
CLASS
  1
LAYOUT
  2
AcDbLayout
  3
AutoCAD 2000
 90
        0
280
     0
281
     0
  0
CLASS
  1
AMGSETTINGSOBJ
  2
AmgSettingsObj
  3
"AcadM|Product Description: AutoCAD Mechanical 2000|Company: Autodesk"
 90
        0
280
     0
281
     0
  0
CLASS
  1
ACME_DOCUMENT
  2
AcMeDbDoc
  3
AcMeServices
 90
        0
280
     0
281
     0
  0
CLASS
  1
ACMESCOPE
  2
AcMeScope
  3
AcMeServices
 90
        0
280
     0
281
     0
  0
CLASS
  1
ACMECOMMANDHISTORY
  2
AcMeCommandHistory
  3
AcMeServices
 90
        0
280
     0
281
     0
  0
CLASS
  1
ACIMSYSVARMAN
  2
AcImSysVarManager
  3
AcMeServices
 90
        0
280
     0
281
     0
  0
CLASS
  1
ACIMREALSYSVAR
  2
AcImRealSysVar
  3
AcMeServices
 90
        0
280
     0
281
     0
  0
CLASS
  1
ACIMINTSYSVAR
  2
AcImIntSysVar
  3
AcMeServices
 90
        0
280
     0
281
     0
  0
CLASS
  1
ACMEDRAWINGMAN
  2
AcMeDrawingMan
  3
AcMeServices
 90
        0
280
     0
281
     0
  0
CLASS
  1
ACMEVIEW
  2
AcMeView
  3
AcMeServices
 90
        0
280
     0
281
     0
  0
CLASS
  1
ACDBENTITYCACHE
  2
AcMeEntityCache
  3
AcMeServices
 90
        0
280
     0
281
     0
  0
CLASS
  1
GSMANAGER
  2
AcMeGSManager
  3
AcMeServices
 90
        0
280
     0
281
     0
  0
CLASS
  1
AMDTINTERNALREACTOR
  2
AmdtInternalReactor
  3
AcMeServices
 90
        0
280
     0
281
     0
  0
CLASS
  1
ACMESTATEMGR
  2
AcMeStateMgr
  3
AcMeServices
 90
        0
280
     0
281
     0
  0
CLASS
  1
ACGREFMASTER
  2
AcGrefMaster
  3
AcAttribServices
 90
        0
280
     0
281
     0
  0
CLASS
  1
ACME_DATABASE
  2
AcMeDbDatabase
  3
AcMeServices
 90
        0
280
     0
281
     0
  0
CLASS
  1
ACRFINSADJUSTERMGR
  2
AcRfInsAdjusterMgr
  3
AcMeServices
 90
        0
280
     0
281
     0
  0
CLASS
  1
ACGREFACADMASTER
  2
AcGrefacadMaster
  3
AcGrefServices
 90
        0
280
     0
281
     0
  0
CLASS
  1
AMIMASTER
  2
AmiMaster
  3
AmiServices
 90
        0
280
     0
281
     0
  0
CLASS
  1
ACMDATADICTIONARY
  2
AcmDataDictionary
  3
"AcmSymBB|Product Description: AutoCAD Mechanical 2000|Company: Autodesk"
 90
        0
280
     0
281
     0
  0
CLASS
  1
ACMDATAENTRYBLOCK
  2
AcmDataEntryBlock
  3
"AcmSymBB|Product Description: AutoCAD Mechanical 2000|Company: Autodesk"
 90
        0
280
     0
281
     0
  0
CLASS
  1
ACIMSTRSYSVAR
  2
AcImStrSysVar
  3
AcMeServices
 90
        0
280
     0
281
     0
  0
CLASS
  1
ACMSTANDARDANSI
  2
AcmStandardANSI
  3
"Amdt_StdImp|Product Description: AutoCAD Mechanical 2000|Company: Autodesk"
 90
        0
280
     0
281
     0
  0
CLASS
  1
AMGOBJPROPCFG
  2
AmgObjPropCfg
  3
"AmgLay|Product Description: AutoCAD Mechanical 2000|Company: Autodesk"
 90
        1
280
     0
281
     0
  0
CLASS
  1
ACMSURFSTANDARDANSI
  2
AcmSurfTextStdANSI
  3
"Amdt_StdImp|Product Description: AutoCAD Mechanical 2000|Company: Autodesk"
 90
        0
280
     0
281
     0
  0
CLASS
  1
ACMFCFSTANDARDANSI
  2
AcmFCFStdANSI
  3
"Amdt_StdImp|Product Description: AutoCAD Mechanical 2000|Company: Autodesk"
 90
        0
280
     0
281
     0
  0
CLASS
  1
ACMWELDSTANDARDANSI
  2
AcmWeldingStdANSI
  3
"Amdt_StdImp|Product Description: AutoCAD Mechanical 2000|Company: Autodesk"
 90
        0
280
     0
281
     0
  0
CLASS
  1
ACMIDSTANDARDANSI
  2
AcmIdStdANSI
  3
"Amdt_StdImp|Product Description: AutoCAD Mechanical 2000|Company: Autodesk"
 90
        0
280
     0
281
     0
  0
CLASS
  1
ACMDATUMSTANDARDANSI
  2
AcmDatumStdANSI
  3
"Amdt_StdImp|Product Description: AutoCAD Mechanical 2000|Company: Autodesk"
 90
        0
280
     0
281
     0
  0
CLASS
  1
ACMBOMSTANDARDANSI
  2
AcmBOMStdANSI
  3
"Amdt_StdImp|Product Description: AutoCAD Mechanical 2000|Company: Autodesk"
 90
        0
280
     0
281
     0
  0
CLASS
  1
ACMDETAILSTANDARDANSI
  2
AmdtDetailSymStdANSI
  3
"Amdt_StdImp|Product Description: AutoCAD Mechanical 2000|Company: Autodesk"
 90
        0
280
     0
281
     0
  0
CLASS
  1
ACMSECTIONSTANDARDANSI
  2
AmdtSectionSymStdANSI
  3
"Amdt_StdImp|Product Description: AutoCAD Mechanical 2000|Company: Autodesk"
 90
        0
280
     0
281
     0
  0
CLASS
  1
ACMCENTERLINESTANDARDANSI
  2
AmdtCenterLineStdANSI
  3
"Amdt_StdImp|Product Description: AutoCAD Mechanical 2000|Company: Autodesk"
 90
        0
280
     0
281
     0
  0
CLASS
  1
ACMNOTESTANDARDANSI
  2
AmdtNoteStdANSI
  3
"Amdt_StdImp|Product Description: AutoCAD Mechanical 2000|Company: Autodesk"
 90
        0
280
     0
281
     0
  0
CLASS
  1
ACAMGLAYSTD
  2
AcAmgLayStd
  3
"AcAmgLayStd|Product Description: AutoCAD Mechanical 2000|Company: Autodesk"
 90
        0
280
     0
281
     0
  0
CLASS
  1
ACAMGDIMSTD
  2
AcAmgDimStd
  3
"AcAmgDimStd|Product Description: AutoCAD Mechanical 2000|Company: Autodesk"
 90
        0
280
     0
281
     0
  0
CLASS
  1
ACAMGHOLECHARTSTDANSI
  2
AcAmgHoleChartStdANSI
  3
ACMSYMBB_MODULE_NAME
 90
        0
280
     0
281
     0
  0
CLASS
  1
ACAMGTITLESTD
  2
AcAmgTitleStd
  3
"TITLEAPP"
 90
        0
280
     0
281
     0
  0
CLASS
  1
ACAMGFILTERDAT
  2
AcAmgFilterDat
  3
"AcadM|Product Description: AutoCAD Mechanical 2000|Company: Autodesk"
 90
        0
280
     0
281
     0
  0
CLASS
  1
LAYER_INDEX
  2
AcDbLayerIndex
  3
AutoCAD 2000
 90
        0
280
     0
281
     0
  0
CLASS
  1
IDBUFFER
  2
AcDbIdBuffer
  3
AutoCAD 2000
 90
        0
280
     0
281
     0
  0
CLASS
  1
DICTIONARYVAR
  2
AcDbDictionaryVar
  3
AutoCAD 2000
 90
        0
280
     0
281
     0
  0
ENDSEC
  0
SECTION
  2
TABLES
  0
TABLE
  2
VPORT
  5
214
330
0
100
AcDbSymbolTable
 70
    16
  0
VPORT
  5
2B3
330
214
100
AcDbSymbolTableRecord
100
AcDbViewportTableRecord
  2
*Active
 70
     0
 10
0.0
 20
0.0
 11
1.0
 21
1.0
 12
-37.59999805007578
 22
109.3980361765964
 13
0.0
 23
0.0
 14
1.0
 24
1.0
 15
0.0
 25
0.0
 16
0.0
 26
0.0
 36
1.0
 17
0.0
 27
0.0
 37
0.0
 40
365.4007915010939
 41
1.280701754385964
 42
50.0
 43
0.0
 44
0.0
 50
0.0
 51
0.0
 71
     0
 72
   100
 73
     1
 74
     1
 75
     0
 76
     0
 77
     0
 78
     0
281
     0
 65
     1
110
0.0
120
0.0
130
0.0
111
1.0
121
0.0
131
0.0
112
0.0
122
1.0
132
0.0
 79
     0
146
0.0
  0
ENDTAB
  0
TABLE
  2
LTYPE
  5
211
330
0
100
AcDbSymbolTable
 70
    19
  0
LTYPE
  5
21F
330
211
100
AcDbSymbolTableRecord
100
AcDbLinetypeTableRecord
  2
ByBlock
 70
     0
  3

 72
    65
 73
     0
 40
0.0
  0
LTYPE
  5
220
330
211
100
AcDbSymbolTableRecord
100
AcDbLinetypeTableRecord
  2
ByLayer
 70
     0
  3

 72
    65
 73
     0
 40
0.0
  0
LTYPE
  5
221
330
211
100
AcDbSymbolTableRecord
100
AcDbLinetypeTableRecord
  2
CONTINUOUS
 70
     0
  3
Solid line
 72
    65
 73
     0
 40
0.0
  0
LTYPE
  5
22F
330
211
100
AcDbSymbolTableRecord
100
AcDbLinetypeTableRecord
  2
DASHED
 70
     0
  3
__ __ __ __ __ __ __ __ __ __ __ __ __ __ __
 72
    65
 73
     2
 40
3.5
 49
2.0
 74
     0
 49
-1.5
 74
     0
  0
LTYPE
  5
230
330
211
100
AcDbSymbolTableRecord
100
AcDbLinetypeTableRecord
  2
CENTER
 70
     0
  3
____ _ ____ _ ____ _ ____ _ ____ _ ____ _ ____
 72
    65
 73
     4
 40
17.5
 49
13.0
 74
     0
 49
-1.5
 74
     0
 49
1.5
 74
     0
 49
-1.5
 74
     0
  0
LTYPE
  5
231
330
211
100
AcDbSymbolTableRecord
100
AcDbLinetypeTableRecord
  2
PHANTOM
 70
     0
  3
_____ _ _ _____ _ _ _____ _ _ _____ _ _ ____  
 72
    65
 73
     6
 40
15.5
 49
8.0
 74
     0
 49
-1.5
 74
     0
 49
1.5
 74
     0
 49
-1.5
 74
     0
 49
1.5
 74
     0
 49
-1.5
 74
     0
  0
LTYPE
  5
232
330
211
100
AcDbSymbolTableRecord
100
AcDbLinetypeTableRecord
  2
DOT
 70
     0
  3
. . . . . . . . . . . . . . . . . . . . . . . .
 72
    65
 73
     2
 40
0.25
 49
0.0
 74
     0
 49
-0.25
 74
     0
  0
LTYPE
  5
233
330
211
100
AcDbSymbolTableRecord
100
AcDbLinetypeTableRecord
  2
AM_ISO02W050
 70
     0
  3
__ __ __ __ __ __ __ __ __ __ __ __ __ __ __
 72
    65
 73
     2
 40
7.5
 49
6.0
 74
     0
 49
-1.5
 74
     0
  0
LTYPE
  5
234
330
211
100
AcDbSymbolTableRecord
100
AcDbLinetypeTableRecord
  2
AM_ISO08W050
 70
     0
  3
____ . ____ . ____ . ____ . ____ . ____ . ____
 72
    65
 73
     4
 40
18.0
 49
12.0
 74
     0
 49
-1.5
 74
     0
 49
3.0
 74
     0
 49
-1.5
 74
     0
  0
LTYPE
  5
235
330
211
100
AcDbSymbolTableRecord
100
AcDbLinetypeTableRecord
  2
AM_ISO09W050
 70
     0
  3
_____ . . _____ . . _____ . . ____ .. ____
 72
    65
 73
     6
 40
22.5
 49
12.0
 74
     0
 49
-1.5
 74
     0
 49
3.0
 74
     0
 49
-1.5
 74
     0
 49
3.0
 74
     0
 49
-1.5
 74
     0
  0
LTYPE
  5
236
330
211
100
AcDbSymbolTableRecord
100
AcDbLinetypeTableRecord
  2
AMCONSTR
 70
     0
  3
_______________________
 72
    65
 73
     2
 40
9999.0
 49
9999.0
 74
     0
 49
0.0
 74
     0
  0
LTYPE
  5
237
330
211
100
AcDbSymbolTableRecord
100
AcDbLinetypeTableRecord
  2
AM_ISO08W050X2
 70
     0
  3
__ . __ . __ . __ . __ . __
 72
    65
 73
     4
 40
9.0
 49
6.0
 74
     0
 49
-0.75
 74
     0
 49
1.5
 74
     0
 49
-0.75
 74
     0
  0
LTYPE
  5
238
330
211
100
AcDbSymbolTableRecord
100
AcDbLinetypeTableRecord
  2
AM_ISO02W050X2
 70
     0
  3
 _ _ _ _ _ _ _ _ _ _ _ _
 72
    65
 73
     2
 40
3.75
 49
3.0
 74
     0
 49
-0.75
 74
     0
  0
LTYPE
  5
239
330
211
100
AcDbSymbolTableRecord
100
AcDbLinetypeTableRecord
  2
AMZIGZAG
 70
     0
  3
/\/-/\/-/\/-/\/-/\/-/\/
 72
    65
 73
     2
 40
11.00009999999999
 49
0.0001
 74
     0
 49
-11.0
 74
     0
  0
LTYPE
  5
23A
330
211
100
AcDbSymbolTableRecord
100
AcDbLinetypeTableRecord
  2
HIDDEN
 70
     0
  3
Hidden __ __ __ __ __ __ __ __ __ __ __ __ __ _
 72
    65
 73
     2
 40
0.375
 49
0.25
 74
     0
 49
-0.125
 74
     0
  0
LTYPE
  5
23B
330
211
100
AcDbSymbolTableRecord
100
AcDbLinetypeTableRecord
  2
PHANTOM2
 70
     0
  3
Phantom (.5x) ___ _ _ ___ _ _ ___ _ _ ___ _ _
 72
    65
 73
     6
 40
1.25
 49
0.625
 74
     0
 49
-0.125
 74
     0
 49
0.125
 74
     0
 49
-0.125
 74
     0
 49
0.125
 74
     0
 49
-0.125
 74
     0
  0
LTYPE
  5
23C
330
211
100
AcDbSymbolTableRecord
100
AcDbLinetypeTableRecord
  2
CENTER2
 70
     0
  3
Center (.5x) ___ _ ___ _ ___ _ ___ _ ___ _ ___
 72
    65
 73
     4
 40
1.125
 49
0.75
 74
     0
 49
-0.125
 74
     0
 49
0.125
 74
     0
 49
-0.125
 74
     0
  0
LTYPE
  5
23D
330
211
100
AcDbSymbolTableRecord
100
AcDbLinetypeTableRecord
  2
HIDDEN2
 70
     0
  3
Hidden (.5x) _ _ _ _ _ _ _ _ _ _ _ _ _ _ _ _ _
 72
    65
 73
     2
 40
0.1875
 49
0.125
 74
     0
 49
-0.0625
 74
     0
  0
LTYPE
  5
23E
330
211
100
AcDbSymbolTableRecord
100
AcDbLinetypeTableRecord
  2
AMZIGZAG2
 70
     0
  3
/\/-/\/-/\/-/\/-/\/-/\/
 72
    65
 73
     2
 40
0.4401
 49
0.0001
 74
     0
 49
-0.4400000000000002
 74
     0
  0
LTYPE
  5
23F
330
211
100
AcDbSymbolTableRecord
100
AcDbLinetypeTableRecord
  2
ACANSTGB
 70
     0
  3
__ . . __ . .
 72
    65
 73
     6
 40
0.35433070866
 49
0.15748031496
 74
     0
 49
-0.03937007874
 74
     0
 49
0.03937007874
 74
     0
 49
-0.03937007874
 74
     0
 49
0.03937007874
 74
     0
 49
-0.03937007874
 74
     0
  0
LTYPE
  5
240
330
211
100
AcDbSymbolTableRecord
100
AcDbLinetypeTableRecord
  2
ACANSTGL
 70
     0
  3
_ _ _ _ _
 72
    65
 73
     2
 40
0.11811023622
 49
0.07874015748
 74
     0
 49
-0.03937007874
 74
     0
  0
ENDTAB
  0
TABLE
  2
LAYER
  5
20E
330
0
100
AcDbSymbolTable
 70
     3
  0
LAYER
  5
21C
330
20E
100
AcDbSymbolTableRecord
100
AcDbLayerTableRecord
  2
0
 70
     0
 62
     7
  6
CONTINUOUS
370
    -3
390
21B
  0
LAYER
  5
241
330
20E
100
AcDbSymbolTableRecord
100
AcDbLayerTableRecord
  2
1
 70
     0
 62
     7
  6
CONTINUOUS
370
    -3
390
21B
  0
LAYER
  5
242
330
20E
100
AcDbSymbolTableRecord
100
AcDbLayerTableRecord
  2
2
 70
     0
 62
     7
  6
CONTINUOUS
370
    -3
390
21B
  0
ENDTAB
  0
TABLE
  2
STYLE
  5
20F
330
0
100
AcDbSymbolTable
 70
     4
  0
STYLE
  5
21D
330
20F
100
AcDbSymbolTableRecord
100
AcDbTextStyleTableRecord
  2
STANDARD
 70
     0
 40
0.0
 41
1.0
 50
0.0
 71
     0
 42
0.2
  3
txt
  4
BIGFONT
  0
STYLE
  5
243
330
20F
100
AcDbSymbolTableRecord
100
AcDbTextStyleTableRecord
  2

 70
     1
 40
0.0
 41
1.0
 50
0.0
 71
     0
 42
0.2
  3
ltypeshp.shx
  4

  0
STYLE
  5
244
330
20F
100
AcDbSymbolTableRecord
100
AcDbTextStyleTableRecord
  2
ACANSTS
 70
     0
 40
1.0
 41
1.0
 50
0.0
 71
     0
 42
0.2
  3
romans.shx
  4
extfont.shx
  0
STYLE
  5
245
330
20F
100
AcDbSymbolTableRecord
100
AcDbTextStyleTableRecord
  2
ACANSGDT
 70
     0
 40
0.0
 41
1.0
 50
0.0
 71
     0
 42
0.2
  3
amgdtans.shx
  4

  0
ENDTAB
  0
TABLE
  2
VIEW
  5
212
330
0
100
AcDbSymbolTable
 70
     0
  0
ENDTAB
  0
TABLE
  2
UCS
  5
213
330
0
100
AcDbSymbolTable
 70
     0
  0
ENDTAB
  0
TABLE
  2
APPID
  5
215
330
0
100
AcDbSymbolTable
 70
     4
  0
APPID
  5
21E
330
215
100
AcDbSymbolTableRecord
100
AcDbRegAppTableRecord
  2
ACAD
 70
     0
  0
APPID
  5
246
330
215
100
AcDbSymbolTableRecord
100
AcDbRegAppTableRecord
  2
MCAD_NO_VIS
 70
     0
  0
APPID
  5
247
330
215
100
AcDbSymbolTableRecord
100
AcDbRegAppTableRecord
  2
ACAD_TEMP_GRAPHIC
 70
     0
  0
APPID
  5
248
330
215
100
AcDbSymbolTableRecord
100
AcDbRegAppTableRecord
  2
ACATTRIBSERVICES
 70
     0
  0
ENDTAB
  0
TABLE
  2
DIMSTYLE
  5
216
330
0
100
AcDbSymbolTable
 70
     7
100
AcDbDimStyleTable
 71
     0
  0
DIMSTYLE
105
249
330
216
100
AcDbSymbolTableRecord
100
AcDbDimStyleTableRecord
  2
STANDARD
 70
     0
279
     2
340
21D
  0
DIMSTYLE
105
24A
330
216
100
AcDbSymbolTableRecord
100
AcDbDimStyleTableRecord
  2
AM_ANSI
 70
     0
  4
mm
 41
0.1
 42
0.05
 43
0.5
 44
0.1
 47
0.1
 48
0.1
 78
     7
140
0.12
141
0.0
146
0.71
147
0.06
176
   256
177
   256
178
     2
279
     2
340
21D
  0
DIMSTYLE
105
24B
330
216
100
AcDbSymbolTableRecord
100
AcDbDimStyleTableRecord
  2
AM_ANSI$3
 70
     0
  4
mm
 41
0.1
 42
0.05
 43
0.5
 44
0.1
 47
0.1
 48
0.1
 78
     7
140
0.12
141
0.0
146
0.71
147
0.06
176
   256
177
   256
178
     2
279
     2
340
21D
  0
DIMSTYLE
105
24C
330
216
100
AcDbSymbolTableRecord
100
AcDbDimStyleTableRecord
  2
AM_ANSI$4
 70
     0
  4
mm
 41
0.1
 42
0.05
 43
0.5
 44
0.1
 47
0.1
 48
0.1
 78
     7
140
0.12
141
0.0
146
0.71
147
0.06
176
   256
177
   256
178
     2
279
     2
340
21D
  0
DIMSTYLE
105
24D
330
216
100
AcDbSymbolTableRecord
100
AcDbDimStyleTableRecord
  2
AM_ANSI$7
 70
     0
  4
mm
 41
0.1
 42
0.05
 43
0.5
 44
0.1
 47
0.1
 48
0.1
 78
     7
140
0.24
141
0.0
146
0.71
147
0.06
176
   256
177
   256
178
     2
279
     2
340
21D
  0
DIMSTYLE
105
24E
330
216
100
AcDbSymbolTableRecord
100
AcDbDimStyleTableRecord
  2
AM_ANSI$SF
 70
     0
  4
mm
 41
0.1
 42
0.05
 43
0.5
 44
0.1
 47
0.1
 48
0.1
 75
     1
 76
     1
 78
     7
140
0.12
141
0.0
146
0.71
147
0.06
176
   256
177
   256
178
     2
279
     2
340
21D
  0
DIMSTYLE
105
24F
330
216
100
AcDbSymbolTableRecord
100
AcDbDimStyleTableRecord
  2
AM_ANSI$SH
 70
     0
  4
mm
 41
0.1
 42
0.05
 43
0.5
 44
0.1
 47
0.1
 48
0.1
 75
     1
 76
     1
 78
     7
140
0.12
141
0.0
146
0.71
147
0.06
173
     1
176
   256
177
   256
178
     2
279
     2
340
21D
  0
ENDTAB
  0
TABLE
  2
BLOCK_RECORD
  5
20D
330
0
100
AcDbSymbolTable
 70
     3
  0
BLOCK_RECORD
  5
22A
102
{ACAD_XDICTIONARY
360
2AA
102
}
330
20D
100
AcDbSymbolTableRecord
100
AcDbBlockTableRecord
  2
*Model_Space
340
22D
  0
BLOCK_RECORD
  5
226
330
20D
100
AcDbSymbolTableRecord
100
AcDbBlockTableRecord
  2
*Paper_Space
340
229
  0
BLOCK_RECORD
  5
256
330
20D
100
AcDbSymbolTableRecord
100
AcDbBlockTableRecord
  2
$MODEL_SPACE
340
0
  0
BLOCK_RECORD
  5
258
330
20D
100
AcDbSymbolTableRecord
100
AcDbBlockTableRecord
  2
$PAPER_SPACE
340
0
  0
BLOCK_RECORD
  5
25A
330
20D
100
AcDbSymbolTableRecord
100
AcDbBlockTableRecord
  2
GENAXEH
340
0
  0
ENDTAB
  0
ENDSEC
  0
SECTION
  2
BLOCKS
  0
BLOCK
  5
22B
330
22A
100
AcDbEntity
  8
0
100
AcDbBlockBegin
  2
*Model_Space
 70
     0
 10
0.0
 20
0.0
 30
0.0
  3
*Model_Space
  1

  0
ENDBLK
  5
22C
330
22A
100
AcDbEntity
  8
0
100
AcDbBlockEnd
  0
BLOCK
  5
227
330
226
100
AcDbEntity
 67
     1
  8
0
100
AcDbBlockBegin
  2
*Paper_Space
 70
     0
 10
0.0
 20
0.0
 30
0.0
  3
*Paper_Space
  1

  0
ENDBLK
  5
228
330
226
100
AcDbEntity
 67
     1
  8
0
100
AcDbBlockEnd
  0
BLOCK
  5
257
330
256
100
AcDbEntity
  8
0
100
AcDbBlockBegin
  2
$MODEL_SPACE
 70
     0
 10
0.0
 20
0.0
 30
0.0
  3
$MODEL_SPACE
  1

  0
ENDBLK
  5
20
330
256
100
AcDbEntity
  8
0
100
AcDbBlockEnd
  0
BLOCK
  5
259
330
258
100
AcDbEntity
  8
0
100
AcDbBlockBegin
  2
$PAPER_SPACE
 70
     0
 10
0.0
 20
0.0
 30
0.0
  3
$PAPER_SPACE
  1

  0
ENDBLK
  5
1C
330
258
100
AcDbEntity
  8
0
100
AcDbBlockEnd
  0
BLOCK
  5
25B
330
25A
100
AcDbEntity
  8
0
100
AcDbBlockBegin
  2
GENAXEH
 70
     0
 10
0.0
 20
0.0
 30
0.0
  3
GENAXEH
  1

  0
LINE
  5
1F2
330
25A
100
AcDbEntity
  8
0
100
AcDbLine
 10
-1.0
 20
0.0
 30
0.0
 11
1.0
 21
0.0
 31
0.0
  0
ENDBLK
  5
1F4
330
25A
100
AcDbEntity
  8
0
100
AcDbBlockEnd
  0
ENDSEC
  0
SECTION
  2
ENTITIES
  0
LINE
  5
2F
330
22A
100
AcDbEntity
  8
0
  6
CENTER
 62
     7
100
AcDbLine
 10
-67.76715899999999
 20
-32.02024799999998
 30
0.0
 11
-67.76715899999999
 21
59.97975199999999
 31
0.0
  0
LINE
  5
30
330
22A
100
AcDbEntity
  8
0
  6
CENTER
 62
     7
100
AcDbLine
 10
-83.76715899999998
 20
13.979753
 30
0.0
 11
-47.267159
 21
13.979753
 31
0.0
  0
LINE
  5
31
330
22A
100
AcDbEntity
  8
0
  6
Continuous
 62
     7
100
AcDbLine
 10
-78.26715899999998
 20
31.479753
 30
0.0
 11
-55.76715899999999
 21
31.479753
 31
0.0
  0
LINE
  5
32
330
22A
100
AcDbEntity
  8
0
  6
Continuous
 62
     7
100
AcDbLine
 10
-78.26715899999998
 20
-3.5202467
 30
0.0
 11
-55.76715899999999
 21
-3.5202467
 31
0.0
  0
LINE
  5
33
330
22A
100
AcDbEntity
  8
0
  6
Continuous
 62
     7
100
AcDbLine
 10
-55.767155
 20
-3.5202467
 30
0.0
 11
-55.767155
 21
10.479753
 31
0.0
  0
LINE
  5
34
330
22A
100
AcDbEntity
  8
0
  6
CENTER
 62
     7
100
AcDbLine
 10
-76.51715899999998
 20
-10.520247
 30
0.0
 11
-66.01715899999999
 21
-10.520247
 31
0.0
  0
LINE
  5
35
330
22A
100
AcDbEntity
  8
0
  6
CENTER
 62
     7
100
AcDbLine
 10
-76.51715899999998
 20
38.479752
 30
0.0
 11
-66.01715899999999
 21
38.479752
 31
0.0
  0
LINE
  5
36
330
22A
100
AcDbEntity
  8
0
  6
CENTER
 62
     7
100
AcDbLine
 10
-71.26715899999997
 20
-15.77024699999999
 30
0.0
 11
-71.26715899999997
 21
-5.270247
 31
0.0
  0
LINE
  5
37
330
22A
100
AcDbEntity
  8
0
  6
CENTER
 62
     7
100
AcDbLine
 10
-59.767155
 20
-15.77024699999999
 30
0.0
 11
-59.767155
 21
-5.270247
 31
0.0
  0
LINE
  5
38
330
22A
100
AcDbEntity
  8
0
  6
CENTER
 62
     7
100
AcDbLine
 10
-59.767155
 20
33.229752
 30
0.0
 11
-59.767155
 21
43.72975199999999
 31
0.0
  0
LINE
  5
39
330
22A
100
AcDbEntity
  8
0
  6
CENTER
 62
     7
100
AcDbLine
 10
-71.26715899999997
 20
33.229752
 30
0.0
 11
-71.26715899999997
 21
43.72975199999999
 31
0.0
  0
LINE
  5
3A
330
22A
100
AcDbEntity
  8
0
  6
Continuous
 62
     7
100
AcDbLine
 10
-81.76715899999997
 20
125.47976
 30
0.0
 11
-48.767162
 21
125.47976
 31
0.0
  0
LINE
  5
3B
330
22A
100
AcDbEntity
  8
0
  6
Continuous
 62
     7
100
AcDbLine
 10
-81.76715899999997
 20
126.97976
 30
0.0
 11
-47.76715499999999
 21
126.97976
 31
0.0
  0
LINE
  5
3C
330
22A
100
AcDbEntity
  8
0
  6
CENTER
 62
     7
100
AcDbLine
 10
-67.76715899999999
 20
123.47976
 30
0.0
 11
-67.76715899999999
 21
149.9797499999999
 31
0.0
  0
LINE
  5
3D
330
22A
100
AcDbEntity
  8
0
  6
Continuous
 62
     7
100
AcDbLine
 10
-157.7671499999999
 20
-30.02024699999999
 30
0.0
 11
-157.7671499999999
 21
57.97975199999999
 31
0.0
  0
LINE
  5
3E
330
22A
100
AcDbEntity
  8
0
  6
Continuous
 62
     7
100
AcDbLine
 10
-156.2671499999999
 20
-30.02024699999999
 30
0.0
 11
-156.2671499999999
 21
57.97975199999999
 31
0.0
  0
LINE
  5
3F
330
22A
100
AcDbEntity
  8
0
  6
CENTER
 62
     7
100
AcDbLine
 10
-180.7671499999999
 20
13.979753
 30
0.0
 11
-154.2671499999999
 21
13.979753
 31
0.0
  0
LINE
  5
40
330
22A
100
AcDbEntity
  8
0
  6
Continuous
 62
     7
100
AcDbLine
 10
-162.06715
 20
-15.520247
 30
0.0
 11
-157.7671499999999
 21
-15.520247
 31
0.0
  0
LINE
  5
41
330
22A
100
AcDbEntity
  8
0
  6
Continuous
 62
     7
100
AcDbLine
 10
-162.06715
 20
43.47975199999999
 30
0.0
 11
-157.7671499999999
 21
43.47975199999999
 31
0.0
  0
LINE
  5
42
330
22A
100
AcDbEntity
  8
0
  6
Continuous
 62
     7
100
AcDbLine
 10
-178.7671499999999
 20
33.479752
 30
0.0
 11
-158.7671499999999
 21
33.479752
 31
0.0
  0
LINE
  5
43
330
22A
100
AcDbEntity
  8
0
  6
Continuous
 62
     7
100
AcDbLine
 10
-178.7671499999999
 20
-5.520247
 30
0.0
 11
-158.7671499999999
 21
-5.520247
 31
0.0
  0
LINE
  5
44
330
22A
100
AcDbEntity
  8
0
  6
Continuous
 62
     7
100
AcDbLine
 10
-159.7671499999998
 20
-15.520247
 30
0.0
 11
-159.7671499999998
 21
-5.520247
 31
0.0
  0
LINE
  5
45
330
22A
100
AcDbEntity
  8
0
  6
Continuous
 62
     7
100
AcDbLine
 10
-159.7671499999998
 20
33.479752
 30
0.0
 11
-159.7671499999998
 21
43.47975199999999
 31
0.0
  0
LINE
  5
46
330
22A
100
AcDbEntity
  8
0
  6
CENTER
 62
     7
100
AcDbLine
 10
-168.2671499999998
 20
38.479752
 30
0.0
 11
-154.2671499999999
 21
38.479752
 31
0.0
  0
LINE
  5
47
330
22A
100
AcDbEntity
  8
0
  6
CENTER
 62
     7
100
AcDbLine
 10
-168.20532
 20
-10.520247
 30
0.0
 11
-154.2671499999999
 21
-10.520247
 31
0.0
  0
LINE
  5
48
330
22A
100
AcDbEntity
  8
0
  6
CENTER
 62
     7
100
AcDbLine
 10
-163.2671499999998
 20
-6.570234799999998
 30
0.0
 11
-163.2671499999998
 21
35.07706499999999
 31
0.0
  0
LINE
  5
49
330
22A
100
AcDbEntity
  8
0
  6
Continuous
 62
     7
100
AcDbLine
 10
-60.267155
 20
-13.020247
 30
0.0
 11
-60.267155
 21
-12.02024699999999
 31
0.0
  0
LINE
  5
4A
330
22A
100
AcDbEntity
  8
0
  6
Continuous
 62
     7
100
AcDbLine
 10
-59.267155
 20
-13.020247
 30
0.0
 11
-59.267155
 21
-12.02024699999999
 31
0.0
  0
LINE
  5
4B
330
22A
100
AcDbEntity
  8
0
  6
Continuous
 62
     7
100
AcDbLine
 10
-60.267155
 20
-13.020247
 30
0.0
 11
-59.267155
 21
-13.020247
 31
0.0
  0
LINE
  5
4C
330
22A
100
AcDbEntity
  8
0
  6
Continuous
 62
     7
100
AcDbLine
 10
-60.267155
 20
-8.020246499999997
 30
0.0
 11
-59.267155
 21
-8.020246499999997
 31
0.0
  0
LINE
  5
4D
330
22A
100
AcDbEntity
  8
0
  6
Continuous
 62
     7
100
AcDbLine
 10
-57.267155
 20
-11.020247
 30
0.0
 11
-57.267155
 21
-10.02024699999999
 31
0.0
  0
LINE
  5
4E
330
22A
100
AcDbEntity
  8
0
  6
Continuous
 62
     7
100
AcDbLine
 10
-62.267155
 20
-11.020247
 30
0.0
 11
-62.267155
 21
-10.02024699999999
 31
0.0
  0
LINE
  5
4F
330
22A
100
AcDbEntity
  8
0
  6
Continuous
 62
     7
100
AcDbLine
 10
-62.267155
 20
-11.020247
 30
0.0
 11
-61.267155
 21
-11.020247
 31
0.0
  0
LINE
  5
50
330
22A
100
AcDbEntity
  8
0
  6
Continuous
 62
     7
100
AcDbLine
 10
-62.267155
 20
-10.02024699999999
 30
0.0
 11
-61.267155
 21
-10.02024699999999
 31
0.0
  0
LINE
  5
51
330
22A
100
AcDbEntity
  8
0
  6
Continuous
 62
     7
100
AcDbLine
 10
-60.267155
 20
-9.020246499999997
 30
0.0
 11
-60.267155
 21
-8.020246499999997
 31
0.0
  0
LINE
  5
52
330
22A
100
AcDbEntity
  8
0
  6
Continuous
 62
     7
100
AcDbLine
 10
-58.267155
 20
-10.02024699999999
 30
0.0
 11
-57.267155
 21
-10.02024699999999
 31
0.0
  0
LINE
  5
53
330
22A
100
AcDbEntity
  8
0
  6
Continuous
 62
     7
100
AcDbLine
 10
-58.267155
 20
-11.020247
 30
0.0
 11
-57.267155
 21
-11.020247
 31
0.0
  0
LINE
  5
54
330
22A
100
AcDbEntity
  8
0
  6
Continuous
 62
     7
100
AcDbLine
 10
-59.267155
 20
-9.020246499999997
 30
0.0
 11
-59.267155
 21
-8.020246499999997
 31
0.0
  0
LINE
  5
55
330
22A
100
AcDbEntity
  8
0
  6
Continuous
 62
     7
100
AcDbLine
 10
-71.76715899999997
 20
-13.020247
 30
0.0
 11
-71.76715899999997
 21
-12.02024699999999
 31
0.0
  0
LINE
  5
56
330
22A
100
AcDbEntity
  8
0
  6
Continuous
 62
     7
100
AcDbLine
 10
-70.76715899999998
 20
-13.020247
 30
0.0
 11
-70.76715899999998
 21
-12.02024699999999
 31
0.0
  0
LINE
  5
57
330
22A
100
AcDbEntity
  8
0
  6
Continuous
 62
     7
100
AcDbLine
 10
-71.76715899999997
 20
-13.020247
 30
0.0
 11
-70.76715899999998
 21
-13.020247
 31
0.0
  0
LINE
  5
58
330
22A
100
AcDbEntity
  8
0
  6
Continuous
 62
     7
100
AcDbLine
 10
-71.76715899999997
 20
-8.020246499999997
 30
0.0
 11
-70.76715899999998
 21
-8.020246499999997
 31
0.0
  0
LINE
  5
59
330
22A
100
AcDbEntity
  8
0
  6
Continuous
 62
     7
100
AcDbLine
 10
-68.76715899999999
 20
-11.020247
 30
0.0
 11
-68.76715899999999
 21
-10.02024699999999
 31
0.0
  0
LINE
  5
5A
330
22A
100
AcDbEntity
  8
0
  6
Continuous
 62
     7
100
AcDbLine
 10
-73.76715899999997
 20
-11.020247
 30
0.0
 11
-73.76715899999997
 21
-10.02024699999999
 31
0.0
  0
LINE
  5
5B
330
22A
100
AcDbEntity
  8
0
  6
Continuous
 62
     7
100
AcDbLine
 10
-73.76715899999997
 20
-11.020247
 30
0.0
 11
-72.76715899999998
 21
-11.020247
 31
0.0
  0
LINE
  5
5C
330
22A
100
AcDbEntity
  8
0
  6
Continuous
 62
     7
100
AcDbLine
 10
-73.76715899999997
 20
-10.02024699999999
 30
0.0
 11
-72.76715899999998
 21
-10.02024699999999
 31
0.0
  0
LINE
  5
5D
330
22A
100
AcDbEntity
  8
0
  6
Continuous
 62
     7
100
AcDbLine
 10
-71.76715899999997
 20
-9.020246499999997
 30
0.0
 11
-71.76715899999997
 21
-8.020246499999997
 31
0.0
  0
LINE
  5
5E
330
22A
100
AcDbEntity
  8
0
  6
Continuous
 62
     7
100
AcDbLine
 10
-69.76715899999999
 20
-10.02024699999999
 30
0.0
 11
-68.76715899999999
 21
-10.02024699999999
 31
0.0
  0
LINE
  5
5F
330
22A
100
AcDbEntity
  8
0
  6
Continuous
 62
     7
100
AcDbLine
 10
-69.76715899999999
 20
-11.020247
 30
0.0
 11
-68.76715899999999
 21
-11.020247
 31
0.0
  0
LINE
  5
60
330
22A
100
AcDbEntity
  8
0
  6
Continuous
 62
     7
100
AcDbLine
 10
-70.76715899999998
 20
-9.020246499999997
 30
0.0
 11
-70.76715899999998
 21
-8.020246499999997
 31
0.0
  0
LINE
  5
61
330
22A
100
AcDbEntity
  8
0
  6
Continuous
 62
     7
100
AcDbLine
 10
-71.76715899999997
 20
35.979752
 30
0.0
 11
-71.76715899999997
 21
36.979752
 31
0.0
  0
LINE
  5
62
330
22A
100
AcDbEntity
  8
0
  6
Continuous
 62
     7
100
AcDbLine
 10
-70.76715899999998
 20
35.979752
 30
0.0
 11
-70.76715899999998
 21
36.979752
 31
0.0
  0
LINE
  5
63
330
22A
100
AcDbEntity
  8
0
  6
Continuous
 62
     7
100
AcDbLine
 10
-71.76715899999997
 20
35.979752
 30
0.0
 11
-70.76715899999998
 21
35.979752
 31
0.0
  0
LINE
  5
64
330
22A
100
AcDbEntity
  8
0
  6
Continuous
 62
     7
100
AcDbLine
 10
-71.76715899999997
 20
40.97975199999999
 30
0.0
 11
-70.76715899999998
 21
40.97975199999999
 31
0.0
  0
LINE
  5
65
330
22A
100
AcDbEntity
  8
0
  6
Continuous
 62
     7
100
AcDbLine
 10
-68.76715899999999
 20
37.97975199999999
 30
0.0
 11
-68.76715899999999
 21
38.97975199999999
 31
0.0
  0
LINE
  5
66
330
22A
100
AcDbEntity
  8
0
  6
Continuous
 62
     7
100
AcDbLine
 10
-73.76715899999997
 20
37.97975199999999
 30
0.0
 11
-73.76715899999997
 21
38.97975199999999
 31
0.0
  0
LINE
  5
67
330
22A
100
AcDbEntity
  8
0
  6
Continuous
 62
     7
100
AcDbLine
 10
-73.76715899999997
 20
37.97975199999999
 30
0.0
 11
-72.76715899999998
 21
37.97975199999999
 31
0.0
  0
LINE
  5
68
330
22A
100
AcDbEntity
  8
0
  6
Continuous
 62
     7
100
AcDbLine
 10
-73.76715899999997
 20
38.97975199999999
 30
0.0
 11
-72.76715899999998
 21
38.97975199999999
 31
0.0
  0
LINE
  5
69
330
22A
100
AcDbEntity
  8
0
  6
Continuous
 62
     7
100
AcDbLine
 10
-71.76715899999997
 20
39.97975199999999
 30
0.0
 11
-71.76715899999997
 21
40.97975199999999
 31
0.0
  0
LINE
  5
6A
330
22A
100
AcDbEntity
  8
0
  6
Continuous
 62
     7
100
AcDbLine
 10
-69.76715899999999
 20
38.97975199999999
 30
0.0
 11
-68.76715899999999
 21
38.97975199999999
 31
0.0
  0
LINE
  5
6B
330
22A
100
AcDbEntity
  8
0
  6
Continuous
 62
     7
100
AcDbLine
 10
-69.76715899999999
 20
37.97975199999999
 30
0.0
 11
-68.76715899999999
 21
37.97975199999999
 31
0.0
  0
LINE
  5
6C
330
22A
100
AcDbEntity
  8
0
  6
Continuous
 62
     7
100
AcDbLine
 10
-70.76715899999998
 20
39.97975199999999
 30
0.0
 11
-70.76715899999998
 21
40.97975199999999
 31
0.0
  0
LINE
  5
6D
330
22A
100
AcDbEntity
  8
0
  6
Continuous
 62
     7
100
AcDbLine
 10
-60.267155
 20
35.979752
 30
0.0
 11
-60.267155
 21
36.979752
 31
0.0
  0
LINE
  5
6E
330
22A
100
AcDbEntity
  8
0
  6
Continuous
 62
     7
100
AcDbLine
 10
-59.267155
 20
35.979752
 30
0.0
 11
-59.267155
 21
36.979752
 31
0.0
  0
LINE
  5
6F
330
22A
100
AcDbEntity
  8
0
  6
Continuous
 62
     7
100
AcDbLine
 10
-60.267155
 20
35.979752
 30
0.0
 11
-59.267155
 21
35.979752
 31
0.0
  0
LINE
  5
70
330
22A
100
AcDbEntity
  8
0
  6
Continuous
 62
     7
100
AcDbLine
 10
-60.267155
 20
40.97975199999999
 30
0.0
 11
-59.267155
 21
40.97975199999999
 31
0.0
  0
LINE
  5
71
330
22A
100
AcDbEntity
  8
0
  6
Continuous
 62
     7
100
AcDbLine
 10
-57.267155
 20
37.97975199999999
 30
0.0
 11
-57.267155
 21
38.97975199999999
 31
0.0
  0
LINE
  5
72
330
22A
100
AcDbEntity
  8
0
  6
Continuous
 62
     7
100
AcDbLine
 10
-62.267155
 20
37.97975199999999
 30
0.0
 11
-62.267155
 21
38.97975199999999
 31
0.0
  0
LINE
  5
73
330
22A
100
AcDbEntity
  8
0
  6
Continuous
 62
     7
100
AcDbLine
 10
-62.267155
 20
37.97975199999999
 30
0.0
 11
-61.267155
 21
37.97975199999999
 31
0.0
  0
LINE
  5
74
330
22A
100
AcDbEntity
  8
0
  6
Continuous
 62
     7
100
AcDbLine
 10
-62.267155
 20
38.97975199999999
 30
0.0
 11
-61.267155
 21
38.97975199999999
 31
0.0
  0
LINE
  5
75
330
22A
100
AcDbEntity
  8
0
  6
Continuous
 62
     7
100
AcDbLine
 10
-60.267155
 20
39.97975199999999
 30
0.0
 11
-60.267155
 21
40.97975199999999
 31
0.0
  0
LINE
  5
76
330
22A
100
AcDbEntity
  8
0
  6
Continuous
 62
     7
100
AcDbLine
 10
-58.267155
 20
38.97975199999999
 30
0.0
 11
-57.267155
 21
38.97975199999999
 31
0.0
  0
LINE
  5
77
330
22A
100
AcDbEntity
  8
0
  6
Continuous
 62
     7
100
AcDbLine
 10
-58.267155
 20
37.97975199999999
 30
0.0
 11
-57.267155
 21
37.97975199999999
 31
0.0
  0
LINE
  5
78
330
22A
100
AcDbEntity
  8
0
  6
Continuous
 62
     7
100
AcDbLine
 10
-59.267155
 20
39.97975199999999
 30
0.0
 11
-59.267155
 21
40.97975199999999
 31
0.0
  0
LINE
  5
79
330
22A
100
AcDbEntity
  8
0
  6
CENTER
 62
     7
100
AcDbLine
 10
-56.767155
 20
-40.35839099999999
 30
0.0
 11
-56.767155
 21
33.479752
 31
0.0
  0
LINE
  5
7A
330
22A
100
AcDbEntity
  8
0
  6
Continuous
 62
     7
100
AcDbLine
 10
-60.767155
 20
-3.020246699999999
 30
0.0
 11
-60.767155
 21
30.97975299999999
 31
0.0
  0
LINE
  5
7B
330
22A
100
AcDbEntity
  8
0
  6
Continuous
 62
     7
100
AcDbLine
 10
-59.267155
 20
-3.5202467
 30
0.0
 11
-59.267155
 21
-3.020246699999999
 31
0.0
  0
LINE
  5
7C
330
22A
100
AcDbEntity
  8
0
  6
Continuous
 62
     7
100
AcDbLine
 10
-60.767155
 20
30.97975299999999
 30
0.0
 11
-55.767155
 21
30.97975299999999
 31
0.0
  0
LINE
  5
7D
330
22A
100
AcDbEntity
  8
0
  6
Continuous
 62
     7
100
AcDbLine
 10
-60.767155
 20
-3.020246699999999
 30
0.0
 11
-55.767155
 21
-3.020246699999999
 31
0.0
  0
LINE
  5
7E
330
22A
100
AcDbEntity
  8
0
  6
Continuous
 62
     7
100
AcDbLine
 10
-59.267155
 20
30.97975299999999
 30
0.0
 11
-59.267155
 21
31.479753
 31
0.0
  0
LINE
  5
7F
330
22A
100
AcDbEntity
  8
0
  6
Continuous
 62
     7
100
AcDbLine
 10
-162.06715
 20
-15.520247
 30
0.0
 11
-162.06715
 21
-6.520247
 31
0.0
  0
LINE
  5
80
330
22A
100
AcDbEntity
  8
0
  6
Continuous
 62
     7
100
AcDbLine
 10
-162.06715
 20
34.479752
 30
0.0
 11
-162.06715
 21
43.47975199999999
 31
0.0
  0
LINE
  5
81
330
22A
100
AcDbEntity
  8
0
  6
Continuous
 62
     7
100
AcDbLine
 10
-162.06715
 20
-6.520247
 30
0.0
 11
-159.7671499999998
 21
-6.520247
 31
0.0
  0
LINE
  5
82
330
22A
100
AcDbEntity
  8
0
  6
Continuous
 62
     7
100
AcDbLine
 10
-162.06715
 20
34.479752
 30
0.0
 11
-159.7671499999998
 21
34.479752
 31
0.0
  0
LINE
  5
83
330
22A
100
AcDbEntity
  8
0
  6
Continuous
 62
     7
100
AcDbLine
 10
-166.2671499999999
 20
-12.02024699999999
 30
0.0
 11
-166.2671499999999
 21
-9.020246499999997
 31
0.0
  0
LINE
  5
84
330
22A
100
AcDbEntity
  8
0
  6
Continuous
 62
     7
100
AcDbLine
 10
-165.76715
 20
-12.52024699999999
 30
0.0
 11
-162.06715
 21
-12.52024699999999
 31
0.0
  0
LINE
  5
85
330
22A
100
AcDbEntity
  8
0
  6
Continuous
 62
     7
100
AcDbLine
 10
-165.76715
 20
-8.520246499999997
 30
0.0
 11
-162.06715
 21
-8.520246499999997
 31
0.0
  0
LINE
  5
86
330
22A
100
AcDbEntity
  8
0
  6
Continuous
 62
     7
100
AcDbLine
 10
-165.76715
 20
-12.52024699999999
 30
0.0
 11
-165.76715
 21
-8.520246499999997
 31
0.0
  0
LINE
  5
87
330
22A
100
AcDbEntity
  8
0
  6
Continuous
 62
     7
100
AcDbLine
 10
-166.2671499999999
 20
-9.020246499999997
 30
0.0
 11
-162.06715
 21
-9.020246499999997
 31
0.0
  0
LINE
  5
88
330
22A
100
AcDbEntity
  8
0
  6
Continuous
 62
     7
100
AcDbLine
 10
-166.2671499999999
 20
-12.02024699999999
 30
0.0
 11
-162.06715
 21
-12.02024699999999
 31
0.0
  0
LINE
  5
89
330
22A
100
AcDbEntity
  8
0
  6
Continuous
 62
     7
100
AcDbLine
 10
-165.7671699999999
 20
-12.520264
 30
0.0
 11
-166.2671699999999
 21
-12.020264
 31
0.0
  0
LINE
  5
8A
330
22A
100
AcDbEntity
  8
0
  6
Continuous
 62
     7
100
AcDbLine
 10
-166.2671499999999
 20
-9.020257899999997
 30
0.0
 11
-165.76715
 21
-8.520257
 31
0.0
  0
LINE
  5
8B
330
22A
100
AcDbEntity
  8
0
  6
Continuous
 62
     7
100
AcDbLine
 10
-166.2671499999999
 20
39.97975199999999
 30
0.0
 11
-162.06715
 21
39.97975199999999
 31
0.0
  0
LINE
  5
8C
330
22A
100
AcDbEntity
  8
0
  6
Continuous
 62
     7
100
AcDbLine
 10
-166.2671699999999
 20
36.979748
 30
0.0
 11
-165.7671699999999
 21
36.47974399999999
 31
0.0
  0
LINE
  5
8D
330
22A
100
AcDbEntity
  8
0
  6
Continuous
 62
     7
100
AcDbLine
 10
-165.76715
 20
40.47975199999999
 30
0.0
 11
-166.2671499999999
 21
39.97975199999999
 31
0.0
  0
LINE
  5
8E
330
22A
100
AcDbEntity
  8
0
  6
Continuous
 62
     7
100
AcDbLine
 10
-166.2671499999999
 20
39.97975199999999
 30
0.0
 11
-166.2671499999999
 21
36.979752
 31
0.0
  0
LINE
  5
8F
330
22A
100
AcDbEntity
  8
0
  6
Continuous
 62
     7
100
AcDbLine
 10
-165.76715
 20
40.47975199999999
 30
0.0
 11
-162.06715
 21
40.47975199999999
 31
0.0
  0
LINE
  5
90
330
22A
100
AcDbEntity
  8
0
  6
Continuous
 62
     7
100
AcDbLine
 10
-165.76715
 20
36.47975199999999
 30
0.0
 11
-162.06715
 21
36.47975199999999
 31
0.0
  0
LINE
  5
91
330
22A
100
AcDbEntity
  8
0
  6
Continuous
 62
     7
100
AcDbLine
 10
-165.76715
 20
40.47975199999999
 30
0.0
 11
-165.76715
 21
36.47975199999999
 31
0.0
  0
LINE
  5
92
330
22A
100
AcDbEntity
  8
0
  6
Continuous
 62
     7
100
AcDbLine
 10
-166.2671499999999
 20
36.979752
 30
0.0
 11
-162.06715
 21
36.979752
 31
0.0
  0
LINE
  5
93
330
22A
100
AcDbEntity
  8
0
  6
Continuous
 62
     7
100
AcDbLine
 10
-52.267155
 20
126.97976
 30
0.0
 11
-52.267155
 21
135.0797599999999
 31
0.0
  0
LINE
  5
94
330
22A
100
AcDbEntity
  8
0
  6
CENTER
 62
     7
100
AcDbLine
 10
-56.767159
 20
137.02975
 30
0.0
 11
-56.767159
 21
127.92976
 31
0.0
  0
LINE
  5
95
330
22A
100
AcDbEntity
  8
0
  6
CENTER
 62
     7
100
AcDbLine
 10
-61.317158
 20
132.47975
 30
0.0
 11
-52.217159
 21
132.47975
 31
0.0
  0
LINE
  5
96
330
22A
100
AcDbEntity
  8
0
  6
Continuous
 62
     7
100
AcDbLine
 10
-78.26715899999998
 20
128.9797499999999
 30
0.0
 11
-52.267155
 21
128.9797499999999
 31
0.0
  0
LINE
  5
97
330
22A
100
AcDbEntity
  8
0
  6
Continuous
 62
     7
100
AcDbLine
 10
-77.76715899999998
 20
131.27975
 30
0.0
 11
-53.26715899999999
 21
131.27975
 31
0.0
  0
LINE
  5
98
330
22A
100
AcDbEntity
  8
0
  6
Continuous
 62
     7
100
AcDbLine
 10
-77.76715899999998
 20
128.9797499999999
 30
0.0
 11
-77.76715899999998
 21
131.27975
 31
0.0
  0
LINE
  5
99
330
22A
100
AcDbEntity
  8
0
  6
CENTER
 62
     7
100
AcDbLine
 10
-71.26715899999997
 20
123.47976
 30
0.0
 11
-71.26715899999997
 21
137.4797499999999
 31
0.0
  0
LINE
  5
9A
330
22A
100
AcDbEntity
  8
0
  6
CENTER
 62
     7
100
AcDbLine
 10
-59.767159
 20
123.47976
 30
0.0
 11
-59.767159
 21
137.4797499999999
 31
0.0
  0
LINE
  5
9B
330
22A
100
AcDbEntity
  8
0
  6
Continuous
 62
     7
100
AcDbLine
 10
-72.76715899999998
 20
135.4797499999999
 30
0.0
 11
-69.76715899999999
 21
135.4797499999999
 31
0.0
  0
LINE
  5
9C
330
22A
100
AcDbEntity
  8
0
  6
Continuous
 62
     7
100
AcDbLine
 10
-73.26715899999998
 20
131.27975
 30
0.0
 11
-73.26715899999998
 21
134.9797499999999
 31
0.0
  0
LINE
  5
9D
330
22A
100
AcDbEntity
  8
0
  6
Continuous
 62
     7
100
AcDbLine
 10
-69.26715899999999
 20
131.27975
 30
0.0
 11
-69.26715899999999
 21
134.9797499999999
 31
0.0
  0
LINE
  5
9E
330
22A
100
AcDbEntity
  8
0
  6
Continuous
 62
     7
100
AcDbLine
 10
-72.76715899999998
 20
131.27975
 30
0.0
 11
-72.76715899999998
 21
135.4797499999999
 31
0.0
  0
LINE
  5
9F
330
22A
100
AcDbEntity
  8
0
  6
Continuous
 62
     7
100
AcDbLine
 10
-73.26715899999998
 20
134.9797499999999
 30
0.0
 11
-69.26715899999999
 21
134.9797499999999
 31
0.0
  0
LINE
  5
A0
330
22A
100
AcDbEntity
  8
0
  6
Continuous
 62
     7
100
AcDbLine
 10
-69.76715899999999
 20
131.27975
 30
0.0
 11
-69.76715899999999
 21
135.4797499999999
 31
0.0
  0
LINE
  5
A1
330
22A
100
AcDbEntity
  8
0
  6
Continuous
 62
     7
100
AcDbLine
 10
-69.76715899999999
 20
135.4797499999999
 30
0.0
 11
-69.26715899999999
 21
134.9797499999999
 31
0.0
  0
LINE
  5
A2
330
22A
100
AcDbEntity
  8
0
  6
Continuous
 62
     7
100
AcDbLine
 10
-73.26715899999998
 20
134.9797499999999
 30
0.0
 11
-72.76715899999998
 21
135.4797699999998
 31
0.0
  0
LINE
  5
A3
330
22A
100
AcDbEntity
  8
0
  6
Continuous
 62
     7
100
AcDbLine
 10
-57.767155
 20
134.9797499999999
 30
0.0
 11
-58.267155
 21
135.4797499999999
 31
0.0
  0
LINE
  5
A4
330
22A
100
AcDbEntity
  8
0
  6
Continuous
 62
     7
100
AcDbLine
 10
-58.26715899999999
 20
135.4797499999999
 30
0.0
 11
-61.267159
 21
135.4797499999999
 31
0.0
  0
LINE
  5
A5
330
22A
100
AcDbEntity
  8
0
  6
Continuous
 62
     7
100
AcDbLine
 10
-57.767159
 20
131.27975
 30
0.0
 11
-57.767159
 21
134.9797499999999
 31
0.0
  0
LINE
  5
A6
330
22A
100
AcDbEntity
  8
0
  6
Continuous
 62
     7
100
AcDbLine
 10
-61.767159
 20
131.27975
 30
0.0
 11
-61.767159
 21
134.9797499999999
 31
0.0
  0
LINE
  5
A7
330
22A
100
AcDbEntity
  8
0
  6
Continuous
 62
     7
100
AcDbLine
 10
-58.26715899999999
 20
131.27975
 30
0.0
 11
-58.26715899999999
 21
135.4797499999999
 31
0.0
  0
LINE
  5
A8
330
22A
100
AcDbEntity
  8
0
  6
Continuous
 62
     7
100
AcDbLine
 10
-57.767159
 20
134.9797499999999
 30
0.0
 11
-61.767159
 21
134.9797499999999
 31
0.0
  0
LINE
  5
A9
330
22A
100
AcDbEntity
  8
0
  6
Continuous
 62
     7
100
AcDbLine
 10
-61.267159
 20
131.27975
 30
0.0
 11
-61.267159
 21
135.4797499999999
 31
0.0
  0
LINE
  5
AA
330
22A
100
AcDbEntity
  8
0
  6
Continuous
 62
     7
100
AcDbLine
 10
-61.267159
 20
135.4797499999999
 30
0.0
 11
-61.767159
 21
134.9797499999999
 31
0.0
  0
LINE
  5
AB
330
22A
100
AcDbEntity
  8
0
  6
Continuous
 62
     7
100
AcDbLine
 10
-178.7671499999999
 20
-5.520247
 30
0.0
 11
-178.7671499999999
 21
33.479752
 31
0.0
  0
LINE
  5
AC
330
22A
100
AcDbEntity
  8
0
  6
Continuous
 62
     7
100
AcDbLine
 10
-53.267155
 20
136.0797599999999
 30
0.0
 11
-53.267155
 21
147.47975
 31
0.0
  0
LINE
  5
AD
330
22A
100
AcDbEntity
  8
0
  6
Continuous
 62
     7
100
AcDbLine
 10
-78.26715899999998
 20
147.47975
 30
0.0
 11
-53.267155
 21
147.47975
 31
0.0
  0
LINE
  5
AE
330
22A
100
AcDbEntity
  8
0
  6
Continuous
 62
     7
100
AcDbLine
 10
-78.26715899999998
 20
147.9797499999999
 30
0.0
 11
-53.267155
 21
147.9797499999999
 31
0.0
  0
LINE
  5
AF
330
22A
100
AcDbEntity
  8
0
  6
Continuous
 62
     7
100
AcDbLine
 10
-52.767155
 20
136.4797499999999
 30
0.0
 11
-52.767155
 21
147.47975
 31
0.0
  0
LINE
  5
B0
330
22A
100
AcDbEntity
  8
0
  6
CENTER
 62
     7
100
AcDbLine
 10
-65.017151
 20
-10.520247
 30
0.0
 11
-54.517155
 21
-10.520247
 31
0.0
  0
LINE
  5
B1
330
22A
100
AcDbEntity
  8
0
  6
CENTER
 62
     7
100
AcDbLine
 10
-65.017151
 20
38.479752
 30
0.0
 11
-54.517155
 21
38.479752
 31
0.0
  0
LINE
  5
B2
330
22A
100
AcDbEntity
  8
0
  6
Continuous
 62
     7
100
AcDbLine
 10
-81.76715899999997
 20
-30.02024699999999
 30
0.0
 11
-81.76715899999997
 21
57.97975199999999
 31
0.0
  0
LINE
  5
B3
330
22A
100
AcDbEntity
  8
0
  6
Continuous
 62
     7
100
AcDbLine
 10
-157.7671499999999
 20
57.97975199999999
 30
0.0
 11
-156.2671499999999
 21
57.97975199999999
 31
0.0
  0
LINE
  5
B4
330
22A
100
AcDbEntity
  8
0
  6
Continuous
 62
     7
100
AcDbLine
 10
-157.7671499999999
 20
-30.02024699999999
 30
0.0
 11
-156.2671499999999
 21
-30.02024699999999
 31
0.0
  0
LINE
  5
B5
330
22A
100
AcDbEntity
  8
0
  6
CENTER
 62
     7
100
AcDbLine
 10
-159.7671499999998
 20
-23.020247
 30
0.0
 11
-154.2671499999999
 21
-23.020247
 31
0.0
  0
LINE
  5
B6
330
22A
100
AcDbEntity
  8
0
  6
CENTER
 62
     7
100
AcDbLine
 10
-159.7671499999998
 20
50.979752
 30
0.0
 11
-154.2671499999999
 21
50.979752
 31
0.0
  0
LINE
  5
B7
330
22A
100
AcDbEntity
  8
0
  6
Continuous
 62
     7
100
AcDbLine
 10
-81.76715899999997
 20
57.97975199999999
 30
0.0
 11
-47.767159
 21
57.97975199999999
 31
0.0
  0
LINE
  5
B8
330
22A
100
AcDbEntity
  8
0
  6
Continuous
 62
     7
100
AcDbLine
 10
-81.76715899999997
 20
-30.02024699999999
 30
0.0
 11
-47.767159
 21
-30.02024699999999
 31
0.0
  0
LINE
  5
B9
330
22A
100
AcDbEntity
  8
0
  6
CENTER
 62
     7
100
AcDbLine
 10
-78.01715899999997
 20
50.979752
 30
0.0
 11
-67.51715899999999
 21
50.979752
 31
0.0
  0
LINE
  5
BA
330
22A
100
AcDbEntity
  8
0
  6
CENTER
 62
     7
100
AcDbLine
 10
-72.76715899999998
 20
45.72975200000001
 30
0.0
 11
-72.76715899999998
 21
56.22975199999999
 31
0.0
  0
LINE
  5
BB
330
22A
100
AcDbEntity
  8
0
  6
CENTER
 62
     7
100
AcDbLine
 10
-65.01715899999999
 20
50.979752
 30
0.0
 11
-54.51715899999999
 21
50.979752
 31
0.0
  0
LINE
  5
BC
330
22A
100
AcDbEntity
  8
0
  6
CENTER
 62
     7
100
AcDbLine
 10
-59.767159
 20
45.72975200000001
 30
0.0
 11
-59.767159
 21
56.22975199999999
 31
0.0
  0
LINE
  5
BD
330
22A
100
AcDbEntity
  8
0
  6
CENTER
 62
     7
100
AcDbLine
 10
-78.01715899999997
 20
-23.020247
 30
0.0
 11
-67.51715899999999
 21
-23.020247
 31
0.0
  0
LINE
  5
BE
330
22A
100
AcDbEntity
  8
0
  6
CENTER
 62
     7
100
AcDbLine
 10
-72.76715899999998
 20
-28.27024699999999
 30
0.0
 11
-72.76715899999998
 21
-17.770247
 31
0.0
  0
LINE
  5
BF
330
22A
100
AcDbEntity
  8
0
  6
CENTER
 62
     7
100
AcDbLine
 10
-65.01715899999999
 20
-23.020247
 30
0.0
 11
-54.51715899999999
 21
-23.020247
 31
0.0
  0
LINE
  5
C0
330
22A
100
AcDbEntity
  8
0
  6
CENTER
 62
     7
100
AcDbLine
 10
-59.767159
 20
-28.27024699999999
 30
0.0
 11
-59.767159
 21
-17.770247
 31
0.0
  0
LINE
  5
C1
330
22A
100
AcDbEntity
  8
0
  6
Continuous
 62
     7
100
AcDbLine
 10
-81.76715899999997
 20
125.47976
 30
0.0
 11
-81.76715899999997
 21
126.97976
 31
0.0
  0
LINE
  5
C2
330
22A
100
AcDbEntity
  8
0
  6
Continuous
 62
     7
100
AcDbLine
 10
-78.76715899999997
 20
127.97976
 30
0.0
 11
-78.76715899999997
 21
147.47975
 31
0.0
  0
LINE
  5
C3
330
22A
100
AcDbEntity
  8
0
  6
Continuous
 62
     7
100
AcDbLine
 10
-47.76715499999999
 20
126.47976
 30
0.0
 11
-47.76715499999999
 21
126.97976
 31
0.0
  0
LINE
  5
C4
330
22A
100
AcDbEntity
  8
0
  6
Continuous
 62
     7
100
AcDbLine
 10
-22.04377
 20
128.0400699999999
 30
0.0
 11
47.95622999999999
 21
128.0400699999999
 31
0.0
  0
LINE
  5
C5
330
22A
100
AcDbEntity
  8
0
  6
Continuous
 62
     7
100
AcDbLine
 10
-22.04377
 20
122.04007
 30
0.0
 11
47.95622999999999
 21
122.04007
 31
0.0
  0
LINE
  5
C6
330
22A
100
AcDbEntity
  8
0
  6
Continuous
 62
     7
100
AcDbLine
 10
-22.04377
 20
116.04007
 30
0.0
 11
47.95622999999999
 21
116.04007
 31
0.0
  0
LINE
  5
C7
330
22A
100
AcDbEntity
  8
0
  6
Continuous
 62
     7
100
AcDbLine
 10
-22.04377
 20
110.04007
 30
0.0
 11
47.95622999999999
 21
110.04007
 31
0.0
  0
LINE
  5
C8
330
22A
100
AcDbEntity
  8
0
  6
Continuous
 62
     7
100
AcDbLine
 10
-22.04377
 20
104.0400699999999
 30
0.0
 11
47.95622999999999
 21
104.0400699999999
 31
0.0
  0
LINE
  5
C9
330
22A
100
AcDbEntity
  8
0
  6
Continuous
 62
     7
100
AcDbLine
 10
7.956230199999998
 20
128.0400699999999
 30
0.0
 11
7.956230199999997
 21
92.04006999999981
 31
0.0
  0
LINE
  5
CA
330
22A
100
AcDbEntity
  8
0
  6
Continuous
 62
     7
100
AcDbLine
 10
-12.04377
 20
128.0400699999999
 30
0.0
 11
-12.04377
 21
92.04006999999981
 31
0.0
  0
LINE
  5
CB
330
22A
100
AcDbEntity
  8
0
  6
Continuous
 62
     7
100
AcDbLine
 10
-22.04377
 20
128.0400699999999
 30
0.0
 11
-22.04377
 21
92.04006999999981
 31
0.0
  0
LINE
  5
CC
330
22A
100
AcDbEntity
  8
0
  6
Continuous
 62
     7
100
AcDbLine
 10
47.95622999999999
 20
128.0400699999999
 30
0.0
 11
47.95622999999998
 21
92.04006999999981
 31
0.0
  0
LINE
  5
CD
330
22A
100
AcDbEntity
  8
0
  6
Continuous
 62
     7
100
AcDbLine
 10
17.95622999999999
 20
128.0400699999999
 30
0.0
 11
17.95622999999999
 21
92.04006999999981
 31
0.0
  0
LINE
  5
CE
330
22A
100
AcDbEntity
  8
0
  6
Continuous
 62
     7
100
AcDbLine
 10
-48.76715499999999
 20
125.47976
 30
0.0
 11
-47.76715499999999
 21
126.47976
 31
0.0
  0
LINE
  5
CF
330
22A
100
AcDbEntity
  8
0
  6
Continuous
 62
     7
100
AcDbLine
 10
-47.767159
 20
-30.02024699999999
 30
0.0
 11
-47.767159
 21
57.97975199999999
 31
0.0
  0
LINE
  5
D0
330
22A
100
AcDbEntity
  8
0
  6
Continuous
 62
     7
100
AcDbLine
 10
-48.767159
 20
-30.02024699999999
 30
0.0
 11
-48.767159
 21
57.97975199999999
 31
0.0
  0
LINE
  5
D1
330
22A
100
AcDbEntity
  8
0
  6
Continuous
 62
     7
100
AcDbLine
 10
-51.767155
 20
10.479753
 30
0.0
 11
-51.767155
 21
17.479753
 31
0.0
  0
LINE
  5
D2
330
22A
100
AcDbEntity
  8
0
  6
Continuous
 62
     7
100
AcDbLine
 10
-55.767155
 20
17.479753
 30
0.0
 11
-51.767155
 21
17.479753
 31
0.0
  0
LINE
  5
D3
330
22A
100
AcDbEntity
  8
0
  6
Continuous
 62
     7
100
AcDbLine
 10
-55.767155
 20
10.479753
 30
0.0
 11
-51.767155
 21
10.479753
 31
0.0
  0
LINE
  5
D4
330
22A
100
AcDbEntity
  8
0
  6
Continuous
 62
     7
100
AcDbLine
 10
-55.767155
 20
17.479753
 30
0.0
 11
-55.767155
 21
31.479753
 31
0.0
  0
LINE
  5
D5
330
22A
100
AcDbEntity
  8
0
  6
Continuous
 62
     7
100
AcDbLine
 10
-52.767155
 20
10.479753
 30
0.0
 11
-52.767155
 21
17.479753
 31
0.0
  0
LINE
  5
D6
330
22A
100
AcDbEntity
  8
0
  6
Continuous
 62
     7
100
AcDbLine
 10
-78.76715899999997
 20
127.9797499999999
 30
0.0
 11
-78.26715899999998
 21
127.9797499999999
 31
0.0
  0
LINE
  5
D7
330
22A
100
AcDbEntity
  8
0
  6
Continuous
 62
     7
100
AcDbLine
 10
-53.26715899999999
 20
136.4797499999999
 30
0.0
 11
-52.767159
 21
136.4797499999999
 31
0.0
  0
LINE
  5
D8
330
22A
100
AcDbEntity
  8
0
  6
Continuous
 62
     7
100
AcDbLine
 10
-52.26715099999999
 20
135.0797599999999
 30
0.0
 11
-53.267155
 21
136.0797599999999
 31
0.0
  0
LINE
  5
D9
330
22A
100
AcDbEntity
  8
0
  6
Continuous
 62
     7
100
AcDbLine
 10
-53.26715899999999
 20
128.9797499999999
 30
0.0
 11
-53.26715899999999
 21
131.27975
 31
0.0
  0
LINE
  5
DA
330
22A
100
AcDbEntity
  8
0
  6
Continuous
 62
     7
100
AcDbLine
 10
-158.7671499999999
 20
-5.520247
 30
0.0
 11
-158.7671499999999
 21
33.479752
 31
0.0
  0
LINE
  5
DB
330
22A
100
AcDbEntity
  8
0
  6
Continuous
 62
     7
100
AcDbLine
 10
-78.26715899999998
 20
126.97976
 30
0.0
 11
-78.26715899999998
 21
147.47975
 31
0.0
  0
LINE
  5
DC
330
22A
100
AcDbEntity
  8
0
  6
Continuous
 62
     7
100
AcDbLine
 10
-78.26715899999998
 20
-3.5202467
 30
0.0
 11
-78.26715899999998
 21
31.479753
 31
0.0
  0
LINE
  5
DD
330
22A
100
AcDbEntity
  8
0
  6
PHANTOM
 62
     7
100
AcDbLine
 10
-47.76715499999999
 20
171.1347
 30
0.0
 11
-47.76715499999999
 21
126.97976
 31
0.0
  0
LINE
  5
DE
330
22A
100
AcDbEntity
  8
0
  6
PHANTOM
 62
     7
100
AcDbLine
 10
-49.267155
 20
171.1347
 30
0.0
 11
-49.267155
 21
126.97976
 31
0.0
  0
LINE
  5
DF
330
22A
100
AcDbEntity
  8
0
  6
PHANTOM
 62
     7
100
AcDbLine
 10
-51.26715499999999
 20
138.97975
 30
0.0
 11
-51.26715499999999
 21
128.9797499999999
 31
0.0
  0
LINE
  5
E0
330
22A
100
AcDbEntity
  8
0
  6
PHANTOM
 62
     7
100
AcDbLine
 10
-52.267155
 20
128.9797499999999
 30
0.0
 11
-51.26715499999999
 21
128.9797499999999
 31
0.0
  0
LINE
  5
E1
330
22A
100
AcDbEntity
  8
0
  6
PHANTOM
 62
     7
100
AcDbLine
 10
-51.26715499999999
 20
138.97975
 30
0.0
 11
-49.267155
 21
138.97975
 31
0.0
  0
LINE
  5
E2
330
22A
100
AcDbEntity
  8
0
  6
PHANTOM
 62
     7
100
AcDbLine
 10
-87.767151
 20
171.1347
 30
0.0
 11
-87.767151
 21
128.47975
 31
0.0
  0
LINE
  5
E3
330
22A
100
AcDbEntity
  8
0
  6
PHANTOM
 62
     7
100
AcDbLine
 10
-86.267151
 20
171.1347
 30
0.0
 11
-86.267151
 21
128.47975
 31
0.0
  0
LINE
  5
E4
330
22A
100
AcDbEntity
  8
0
  6
PHANTOM
 62
     7
100
AcDbLine
 10
-86.267151
 20
128.47975
 30
0.0
 11
-78.76715899999997
 21
128.47975
 31
0.0
  0
LINE
  5
E5
330
22A
100
AcDbEntity
  8
0
  6
PHANTOM
 62
     7
100
AcDbLine
 10
-86.267151
 20
126.97976
 30
0.0
 11
-81.76715899999997
 21
126.97976
 31
0.0
  0
LINE
  5
E6
330
22A
100
AcDbEntity
  8
0
  6
PHANTOM
 62
     7
100
AcDbLine
 10
-84.267151
 20
140.4797499999999
 30
0.0
 11
-84.267151
 21
130.47975
 31
0.0
  0
LINE
  5
E7
330
22A
100
AcDbEntity
  8
0
  6
PHANTOM
 62
     7
100
AcDbLine
 10
-84.267151
 20
130.47975
 30
0.0
 11
-78.76715899999997
 21
130.47975
 31
0.0
  0
LINE
  5
E8
330
22A
100
AcDbEntity
  8
0
  6
PHANTOM
 62
     7
100
AcDbLine
 10
-86.267151
 20
140.4797499999999
 30
0.0
 11
-84.267151
 21
140.4797499999999
 31
0.0
  0
CIRCLE
  5
E9
330
22A
100
AcDbEntity
  8
0
  6
Continuous
 62
     7
100
AcDbCircle
 10
-71.26715899999997
 20
-10.520247
 30
0.0
 40
3.25
  0
CIRCLE
  5
EA
330
22A
100
AcDbEntity
  8
0
  6
Continuous
 62
     7
100
AcDbCircle
 10
-59.767155
 20
-10.520247
 30
0.0
 40
3.25
  0
CIRCLE
  5
EB
330
22A
100
AcDbEntity
  8
0
  6
Continuous
 62
     7
100
AcDbCircle
 10
-71.26715899999997
 20
38.479752
 30
0.0
 40
3.25
  0
CIRCLE
  5
EC
330
22A
100
AcDbEntity
  8
0
  6
Continuous
 62
     7
100
AcDbCircle
 10
-59.767155
 20
38.479752
 30
0.0
 40
3.25
  0
ARC
  5
ED
330
22A
100
AcDbEntity
  8
0
  6
Continuous
 62
     7
100
AcDbCircle
 10
-159.7671499999998
 20
-5.520247
 30
0.0
 40
2.0
100
AcDbArc
 50
0.000017986091
 51
59.99996099999999
  0
ARC
  5
EE
330
22A
100
AcDbEntity
  8
0
  6
Continuous
 62
     7
100
AcDbCircle
 10
-159.7671499999998
 20
33.479752
 30
0.0
 40
2.0
100
AcDbArc
 50
300.00002
 51
0.000017986091
  0
ARC
  5
EF
330
22A
100
AcDbEntity
  8
0
  6
Continuous
 62
     7
100
AcDbCircle
 10
-58.267155
 20
-9.020246499999997
 30
0.0
 40
1.0
100
AcDbArc
 50
179.9999799999999
 51
269.99997
  0
ARC
  5
F0
330
22A
100
AcDbEntity
  8
0
  6
Continuous
 62
     7
100
AcDbCircle
 10
-58.267155
 20
-12.02024699999999
 30
0.0
 40
1.0
100
AcDbArc
 50
90.00000300000001
 51
179.9999799999999
  0
ARC
  5
F1
330
22A
100
AcDbEntity
  8
0
  6
Continuous
 62
     7
100
AcDbCircle
 10
-61.267155
 20
-12.02024699999999
 30
0.0
 40
1.0
100
AcDbArc
 50
0.000017986091
 51
90.00000300000001
  0
ARC
  5
F2
330
22A
100
AcDbEntity
  8
0
  6
Continuous
 62
     7
100
AcDbCircle
 10
-61.267155
 20
-9.020246499999997
 30
0.0
 40
1.0
100
AcDbArc
 50
269.99998
 51
0.000017986091
  0
ARC
  5
F3
330
22A
100
AcDbEntity
  8
0
  6
Continuous
 62
     7
100
AcDbCircle
 10
-69.76715899999999
 20
-9.020246499999997
 30
0.0
 40
1.0
100
AcDbArc
 50
179.9999799999999
 51
269.99997
  0
ARC
  5
F4
330
22A
100
AcDbEntity
  8
0
  6
Continuous
 62
     7
100
AcDbCircle
 10
-69.76715899999999
 20
-12.02024699999999
 30
0.0
 40
1.0
100
AcDbArc
 50
90.00000300000001
 51
179.9999799999999
  0
ARC
  5
F5
330
22A
100
AcDbEntity
  8
0
  6
Continuous
 62
     7
100
AcDbCircle
 10
-72.76715899999998
 20
-12.02024699999999
 30
0.0
 40
1.0
100
AcDbArc
 50
0.000017986091
 51
90.00000300000001
  0
ARC
  5
F6
330
22A
100
AcDbEntity
  8
0
  6
Continuous
 62
     7
100
AcDbCircle
 10
-72.76715899999998
 20
-9.020246499999997
 30
0.0
 40
1.0
100
AcDbArc
 50
269.99998
 51
0.000017986091
  0
ARC
  5
F7
330
22A
100
AcDbEntity
  8
0
  6
Continuous
 62
     7
100
AcDbCircle
 10
-69.76715899999999
 20
39.97975199999999
 30
0.0
 40
1.0
100
AcDbArc
 50
179.9999799999999
 51
269.99997
  0
ARC
  5
F8
330
22A
100
AcDbEntity
  8
0
  6
Continuous
 62
     7
100
AcDbCircle
 10
-69.76715899999999
 20
36.979752
 30
0.0
 40
1.0
100
AcDbArc
 50
90.00000300000001
 51
179.9999799999999
  0
ARC
  5
F9
330
22A
100
AcDbEntity
  8
0
  6
Continuous
 62
     7
100
AcDbCircle
 10
-72.76715899999998
 20
36.979752
 30
0.0
 40
1.0
100
AcDbArc
 50
0.000017986091
 51
90.00000300000001
  0
ARC
  5
FA
330
22A
100
AcDbEntity
  8
0
  6
Continuous
 62
     7
100
AcDbCircle
 10
-72.76715899999998
 20
39.97975199999999
 30
0.0
 40
1.0
100
AcDbArc
 50
269.99998
 51
0.000017986091
  0
ARC
  5
FB
330
22A
100
AcDbEntity
  8
0
  6
Continuous
 62
     7
100
AcDbCircle
 10
-58.267155
 20
39.97975199999999
 30
0.0
 40
1.0
100
AcDbArc
 50
179.9999799999999
 51
269.99997
  0
ARC
  5
FC
330
22A
100
AcDbEntity
  8
0
  6
Continuous
 62
     7
100
AcDbCircle
 10
-58.267155
 20
36.979752
 30
0.0
 40
1.0
100
AcDbArc
 50
90.00000300000001
 51
179.9999799999999
  0
ARC
  5
FD
330
22A
100
AcDbEntity
  8
0
  6
Continuous
 62
     7
100
AcDbCircle
 10
-61.267155
 20
36.979752
 30
0.0
 40
1.0
100
AcDbArc
 50
0.000017986091
 51
90.00000300000001
  0
ARC
  5
FE
330
22A
100
AcDbEntity
  8
0
  6
Continuous
 62
     7
100
AcDbCircle
 10
-61.267155
 20
39.97975199999999
 30
0.0
 40
1.0
100
AcDbArc
 50
269.99998
 51
0.000017986091
  0
ARC
  5
FF
330
22A
100
AcDbEntity
  8
0
  6
Continuous
 62
     7
100
AcDbCircle
 10
-56.767159
 20
132.47975
 30
0.0
 40
2.549999999999998
100
AcDbArc
 50
331.92748
 51
113.0887699999999
  0
ARC
  5
100
330
22A
100
AcDbEntity
  8
0
  6
Continuous
 62
     7
100
AcDbCircle
 10
-53.267155
 20
147.47975
 30
0.0
 40
0.5
100
AcDbArc
 50
0.000017986092
 51
90.00000300000001
  0
CIRCLE
  5
101
330
22A
100
AcDbEntity
  8
0
  6
Continuous
 62
     7
100
AcDbCircle
 10
-72.76715899999998
 20
50.979752
 30
0.0
 40
2.25
  0
CIRCLE
  5
102
330
22A
100
AcDbEntity
  8
0
  6
Continuous
 62
     7
100
AcDbCircle
 10
-72.76715899999998
 20
50.979752
 30
0.0
 40
3.25
  0
CIRCLE
  5
103
330
22A
100
AcDbEntity
  8
0
  6
Continuous
 62
     7
100
AcDbCircle
 10
-59.767159
 20
50.979752
 30
0.0
 40
2.25
  0
CIRCLE
  5
104
330
22A
100
AcDbEntity
  8
0
  6
Continuous
 62
     7
100
AcDbCircle
 10
-59.767159
 20
50.979752
 30
0.0
 40
3.25
  0
CIRCLE
  5
105
330
22A
100
AcDbEntity
  8
0
  6
Continuous
 62
     7
100
AcDbCircle
 10
-72.76715899999998
 20
-23.020247
 30
0.0
 40
2.25
  0
CIRCLE
  5
106
330
22A
100
AcDbEntity
  8
0
  6
Continuous
 62
     7
100
AcDbCircle
 10
-72.76715899999998
 20
-23.020247
 30
0.0
 40
3.25
  0
CIRCLE
  5
107
330
22A
100
AcDbEntity
  8
0
  6
Continuous
 62
     7
100
AcDbCircle
 10
-59.767159
 20
-23.020247
 30
0.0
 40
2.25
  0
CIRCLE
  5
108
330
22A
100
AcDbEntity
  8
0
  6
Continuous
 62
     7
100
AcDbCircle
 10
-59.767159
 20
-23.020247
 30
0.0
 40
3.25
  0
ARC
  5
109
330
22A
100
AcDbEntity
  8
0
  6
Continuous
 62
     7
100
AcDbCircle
 10
-78.26715899999998
 20
147.47975
 30
0.0
 40
0.5
100
AcDbArc
 50
90.00000300000001
 51
179.9999799999999
  0
ARC
  5
10B
330
22A
100
AcDbEntity
  8
0
  6
PHANTOM
 62
     7
100
AcDbCircle
 10
-51.26715499999999
 20
128.9797499999999
 30
0.0
 40
2.0
100
AcDbArc
 50
270.0
 51
0.0
  0
ARC
  5
10C
330
22A
100
AcDbEntity
  8
0
  6
PHANTOM
 62
     7
100
AcDbCircle
 10
-86.267151
 20
128.47975
 30
0.0
 40
1.5
100
AcDbArc
 50
179.9999899999999
 51
270.0
  0
ARC
  5
10D
330
22A
100
AcDbEntity
  8
0
  6
PHANTOM
 62
     7
100
AcDbCircle
 10
-84.267151
 20
130.47975
 30
0.0
 40
2.0
100
AcDbArc
 50
179.9999899999999
 51
270.0
  0
TEXT
  5
10E
330
22A
100
AcDbEntity
  8
0
  6
Continuous
 62
     7
100
AcDbText
 10
22.06337299999999
 20
105.79007
 30
0.0
 40
2.5
  1
８８．５ｘ３９．２
 41
0.84495339
100
AcDbText
  0
TEXT
  5
10F
330
22A
100
AcDbEntity
  8
0
  6
Continuous
 62
     7
100
AcDbText
 10
-19.786628
 20
123.4400699999999
 30
0.0
 40
3.2
  1
種類
 41
0.8643459000000001
100
AcDbText
  0
TEXT
  5
110
330
22A
100
AcDbEntity
  8
0
  6
Continuous
 62
     7
100
AcDbText
 10
-9.586627599999998
 20
123.4400699999999
 30
0.0
 40
3.2
  1
適用ドア厚
 41
0.84891105
100
AcDbText
  0
TEXT
  5
111
330
22A
100
AcDbEntity
  8
0
  6
Continuous
 62
     7
100
AcDbText
 10
-18.186628
 20
117.4400699999999
 30
0.0
 40
3.2
  1
１
 41
0.90036055
100
AcDbText
  0
TEXT
  5
112
330
22A
100
AcDbEntity
  8
0
  6
Continuous
 62
     7
100
AcDbText
 10
-18.186628
 20
111.44007
 30
0.0
 40
3.2
  1
２
 41
0.90036055
100
AcDbText
  0
TEXT
  5
113
330
22A
100
AcDbEntity
  8
0
  6
Continuous
 62
     7
100
AcDbText
 10
-18.186628
 20
105.4400699999999
 30
0.0
 40
3.2
  1
３
 41
0.90036055
100
AcDbText
  0
TEXT
  5
114
330
22A
100
AcDbEntity
  8
0
  6
Continuous
 62
     7
100
AcDbText
 10
-4.786627499999998
 20
117.4400699999999
 30
0.0
 40
3.2
  1
４０
 41
0.8643459000000001
100
AcDbText
  0
TEXT
  5
115
330
22A
100
AcDbEntity
  8
0
  6
Continuous
 62
     7
100
AcDbText
 10
-4.786627499999998
 20
111.44007
 30
0.0
 40
3.2
  1
４５
 41
0.8643459000000001
100
AcDbText
  0
TEXT
  5
116
330
22A
100
AcDbEntity
  8
0
  6
Continuous
 62
     7
100
AcDbText
 10
-4.786627499999998
 20
105.4400699999999
 30
0.0
 40
3.2
  1
５０
 41
0.8643459000000001
100
AcDbText
  0
TEXT
  5
117
330
22A
100
AcDbEntity
  8
0
  6
Continuous
 62
     7
100
AcDbText
 10
22.06337299999999
 20
117.79007
 30
0.0
 40
2.5
  1
８８．５ｘ３４．２
 41
0.84495339
100
AcDbText
  0
TEXT
  5
118
330
22A
100
AcDbEntity
  8
0
  6
Continuous
 62
     7
100
AcDbText
 10
30.21337199999999
 20
123.4400699999999
 30
0.0
 40
3.2
  1
切欠
 41
0.8643459000000001
100
AcDbText
  0
TEXT
  5
119
330
22A
100
AcDbEntity
  8
0
  6
Continuous
 62
     7
100
AcDbText
 10
22.06337299999999
 20
111.79007
 30
0.0
 40
2.5
  1
８８．５ｘ３６．７
 41
0.84495339
100
AcDbText
  0
TEXT
  5
11A
330
22A
100
AcDbEntity
  8
0
  6
Continuous
 62
     7
100
AcDbText
 10
11.81337199999999
 20
123.4400699999999
 30
0.0
 40
3.2
  1
A
 41
1.0714291
100
AcDbText
  0
TEXT
  5
11B
330
22A
100
AcDbEntity
  8
0
  6
Continuous
 62
     7
100
AcDbText
 10
10.813373
 20
117.79007
 30
0.0
 40
2.5
  1
20
 41
1.102041
100
AcDbText
  0
TEXT
  5
11C
330
22A
100
AcDbEntity
  8
0
  6
Continuous
 62
     7
100
AcDbText
 10
8.313372599999999
 20
111.79007
 30
0.0
 40
2.5
  1
22.5
 41
1.238095299999999
100
AcDbText
  0
TEXT
  5
11D
330
22A
100
AcDbEntity
  8
0
  6
Continuous
 62
     7
100
AcDbText
 10
10.813373
 20
105.79007
 30
0.0
 40
2.5
  1
25
 41
1.0285716
100
AcDbText
  0
TEXT
  5
11E
330
22A
100
AcDbEntity
  8
0
  6
Continuous
 62
     7
100
AcDbText
 10
-70.210009
 20
-36.892542
 30
0.0
 40
3.2
  1
調整寸法
 41
0.85124966
100
AcDbText
  0
TEXT
  5
120
330
22A
100
AcDbEntity
  8
0
  6
Continuous
 62
     7
100
AcDbText
 10
-72.034978
 20
-41.78566899999998
 30
0.0
 40
3.2
  1
3
 41
1.0714291
100
AcDbText
  0
TEXT
  5
125
330
22A
100
AcDbEntity
  8
0
  6
Continuous
 62
     7
100
AcDbText
 10
-32.54910799999999
 20
-59.1625
 30
0.0
 40
3.2
  1
※標準チリ寸法は、４～６ｍ／ｍの範囲です。
 41
0.8422724099999998
100
AcDbText
  0
LINE
  5
127
330
22A
100
AcDbEntity
  8
0
  6
Continuous
 62
     7
100
AcDbLine
 10
-61.767155
 20
-40.29254199999999
 30
0.0
 11
-56.767155
 21
-40.29254199999999
 31
0.0
  0
LINE
  5
128
330
22A
100
AcDbEntity
  8
0
  6
Continuous
 62
     7
100
AcDbLine
 10
-61.767155
 20
-40.29254199999999
 30
0.0
 11
-58.767155
 21
-39.29254199999999
 31
0.0
  0
LINE
  5
129
330
22A
100
AcDbEntity
  8
0
  6
Continuous
 62
     7
100
AcDbLine
 10
-61.767155
 20
-40.29254199999999
 30
0.0
 11
-58.767155
 21
-41.292542
 31
0.0
  0
TEXT
  5
12A
330
22A
100
AcDbEntity
  8
0
  6
Continuous
 62
     7
100
AcDbText
 10
-163.79398
 20
68.479752
 30
0.0
 40
2.0
  1
1.5
 41
1.628571599999999
100
AcDbText
  0
LINE
  5
12B
330
22A
100
AcDbEntity
  8
0
  6
Continuous
 62
     7
100
AcDbLine
 10
-156.2671499999999
 20
67.979752
 30
0.0
 11
-157.0171499999998
 21
67.979752
 31
0.0
  0
LINE
  5
12C
330
22A
100
AcDbEntity
  8
0
  6
Continuous
 62
     7
100
AcDbLine
 10
-157.0171499999998
 20
67.979752
 30
0.0
 11
-163.79398
 21
67.979752
 31
0.0
  0
CIRCLE
  5
12D
330
22A
100
AcDbEntity
  8
0
  6
Continuous
 62
     7
100
AcDbCircle
 10
-156.2671499999999
 20
67.979752
 30
0.0
 40
0.3
  0
LINE
  5
12E
330
22A
100
AcDbEntity
  8
0
  6
Continuous
 62
     7
100
AcDbLine
 10
-157.7671499999999
 20
67.979752
 30
0.0
 11
-157.0171499999998
 21
67.979752
 31
0.0
  0
CIRCLE
  5
12F
330
22A
100
AcDbEntity
  8
0
  6
Continuous
 62
     7
100
AcDbCircle
 10
-157.7671499999999
 20
67.979752
 30
0.0
 40
0.3
  0
LINE
  5
130
330
22A
100
AcDbEntity
  8
0
  6
Continuous
 62
     7
100
AcDbLine
 10
-156.2671499999999
 20
58.97975200000001
 30
0.0
 11
-156.2671499999999
 21
69.17975600000001
 31
0.0
  0
LINE
  5
131
330
22A
100
AcDbEntity
  8
0
  6
Continuous
 62
     7
100
AcDbLine
 10
-157.7671499999999
 20
58.97975200000001
 30
0.0
 11
-157.7671499999999
 21
69.17975600000001
 31
0.0
  0
TEXT
  5
132
330
22A
100
AcDbEntity
  8
0
  6
Continuous
 62
     7
100
AcDbText
 10
-171.2314399999999
 20
73.479752
 30
0.0
 40
2.0
  1
22.5
 41
1.238095299999999
100
AcDbText
  0
LINE
  5
133
330
22A
100
AcDbEntity
  8
0
  6
Continuous
 62
     7
100
AcDbLine
 10
-156.2671499999999
 20
72.979752
 30
0.0
 11
-167.5171499999999
 21
72.979752
 31
0.0
  0
CIRCLE
  5
134
330
22A
100
AcDbEntity
  8
0
  6
Continuous
 62
     7
100
AcDbCircle
 10
-156.2671499999999
 20
72.979752
 30
0.0
 40
0.3
  0
LINE
  5
135
330
22A
100
AcDbEntity
  8
0
  6
Continuous
 62
     7
100
AcDbLine
 10
-178.7671499999999
 20
72.979752
 30
0.0
 11
-167.5171499999999
 21
72.979752
 31
0.0
  0
CIRCLE
  5
136
330
22A
100
AcDbEntity
  8
0
  6
Continuous
 62
     7
100
AcDbCircle
 10
-178.7671499999999
 20
72.979752
 30
0.0
 40
0.3
  0
LINE
  5
137
330
22A
100
AcDbEntity
  8
0
  6
Continuous
 62
     7
100
AcDbLine
 10
-156.2671499999999
 20
58.97975200000001
 30
0.0
 11
-156.2671499999999
 21
74.17975600000002
 31
0.0
  0
LINE
  5
138
330
22A
100
AcDbEntity
  8
0
  6
Continuous
 62
     7
100
AcDbLine
 10
-178.7671499999999
 20
33.13552099999999
 30
0.0
 11
-178.7671499999999
 21
74.17975600000002
 31
0.0
  0
TEXT
  5
139
330
22A
100
AcDbEntity
  8
0
  6
Continuous
 62
     7
100
AcDbText
 10
-38.267158
 20
128.2654699999999
 30
0.0
 40
2.0
  1
7
 50
90.00000300000001
 41
1.071429
100
AcDbText
  0
LINE
  5
13A
330
22A
100
AcDbEntity
  8
0
  6
Continuous
 62
     7
100
AcDbLine
 10
-37.767159
 20
125.47976
 30
0.0
 11
-37.767159
 21
128.9797599999999
 31
0.0
  0
CIRCLE
  5
13B
330
22A
100
AcDbEntity
  8
0
  6
Continuous
 62
     7
100
AcDbCircle
 10
-37.767159
 20
125.47976
 30
0.0
 40
0.3
  0
LINE
  5
13C
330
22A
100
AcDbEntity
  8
0
  6
Continuous
 62
     7
100
AcDbLine
 10
-37.767159
 20
132.47975
 30
0.0
 11
-37.767159
 21
128.9797599999999
 31
0.0
  0
CIRCLE
  5
13D
330
22A
100
AcDbEntity
  8
0
  6
Continuous
 62
     7
100
AcDbCircle
 10
-37.767159
 20
132.47975
 30
0.0
 40
0.3
  0
LINE
  5
13E
330
22A
100
AcDbEntity
  8
0
  6
Continuous
 62
     7
100
AcDbLine
 10
-48.674507
 20
125.47976
 30
0.0
 11
-36.567158
 21
125.47976
 31
0.0
  0
LINE
  5
13F
330
22A
100
AcDbEntity
  8
0
  6
Continuous
 62
     7
100
AcDbLine
 10
-51.43932
 20
132.47975
 30
0.0
 11
-36.567158
 21
132.47975
 31
0.0
  0
LINE
  5
140
330
22A
100
AcDbEntity
  8
0
  6
Continuous
 62
     7
100
AcDbLine
 10
-75.58173399999998
 20
52.60478199999999
 30
0.0
 11
-94.267143
 21
63.39280699999999
 31
0.0
  0
LINE
  5
141
330
22A
100
AcDbEntity
  8
0
  6
Continuous
 62
     7
100
AcDbLine
 10
-94.267143
 20
63.39280699999999
 30
0.0
 11
-122.29616
 21
63.39280699999999
 31
0.0
  0
TEXT
  5
142
330
22A
100
AcDbEntity
  8
0
  6
Continuous
 62
     7
100
AcDbText
 10
-121.7247299999999
 20
63.892807
 30
0.0
 40
2.0
  1
８－%%C４．５×%%C６．５サラ
 41
0.86530985
100
AcDbText
  0
TEXT
  5
143
330
22A
100
AcDbEntity
  8
0
  6
Continuous
 62
     7
100
AcDbText
 10
-77.98144499999998
 20
73.479752
 30
0.0
 40
2.0
  1
9
 41
1.071429
100
AcDbText
  0
LINE
  5
144
330
22A
100
AcDbEntity
  8
0
  6
Continuous
 62
     7
100
AcDbLine
 10
-72.76715899999998
 20
72.979752
 30
0.0
 11
-77.26715899999998
 21
72.979752
 31
0.0
  0
CIRCLE
  5
145
330
22A
100
AcDbEntity
  8
0
  6
Continuous
 62
     7
100
AcDbCircle
 10
-72.76715899999998
 20
72.979752
 30
0.0
 40
0.3
  0
LINE
  5
146
330
22A
100
AcDbEntity
  8
0
  6
Continuous
 62
     7
100
AcDbLine
 10
-81.76715899999997
 20
72.979752
 30
0.0
 11
-77.26715899999998
 21
72.979752
 31
0.0
  0
CIRCLE
  5
147
330
22A
100
AcDbEntity
  8
0
  6
Continuous
 62
     7
100
AcDbCircle
 10
-81.76715899999997
 20
72.979752
 30
0.0
 40
0.3
  0
LINE
  5
148
330
22A
100
AcDbEntity
  8
0
  6
Continuous
 62
     7
100
AcDbLine
 10
-72.76715899999998
 20
64.229752
 30
0.0
 11
-72.76715899999998
 21
74.17975600000002
 31
0.0
  0
LINE
  5
149
330
22A
100
AcDbEntity
  8
0
  6
Continuous
 62
     7
100
AcDbLine
 10
-81.76715899999997
 20
65.979752
 30
0.0
 11
-81.76715899999997
 21
74.17975600000002
 31
0.0
  0
TEXT
  5
14A
330
22A
100
AcDbEntity
  8
0
  6
Continuous
 62
     7
100
AcDbText
 10
-67.98144499999999
 20
73.479752
 30
0.0
 40
2.0
  1
13
 41
1.2857145
100
AcDbText
  0
LINE
  5
14B
330
22A
100
AcDbEntity
  8
0
  6
Continuous
 62
     7
100
AcDbLine
 10
-72.76715899999998
 20
72.979752
 30
0.0
 11
-66.26715899999999
 21
72.979752
 31
0.0
  0
CIRCLE
  5
14C
330
22A
100
AcDbEntity
  8
0
  6
Continuous
 62
     7
100
AcDbCircle
 10
-72.76715899999998
 20
72.979752
 30
0.0
 40
0.3
  0
LINE
  5
14D
330
22A
100
AcDbEntity
  8
0
  6
Continuous
 62
     7
100
AcDbLine
 10
-59.767159
 20
72.979752
 30
0.0
 11
-66.26715899999999
 21
72.979752
 31
0.0
  0
CIRCLE
  5
14E
330
22A
100
AcDbEntity
  8
0
  6
Continuous
 62
     7
100
AcDbCircle
 10
-59.767159
 20
72.979752
 30
0.0
 40
0.3
  0
LINE
  5
14F
330
22A
100
AcDbEntity
  8
0
  6
Continuous
 62
     7
100
AcDbLine
 10
-59.767159
 20
64.229752
 30
0.0
 11
-59.767159
 21
74.17975600000002
 31
0.0
  0
TEXT
  5
150
330
22A
100
AcDbEntity
  8
0
  6
Continuous
 62
     7
100
AcDbText
 10
-76.48144499999998
 20
78.479752
 30
0.0
 40
2.0
  1
14
 41
1.2857145
100
AcDbText
  0
LINE
  5
151
330
22A
100
AcDbEntity
  8
0
  6
Continuous
 62
     7
100
AcDbLine
 10
-81.76715899999997
 20
77.979752
 30
0.0
 11
-74.76715899999998
 21
77.979752
 31
0.0
  0
CIRCLE
  5
152
330
22A
100
AcDbEntity
  8
0
  6
Continuous
 62
     7
100
AcDbCircle
 10
-81.76715899999997
 20
77.979752
 30
0.0
 40
0.3
  0
LINE
  5
153
330
22A
100
AcDbEntity
  8
0
  6
Continuous
 62
     7
100
AcDbLine
 10
-67.76715899999999
 20
77.979752
 30
0.0
 11
-74.76715899999998
 21
77.979752
 31
0.0
  0
CIRCLE
  5
154
330
22A
100
AcDbEntity
  8
0
  6
Continuous
 62
     7
100
AcDbCircle
 10
-67.76715899999999
 20
77.979752
 30
0.0
 40
0.3
  0
LINE
  5
155
330
22A
100
AcDbEntity
  8
0
  6
Continuous
 62
     7
100
AcDbLine
 10
-81.76715899999997
 20
57.909714
 30
0.0
 11
-81.76715899999997
 21
79.17975600000002
 31
0.0
  0
LINE
  5
156
330
22A
100
AcDbEntity
  8
0
  6
Continuous
 62
     7
100
AcDbLine
 10
-67.76715899999999
 20
73.028458
 30
0.0
 11
-67.76715899999999
 21
79.17975600000002
 31
0.0
  0
TEXT
  5
157
330
22A
100
AcDbEntity
  8
0
  6
Continuous
 62
     7
100
AcDbText
 10
-38.267158
 20
-27.234533
 30
0.0
 40
2.0
  1
7
 50
90.00000300000001
 41
1.071429
100
AcDbText
  0
LINE
  5
158
330
22A
100
AcDbEntity
  8
0
  6
Continuous
 62
     7
100
AcDbLine
 10
-37.767159
 20
-30.02024699999999
 30
0.0
 11
-37.767159
 21
-26.520247
 31
0.0
  0
CIRCLE
  5
159
330
22A
100
AcDbEntity
  8
0
  6
Continuous
 62
     7
100
AcDbCircle
 10
-37.767159
 20
-30.02024699999999
 30
0.0
 40
0.3
  0
LINE
  5
15A
330
22A
100
AcDbEntity
  8
0
  6
Continuous
 62
     7
100
AcDbLine
 10
-37.767159
 20
-23.020247
 30
0.0
 11
-37.767159
 21
-26.520247
 31
0.0
  0
CIRCLE
  5
15B
330
22A
100
AcDbEntity
  8
0
  6
Continuous
 62
     7
100
AcDbCircle
 10
-37.767159
 20
-23.020247
 30
0.0
 40
0.3
  0
LINE
  5
15C
330
22A
100
AcDbEntity
  8
0
  6
Continuous
 62
     7
100
AcDbLine
 10
-47.767159
 20
-30.02024699999999
 30
0.0
 11
-36.567158
 21
-30.02024699999999
 31
0.0
  0
LINE
  5
15D
330
22A
100
AcDbEntity
  8
0
  6
Continuous
 62
     7
100
AcDbLine
 10
-54.51715899999999
 20
-23.020247
 30
0.0
 11
-36.567158
 21
-23.020247
 31
0.0
  0
TEXT
  5
15E
330
22A
100
AcDbEntity
  8
0
  6
Continuous
 62
     7
100
AcDbText
 10
-38.267158
 20
12.265467
 30
0.0
 40
2.0
  1
74
 50
90.00000300000001
 41
1.0285716
100
AcDbText
  0
LINE
  5
15F
330
22A
100
AcDbEntity
  8
0
  6
Continuous
 62
     7
100
AcDbLine
 10
-37.767159
 20
-23.020247
 30
0.0
 11
-37.767159
 21
13.979753
 31
0.0
  0
CIRCLE
  5
160
330
22A
100
AcDbEntity
  8
0
  6
Continuous
 62
     7
100
AcDbCircle
 10
-37.767159
 20
-23.020247
 30
0.0
 40
0.3
  0
LINE
  5
161
330
22A
100
AcDbEntity
  8
0
  6
Continuous
 62
     7
100
AcDbLine
 10
-37.767159
 20
50.979752
 30
0.0
 11
-37.767159
 21
13.979753
 31
0.0
  0
CIRCLE
  5
162
330
22A
100
AcDbEntity
  8
0
  6
Continuous
 62
     7
100
AcDbCircle
 10
-37.767159
 20
50.979752
 30
0.0
 40
0.3
  0
LINE
  5
163
330
22A
100
AcDbEntity
  8
0
  6
Continuous
 62
     7
100
AcDbLine
 10
-54.51715899999999
 20
50.979752
 30
0.0
 11
-36.567158
 21
50.979752
 31
0.0
  0
TEXT
  5
164
330
22A
100
AcDbEntity
  8
0
  6
Continuous
 62
     7
100
AcDbText
 10
-38.267158
 20
53.76546600000001
 30
0.0
 40
2.0
  1
7
 50
90.00000300000001
 41
1.071429
100
AcDbText
  0
LINE
  5
165
330
22A
100
AcDbEntity
  8
0
  6
Continuous
 62
     7
100
AcDbLine
 10
-37.767159
 20
50.979752
 30
0.0
 11
-37.767159
 21
54.47975200000001
 31
0.0
  0
CIRCLE
  5
166
330
22A
100
AcDbEntity
  8
0
  6
Continuous
 62
     7
100
AcDbCircle
 10
-37.767159
 20
50.979752
 30
0.0
 40
0.3
  0
LINE
  5
167
330
22A
100
AcDbEntity
  8
0
  6
Continuous
 62
     7
100
AcDbLine
 10
-37.767159
 20
57.97975199999999
 30
0.0
 11
-37.767159
 21
54.47975200000001
 31
0.0
  0
CIRCLE
  5
168
330
22A
100
AcDbEntity
  8
0
  6
Continuous
 62
     7
100
AcDbCircle
 10
-37.767159
 20
57.97975199999999
 30
0.0
 40
0.3
  0
LINE
  5
169
330
22A
100
AcDbEntity
  8
0
  6
Continuous
 62
     7
100
AcDbLine
 10
-47.767159
 20
57.97975199999999
 30
0.0
 11
-36.567158
 21
57.97975199999999
 31
0.0
  0
TEXT
  5
16A
330
22A
100
AcDbEntity
  8
0
  6
Continuous
 62
     7
100
AcDbText
 10
-33.267158
 20
12.265467
 30
0.0
 40
2.0
  1
88
 50
90.00000300000001
 41
1.0285716
100
AcDbText
  0
LINE
  5
16B
330
22A
100
AcDbEntity
  8
0
  6
Continuous
 62
     7
100
AcDbLine
 10
-32.767159
 20
-30.02024699999999
 30
0.0
 11
-32.767159
 21
13.979753
 31
0.0
  0
CIRCLE
  5
16C
330
22A
100
AcDbEntity
  8
0
  6
Continuous
 62
     7
100
AcDbCircle
 10
-32.767159
 20
-30.02024699999999
 30
0.0
 40
0.3
  0
LINE
  5
16D
330
22A
100
AcDbEntity
  8
0
  6
Continuous
 62
     7
100
AcDbLine
 10
-32.767159
 20
57.97975199999999
 30
0.0
 11
-32.767159
 21
13.979753
 31
0.0
  0
CIRCLE
  5
16E
330
22A
100
AcDbEntity
  8
0
  6
Continuous
 62
     7
100
AcDbCircle
 10
-32.767159
 20
57.97975199999999
 30
0.0
 40
0.3
  0
LINE
  5
16F
330
22A
100
AcDbEntity
  8
0
  6
Continuous
 62
     7
100
AcDbLine
 10
-47.767159
 20
-30.02024699999999
 30
0.0
 11
-31.567156
 21
-30.02024699999999
 31
0.0
  0
LINE
  5
170
330
22A
100
AcDbEntity
  8
0
  6
Continuous
 62
     7
100
AcDbLine
 10
-47.767159
 20
57.97975199999999
 30
0.0
 11
-31.567156
 21
57.97975199999999
 31
0.0
  0
TEXT
  5
171
330
22A
100
AcDbEntity
  8
0
  6
Continuous
 62
     7
100
AcDbText
 10
-71.49000500000003
 20
68.479752
 30
0.0
 40
2.0
  1
5
 41
1.071429
100
AcDbText
  0
LINE
  5
172
330
22A
100
AcDbEntity
  8
0
  6
Continuous
 62
     7
100
AcDbLine
 10
-67.76715899999999
 20
67.979752
 30
0.0
 11
-70.26715899999999
 21
67.979752
 31
0.0
  0
CIRCLE
  5
173
330
22A
100
AcDbEntity
  8
0
  6
Continuous
 62
     7
100
AcDbCircle
 10
-67.76715899999999
 20
67.979752
 30
0.0
 40
0.3
  0
LINE
  5
174
330
22A
100
AcDbEntity
  8
0
  6
Continuous
 62
     7
100
AcDbLine
 10
-72.76715899999998
 20
67.979752
 30
0.0
 11
-70.26715899999999
 21
67.979752
 31
0.0
  0
CIRCLE
  5
175
330
22A
100
AcDbEntity
  8
0
  6
Continuous
 62
     7
100
AcDbCircle
 10
-72.76715899999998
 20
67.979752
 30
0.0
 40
0.3
  0
LINE
  5
176
330
22A
100
AcDbEntity
  8
0
  6
Continuous
 62
     7
100
AcDbLine
 10
-67.76715899999999
 20
59.97975199999999
 30
0.0
 11
-67.76715899999999
 21
69.17975600000001
 31
0.0
  0
LINE
  5
177
330
22A
100
AcDbEntity
  8
0
  6
Continuous
 62
     7
100
AcDbLine
 10
-72.76715899999998
 20
56.22975199999999
 30
0.0
 11
-72.76715899999998
 21
69.17975600000001
 31
0.0
  0
TEXT
  5
178
330
22A
100
AcDbEntity
  8
0
  6
Continuous
 62
     7
100
AcDbText
 10
-64.48144499999999
 20
68.479752
 30
0.0
 40
2.0
  1
8
 41
1.071429
100
AcDbText
  0
LINE
  5
179
330
22A
100
AcDbEntity
  8
0
  6
Continuous
 62
     7
100
AcDbLine
 10
-67.76715899999999
 20
67.979752
 30
0.0
 11
-63.767159
 21
67.979752
 31
0.0
  0
CIRCLE
  5
17A
330
22A
100
AcDbEntity
  8
0
  6
Continuous
 62
     7
100
AcDbCircle
 10
-67.76715899999999
 20
67.979752
 30
0.0
 40
0.3
  0
LINE
  5
17B
330
22A
100
AcDbEntity
  8
0
  6
Continuous
 62
     7
100
AcDbLine
 10
-59.767159
 20
67.979752
 30
0.0
 11
-63.767159
 21
67.979752
 31
0.0
  0
CIRCLE
  5
17C
330
22A
100
AcDbEntity
  8
0
  6
Continuous
 62
     7
100
AcDbCircle
 10
-59.767159
 20
67.979752
 30
0.0
 40
0.3
  0
LINE
  5
17D
330
22A
100
AcDbEntity
  8
0
  6
Continuous
 62
     7
100
AcDbLine
 10
-59.767159
 20
56.22975199999999
 30
0.0
 11
-59.767159
 21
69.17975600000001
 31
0.0
  0
TEXT
  5
17E
330
22A
100
AcDbEntity
  8
0
  6
Continuous
 62
     7
100
AcDbText
 10
-58.481445
 20
78.479752
 30
0.0
 40
2.0
  1
A
 41
1.071429
100
AcDbText
  0
LINE
  5
17F
330
22A
100
AcDbEntity
  8
0
  6
Continuous
 62
     7
100
AcDbLine
 10
-47.767159
 20
77.979752
 30
0.0
 11
-57.767159
 21
77.979752
 31
0.0
  0
CIRCLE
  5
180
330
22A
100
AcDbEntity
  8
0
  6
Continuous
 62
     7
100
AcDbCircle
 10
-47.767159
 20
77.979752
 30
0.0
 40
0.3
  0
LINE
  5
181
330
22A
100
AcDbEntity
  8
0
  6
Continuous
 62
     7
100
AcDbLine
 10
-67.76715899999999
 20
77.979752
 30
0.0
 11
-57.767159
 21
77.979752
 31
0.0
  0
CIRCLE
  5
182
330
22A
100
AcDbEntity
  8
0
  6
Continuous
 62
     7
100
AcDbCircle
 10
-67.76715899999999
 20
77.979752
 30
0.0
 40
0.3
  0
LINE
  5
183
330
22A
100
AcDbEntity
  8
0
  6
Continuous
 62
     7
100
AcDbLine
 10
-47.767159
 20
57.97975199999999
 30
0.0
 11
-47.767159
 21
79.17975600000002
 31
0.0
  0
LINE
  5
184
330
22A
100
AcDbEntity
  8
0
  6
Continuous
 62
     7
100
AcDbLine
 10
-67.76715899999999
 20
73.553268
 30
0.0
 11
-67.76715899999999
 21
79.17975600000002
 31
0.0
  0
TEXT
  5
185
330
22A
100
AcDbEntity
  8
0
  6
Continuous
 62
     7
100
AcDbText
 10
-92.26715799999999
 20
12.265467
 30
0.0
 40
2.0
  1
35
 50
90.00000300000001
 41
1.0285716
100
AcDbText
  0
LINE
  5
186
330
22A
100
AcDbEntity
  8
0
  6
Continuous
 62
     7
100
AcDbLine
 10
-91.76715900000001
 20
-3.5202467
 30
0.0
 11
-91.76715900000001
 21
13.979753
 31
0.0
  0
CIRCLE
  5
187
330
22A
100
AcDbEntity
  8
0
  6
Continuous
 62
     7
100
AcDbCircle
 10
-91.76715900000001
 20
-3.5202467
 30
0.0
 40
0.3
  0
LINE
  5
188
330
22A
100
AcDbEntity
  8
0
  6
Continuous
 62
     7
100
AcDbLine
 10
-91.76715900000001
 20
31.479753
 30
0.0
 11
-91.76715900000001
 21
13.979753
 31
0.0
  0
CIRCLE
  5
189
330
22A
100
AcDbEntity
  8
0
  6
Continuous
 62
     7
100
AcDbCircle
 10
-91.76715900000001
 20
31.479753
 30
0.0
 40
0.3
  0
LINE
  5
18A
330
22A
100
AcDbEntity
  8
0
  6
Continuous
 62
     7
100
AcDbLine
 10
-77.76715899999998
 20
-3.5202467
 30
0.0
 11
-92.96715500000001
 21
-3.5202467
 31
0.0
  0
LINE
  5
18B
330
22A
100
AcDbEntity
  8
0
  6
Continuous
 62
     7
100
AcDbLine
 10
-77.76715899999998
 20
31.479753
 30
0.0
 11
-92.96715500000001
 21
31.479753
 31
0.0
  0
TEXT
  5
18C
330
22A
100
AcDbEntity
  8
0
  6
Continuous
 62
     7
100
AcDbText
 10
-76.98144499999997
 20
158.47975
 30
0.0
 40
2.0
  1
11.1
 41
1.759398599999999
100
AcDbText
  0
LINE
  5
18D
330
22A
100
AcDbEntity
  8
0
  6
Continuous
 62
     7
100
AcDbLine
 10
-67.76715899999999
 20
157.9797499999999
 30
0.0
 11
-73.26715899999998
 21
157.9797499999999
 31
0.0
  0
CIRCLE
  5
18E
330
22A
100
AcDbEntity
  8
0
  6
Continuous
 62
     7
100
AcDbCircle
 10
-67.76715899999999
 20
157.9797499999999
 30
0.0
 40
0.3
  0
LINE
  5
18F
330
22A
100
AcDbEntity
  8
0
  6
Continuous
 62
     7
100
AcDbLine
 10
-78.76715899999997
 20
157.9797499999999
 30
0.0
 11
-73.26715899999998
 21
157.9797499999999
 31
0.0
  0
CIRCLE
  5
190
330
22A
100
AcDbEntity
  8
0
  6
Continuous
 62
     7
100
AcDbCircle
 10
-78.76715899999997
 20
157.9797499999999
 30
0.0
 40
0.3
  0
LINE
  5
191
330
22A
100
AcDbEntity
  8
0
  6
Continuous
 62
     7
100
AcDbLine
 10
-67.76715899999999
 20
149.9797499999999
 30
0.0
 11
-67.76715899999999
 21
159.1797599999999
 31
0.0
  0
LINE
  5
192
330
22A
100
AcDbEntity
  8
0
  6
Continuous
 62
     7
100
AcDbLine
 10
-78.76715899999997
 20
147.47975
 30
0.0
 11
-78.76715899999997
 21
159.1797599999999
 31
0.0
  0
TEXT
  5
193
330
22A
100
AcDbEntity
  8
0
  6
Continuous
 62
     7
100
AcDbText
 10
-63.98144099999999
 20
158.47975
 30
0.0
 40
2.0
  1
15.1
 41
1.5194806
100
AcDbText
  0
LINE
  5
194
330
22A
100
AcDbEntity
  8
0
  6
Continuous
 62
     7
100
AcDbLine
 10
-67.76715899999999
 20
157.9797499999999
 30
0.0
 11
-60.267157
 21
157.9797499999999
 31
0.0
  0
CIRCLE
  5
195
330
22A
100
AcDbEntity
  8
0
  6
Continuous
 62
     7
100
AcDbCircle
 10
-67.76715899999999
 20
157.9797499999999
 30
0.0
 40
0.3
  0
LINE
  5
196
330
22A
100
AcDbEntity
  8
0
  6
Continuous
 62
     7
100
AcDbLine
 10
-52.767155
 20
157.9797499999999
 30
0.0
 11
-60.267157
 21
157.9797499999999
 31
0.0
  0
CIRCLE
  5
197
330
22A
100
AcDbEntity
  8
0
  6
Continuous
 62
     7
100
AcDbCircle
 10
-52.767155
 20
157.9797499999999
 30
0.0
 40
0.3
  0
LINE
  5
198
330
22A
100
AcDbEntity
  8
0
  6
Continuous
 62
     7
100
AcDbLine
 10
-52.767155
 20
147.47975
 30
0.0
 11
-52.767155
 21
159.1797599999999
 31
0.0
  0
TEXT
  5
199
330
22A
100
AcDbEntity
  8
0
  6
Continuous
 62
     7
100
AcDbText
 10
-69.48144499999999
 20
163.4797499999999
 30
0.0
 40
2.0
  1
26.2
 41
1.238095299999999
100
AcDbText
  0
LINE
  5
19A
330
22A
100
AcDbEntity
  8
0
  6
Continuous
 62
     7
100
AcDbLine
 10
-52.767155
 20
162.97975
 30
0.0
 11
-65.767157
 21
162.97975
 31
0.0
  0
CIRCLE
  5
19B
330
22A
100
AcDbEntity
  8
0
  6
Continuous
 62
     7
100
AcDbCircle
 10
-52.767155
 20
162.97975
 30
0.0
 40
0.3
  0
LINE
  5
19C
330
22A
100
AcDbEntity
  8
0
  6
Continuous
 62
     7
100
AcDbLine
 10
-78.76715899999997
 20
162.97975
 30
0.0
 11
-65.767157
 21
162.97975
 31
0.0
  0
CIRCLE
  5
19D
330
22A
100
AcDbEntity
  8
0
  6
Continuous
 62
     7
100
AcDbCircle
 10
-78.76715899999997
 20
162.97975
 30
0.0
 40
0.3
  0
LINE
  5
19E
330
22A
100
AcDbEntity
  8
0
  6
Continuous
 62
     7
100
AcDbLine
 10
-52.767155
 20
147.47975
 30
0.0
 11
-52.767155
 21
164.1797599999999
 31
0.0
  0
LINE
  5
19F
330
22A
100
AcDbEntity
  8
0
  6
Continuous
 62
     7
100
AcDbLine
 10
-78.76715899999997
 20
147.47975
 30
0.0
 11
-78.76715899999997
 21
164.1797599999999
 31
0.0
  0
TEXT
  5
1A0
330
22A
100
AcDbEntity
  8
0
  6
Continuous
 62
     7
100
AcDbText
 10
-189.2671499999999
 20
12.265467
 30
0.0
 40
2.0
  1
39
 50
90.00000300000001
 41
1.0285716
100
AcDbText
  0
LINE
  5
1A1
330
22A
100
AcDbEntity
  8
0
  6
Continuous
 62
     7
100
AcDbLine
 10
-188.7671499999999
 20
-5.520247
 30
0.0
 11
-188.7671499999999
 21
13.979752
 31
0.0
  0
CIRCLE
  5
1A2
330
22A
100
AcDbEntity
  8
0
  6
Continuous
 62
     7
100
AcDbCircle
 10
-188.7671499999999
 20
-5.520247
 30
0.0
 40
0.3
  0
LINE
  5
1A3
330
22A
100
AcDbEntity
  8
0
  6
Continuous
 62
     7
100
AcDbLine
 10
-188.7671499999999
 20
33.479752
 30
0.0
 11
-188.7671499999999
 21
13.979752
 31
0.0
  0
CIRCLE
  5
1A4
330
22A
100
AcDbEntity
  8
0
  6
Continuous
 62
     7
100
AcDbCircle
 10
-188.7671499999999
 20
33.479752
 30
0.0
 40
0.3
  0
LINE
  5
1A5
330
22A
100
AcDbEntity
  8
0
  6
Continuous
 62
     7
100
AcDbLine
 10
-178.7671499999999
 20
-5.520247
 30
0.0
 11
-189.96715
 21
-5.520247
 31
0.0
  0
LINE
  5
1A6
330
22A
100
AcDbEntity
  8
0
  6
Continuous
 62
     7
100
AcDbLine
 10
-178.7671499999999
 20
33.479752
 30
0.0
 11
-189.96715
 21
33.479752
 31
0.0
  0
TEXT
  5
293
330
22A
100
AcDbEntity
  8
0
  6
Continuous
 62
     7
100
AcDbText
 10
-18.186628
 20
99.44006999999992
 30
0.0
 40
3.2
  1
４
 41
0.90036055
100
AcDbText
  0
TEXT
  5
294
330
22A
100
AcDbEntity
  8
0
  6
Continuous
 62
     7
100
AcDbText
 10
-18.186628
 20
93.44006999999981
 30
0.0
 40
3.2
  1
５
 41
0.90036055
100
AcDbText
  0
TEXT
  5
295
330
22A
100
AcDbEntity
  8
0
  6
Continuous
 62
     7
100
AcDbText
 10
-4.786627500000001
 20
99.44006999999992
 30
0.0
 40
3.2
  1
５５
 41
0.8643459000000001
100
AcDbText
  0
TEXT
  5
296
330
22A
100
AcDbEntity
  8
0
  6
Continuous
 62
     7
100
AcDbText
 10
-4.786627500000001
 20
93.44006999999981
 30
0.0
 40
3.2
  1
６０
 41
0.8643459000000001
100
AcDbText
  0
TEXT
  5
297
330
22A
100
AcDbEntity
  8
0
  6
Continuous
 62
     7
100
AcDbText
 10
8.313372599999993
 20
99.7900699999999
 30
0.0
 40
2.5
  1
27.5
 41
1.238095299999999
100
AcDbText
  0
TEXT
  5
298
330
22A
100
AcDbEntity
  8
0
  6
Continuous
 62
     7
100
AcDbText
 10
10.81337299999999
 20
93.7900699999999
 30
0.0
 40
2.5
  1
30
 41
1.0285716
100
AcDbText
  0
TEXT
  5
299
330
22A
100
AcDbEntity
  8
0
  6
Continuous
 62
     7
100
AcDbText
 10
22.06337299999999
 20
99.7900699999999
 30
0.0
 40
2.5
  1
８８．５ｘ４１．７
 41
0.84495339
100
AcDbText
  0
TEXT
  5
29A
330
22A
100
AcDbEntity
  8
0
  6
Continuous
 62
     7
100
AcDbText
 10
22.06337299999999
 20
93.7900699999999
 30
0.0
 40
2.5
  1
８８．５ｘ４４．２
 41
0.84495339
100
AcDbText
  0
LINE
  5
29B
330
22A
100
AcDbEntity
  8
0
  6
Continuous
 62
     7
100
AcDbLine
 10
-22.04377
 20
92.04006999999981
 30
0.0
 11
47.95622999999999
 21
92.04006999999981
 31
0.0
  0
LINE
  5
29C
330
22A
100
AcDbEntity
  8
0
  6
Continuous
 62
     7
100
AcDbLine
 10
-22.04377
 20
98.04006999999991
 30
0.0
 11
47.95622999999999
 21
98.04006999999991
 31
0.0
  0
ENDSEC
  0
SECTION
  2
OBJECTS
  0
DICTIONARY
  5
218
330
0
100
AcDbDictionary
281
     1
  3
ACAD_GROUP
350
219
  3
ACAD_LAYOUT
350
225
  3
ACAD_MLINESTYLE
350
222
  3
ACAD_PLOTSETTINGS
350
224
  3
ACAD_PLOTSTYLENAME
350
21A
  3
AcDbVariableDictionary
350
2B0
  3
AcmDictionary
350
274
  3
AMG
350
25D
  3
AMGSNAPSETTINGS
350
28C
  3
DWGPROPS
350
277
  0
DICTIONARY
  5
2AA
330
22A
100
AcDbDictionary
280
     1
281
     1
  3
ACAD_INDEX
360
2AB
  0
DICTIONARY
  5
219
102
{ACAD_REACTORS
330
218
102
}
330
218
100
AcDbDictionary
281
     1
  0
DICTIONARY
  5
225
102
{ACAD_REACTORS
330
218
102
}
330
218
100
AcDbDictionary
281
     1
  3
Model
350
22D
  3
ﾚｲｱｳﾄ1
350
229
  0
DICTIONARY
  5
222
102
{ACAD_REACTORS
330
218
102
}
330
218
100
AcDbDictionary
281
     1
  3
Standard
350
223
  0
DICTIONARY
  5
224
102
{ACAD_REACTORS
330
218
102
}
330
218
100
AcDbDictionary
281
     1
  0
ACDBDICTIONARYWDFLT
  5
21A
102
{ACAD_REACTORS
330
218
102
}
330
218
100
AcDbDictionary
281
     1
  3
Normal
350
21B
100
AcDbDictionaryWithDefault
340
21B
  0
DICTIONARY
  5
2B0
102
{ACAD_REACTORS
330
218
102
}
330
218
100
AcDbDictionary
281
     1
  3
DIMASSOC
350
2B2
  3
INDEXCTL
350
2B1
  0
DICTIONARY
  5
274
102
{ACAD_REACTORS
330
218
102
}
330
218
100
AcDbDictionary
281
     1
  3
AcmBOMDATA
350
275
  3
AcmStdDictionary
350
27A
  0
DICTIONARY
  5
25D
102
{ACAD_REACTORS
330
218
102
}
330
218
100
AcDbDictionary
281
     1
  3
AcMgSettings
350
25E
  3
AMGLAYCFG
350
27C
  0
DICTIONARY
  5
28C
102
{ACAD_REACTORS
330
218
102
}
330
218
100
AcDbDictionary
281
     1
  3
DIMENSION
350
291
  3
FEA
350
290
  3
HATCH (1)
350
28D
  3
HATCH (2)
350
28E
  3
SIMPLE WELD
350
292
  3
SYMBOLS
350
28F
  0
XRECORD
  5
277
102
{ACAD_REACTORS
330
218
102
}
330
218
100
AcDbXrecord
280
     1
  1
DWGPROPS COOKIE
  2

  3

  4

  6

  7

  8

  9

300
AmdtFileType=84
301
=
302
=
303
=
304
=
305
=
306
=
307
=
308
=
309
=
 40
0.000422962962963
 41
2452877.632238668
 42
2452877.63265625
  1

 90
        1
  0
DICTIONARY
  5
2AB
102
{ACAD_REACTORS
330
2AA
102
}
330
2AA
100
AcDbDictionary
281
     1
  3
*A1
350
2AC
  0
LAYOUT
  5
22D
102
{ACAD_REACTORS
330
225
102
}
330
225
100
AcDbPlotSettings
  1

  2
\\CAD-SRV01\FX DocuColor 1250 PLW
  4

  6

 40
0.0
 41
0.0
 42
0.0
 43
0.0
 44
0.0
 45
0.0
 46
0.0
 47
0.0
 48
0.0
 49
0.0
140
0.0
141
0.0
142
1.0
143
1.0
 70
  1712
 72
     0
 73
     0
 74
     0
  7

 75
     0
147
1.0
148
0.0
149
0.0
100
AcDbLayout
  1
Model
 70
     1
 71
     0
 10
0.0
 20
0.0
 11
12.0
 21
9.0
 12
0.0
 22
0.0
 32
0.0
 14
0.0
 24
0.0
 34
0.0
 15
0.0
 25
0.0
 35
0.0
146
0.0
 13
0.0
 23
0.0
 33
0.0
 16
1.0
 26
0.0
 36
0.0
 17
0.0
 27
1.0
 37
0.0
 76
     0
330
22A
  0
LAYOUT
  5
229
102
{ACAD_REACTORS
330
225
102
}
330
225
100
AcDbPlotSettings
  1

  2
\\CAD-SRV01\FX DocuColor 1250 PLW
  4

  6

 40
0.0
 41
0.0
 42
0.0
 43
0.0
 44
0.0
 45
0.0
 46
0.0
 47
0.0
 48
0.0
 49
0.0
140
0.0
141
0.0
142
1.0
143
1.0
 70
   688
 72
     0
 73
     0
 74
     5
  7

 75
    16
147
1.0
148
0.0
149
0.0
100
AcDbLayout
  1
ﾚｲｱｳﾄ1
 70
     1
 71
     1
 10
0.0
 20
0.0
 11
12.0
 21
9.0
 12
0.0
 22
0.0
 32
0.0
 14
1.000000000000000E+20
 24
1.000000000000000E+20
 34
1.000000000000000E+20
 15
-1.000000000000000E+20
 25
-1.000000000000000E+20
 35
-1.000000000000000E+20
146
0.0
 13
0.0
 23
0.0
 33
0.0
 16
1.0
 26
0.0
 36
0.0
 17
0.0
 27
1.0
 37
0.0
 76
     0
330
226
  0
MLINESTYLE
  5
223
102
{ACAD_REACTORS
330
222
102
}
330
222
100
AcDbMlineStyle
  2
STANDARD
 70
     0
  3

 62
   256
 51
90.0
 52
90.0
 71
     2
 49
0.5
 62
   256
  6
BYLAYER
 49
-0.5
 62
   256
  6
BYLAYER
  0
ACDBPLACEHOLDER
  5
21B
102
{ACAD_REACTORS
330
21A
102
}
330
21A
  0
DICTIONARYVAR
  5
2B2
102
{ACAD_REACTORS
330
2B0
102
}
330
2B0
100
DictionaryVariables
280
     0
  1
1
  0
DICTIONARYVAR
  5
2B1
102
{ACAD_REACTORS
330
2B0
102
}
330
2B0
100
DictionaryVariables
280
     0
  1
1
  0
ACMDATADICTIONARY
  5
275
102
{ACAD_REACTORS
330
274
102
}
330
274
100
AcDbDictionary
281
     1
  3
*A1
350
276
100
AcmDataDictionary
  0
DICTIONARY
  5
27A
102
{ACAD_REACTORS
330
274
102
}
330
274
100
AcDbDictionary
281
     1
  3
ANSI
350
27B
  0
DICTIONARY
  5
25E
102
{ACAD_REACTORS
330
25D
102
}
330
25D
100
AcDbDictionary
281
     1
  3
DWGSETTINGS
350
25F
  3
TRANSSETTINGS
350
260
  0
ACAMGFILTERDAT
  5
291
102
{ACAD_REACTORS
330
28C
102
}
330
28C
100
AcAmgFilterDat
 70
    15
  1
DIMENSION,AMDT_*_DIM
  2
*
  3
*
  4
*
  5
*
290
     1
  0
ACAMGFILTERDAT
  5
290
102
{ACAD_REACTORS
330
28C
102
}
330
28C
100
AcAmgFilterDat
 70
    15
  1
*
  2
AM_FEA-AM_*
  3
*
  4
*
  5
*
290
     1
  0
ACAMGFILTERDAT
  5
28D
102
{ACAD_REACTORS
330
28C
102
}
330
28C
100
AcAmgFilterDat
 70
    15
  1
HATCH
  2
*
  3
*
  4
*
  5
*
290
     1
  0
ACAMGFILTERDAT
  5
28E
102
{ACAD_REACTORS
330
28C
102
}
330
28C
100
AcAmgFilterDat
 70
    15
  1
LINE
  2
8,8N,*-8,*-8N,AM_8,AM_8N,*-AM_8,*-AM_8N
  3
*
  4
*
  5
INSERT,STDPART2D
290
     1
  0
ACAMGFILTERDAT
  5
292
102
{ACAD_REACTORS
330
28C
102
}
330
28C
100
AcAmgFilterDat
 70
    15
  1
ARC
  2
AM_5
  3
*
  4
2
  5
INSERT
290
     0
  0
ACAMGFILTERDAT
  5
28F
102
{ACAD_REACTORS
330
28C
102
}
330
28C
100
AcAmgFilterDat
 70
    15
  1
ACMFCFRAME,ACMDATUMTARGET,ACMDATUMID,ACMWELDSYM,ACMSURFSYM,ACMFEATID,ACMPARTREF,ACMBALLOON,AMDTEDGESYM,AMGSCREWCALCTABLE
  2
*
  3
*
  4
*
  5
*
290
     1
  0
LAYER_INDEX
  5
2AC
102
{ACAD_REACTORS
330
2AB
102
}
330
2AB
100
AcDbIndex
 40
2453040.735643507
100
AcDbLayerIndex
  8
0
360
2AD
 90
      379
  8
1
360
2AE
 90
        0
  8
2
360
2AF
 90
        0
  0
ACMDATAENTRYBLOCK
  5
276
102
{ACAD_REACTORS
330
275
102
}
330
275
100
AcmDataEntry
100
AcmDataEntryBlock
  0
IDBUFFER
  5
2AD
330
0
100
AcDbIdBuffer
330
125
330
127
330
128
330
129
330
12A
330
12B
330
12C
330
12D
330
12E
330
12F
330
130
330
131
330
132
330
133
330
134
330
135
330
136
330
137
330
138
330
139
330
13A
330
13B
330
13C
330
13D
330
13E
330
13F
330
140
330
141
330
142
330
143
330
144
330
145
330
146
330
147
330
148
330
149
330
14A
330
14B
330
14C
330
14D
330
14E
330
14F
330
150
330
151
330
152
330
153
330
154
330
155
330
156
330
157
330
158
330
159
330
15A
330
15B
330
15C
330
15D
330
15E
330
15F
330
160
330
161
330
162
330
163
330
164
330
165
330
166
330
167
330
168
330
169
330
16A
330
16B
330
16C
330
16D
330
16E
330
16F
330
170
330
171
330
172
330
173
330
174
330
175
330
176
330
177
330
178
330
179
330
17A
330
17B
330
17C
330
17D
330
17E
330
17F
330
180
330
181
330
182
330
183
330
184
330
185
330
186
330
187
330
188
330
189
330
18A
330
18B
330
18C
330
18D
330
18E
330
18F
330
190
330
191
330
192
330
193
330
194
330
195
330
196
330
197
330
198
330
199
330
19A
330
19B
330
19C
330
19D
330
19E
330
19F
330
1A0
330
1A1
330
1A2
330
1A3
330
1A4
330
1A5
330
1A6
330
293
330
294
330
295
330
296
330
297
330
298
330
299
330
29A
330
29B
330
29C
330
2F
330
30
330
31
330
32
330
33
330
34
330
35
330
36
330
37
330
38
330
39
330
3A
330
3B
330
3C
330
3D
330
3E
330
3F
330
40
330
41
330
42
330
43
330
44
330
45
330
46
330
47
330
48
330
49
330
4A
330
4B
330
4C
330
4D
330
4E
330
4F
330
50
330
51
330
52
330
53
330
54
330
55
330
56
330
57
330
58
330
59
330
5A
330
5B
330
5C
330
5D
330
5E
330
5F
330
60
330
61
330
62
330
63
330
64
330
65
330
66
330
67
330
68
330
69
330
6A
330
6B
330
6C
330
6D
330
6E
330
6F
330
70
330
71
330
72
330
73
330
74
330
75
330
76
330
77
330
78
330
79
330
7A
330
7B
330
7C
330
7D
330
7E
330
7F
330
80
330
81
330
82
330
83
330
84
330
85
330
86
330
87
330
88
330
89
330
8A
330
8B
330
8C
330
8D
330
8E
330
8F
330
90
330
91
330
92
330
93
330
94
330
95
330
96
330
97
330
98
330
99
330
9A
330
9B
330
9C
330
9D
330
9E
330
9F
330
A0
330
A1
330
A2
330
A3
330
A4
330
A5
330
A6
330
A7
330
A8
330
A9
330
AA
330
AB
330
AC
330
AD
330
AE
330
AF
330
B0
330
B1
330
B2
330
B3
330
B4
330
B5
330
B6
330
B7
330
B8
330
B9
330
BA
330
BB
330
BC
330
BD
330
BE
330
BF
330
C0
330
C1
330
C2
330
C3
330
C4
330
C5
330
C6
330
C7
330
C8
330
C9
330
CA
330
CB
330
CC
330
CD
330
CE
330
CF
330
D0
330
D1
330
D2
330
D3
330
D4
330
D5
330
D6
330
D7
330
D8
330
D9
330
DA
330
DB
330
DC
330
DD
330
DE
330
DF
330
E0
330
E1
330
E2
330
E3
330
E4
330
E5
330
E6
330
E7
330
E8
330
E9
330
EA
330
EB
330
EC
330
ED
330
EE
330
EF
330
F0
330
F1
330
F2
330
F3
330
F4
330
F5
330
F6
330
F7
330
F8
330
F9
330
FA
330
FB
330
FC
330
FD
330
FE
330
FF
330
100
330
101
330
102
330
103
330
104
330
105
330
106
330
107
330
108
330
109
330
10B
330
10C
330
10D
330
10E
330
10F
330
110
330
111
330
112
330
113
330
114
330
115
330
116
330
117
330
118
330
119
330
11A
330
11B
330
11C
330
11D
330
11E
330
120
  0
IDBUFFER
  5
2AE
330
0
100
AcDbIdBuffer
  0
IDBUFFER
  5
2AF
330
0
100
AcDbIdBuffer
  0
ENDSEC
  0
EOF
