  0
SECTION
  2
HEADER
  9
$ACADVER
  1
AC1009
  9
$INSBASE
 10
0.0
 20
0.0
 30
0.0
  9
$EXTMIN
 10
-169.67693998277761
 20
-53.040633464977873
 30
-0.0015258207003583
  9
$EXTMAX
 10
54.640763081890547
 20
99.088882995872837
 30
0.0000000349246037
  9
$LIMMIN
 10
0.0
 20
0.0
  9
$LIMMAX
 10
12.0
 20
9.0
  9
$ORTHOMODE
 70
     0
  9
$REGENMODE
 70
     1
  9
$FILLMODE
 70
     1
  9
$QTEXTMODE
 70
     0
  9
$MIRRTEXT
 70
     1
  9
$DRAGMODE
 70
     2
  9
$LTSCALE
 40
1.0
  9
$OSMODE
 70
    63
  9
$ATTMODE
 70
     1
  9
$TEXTSIZE
 40
0.2
  9
$TRACEWID
 40
0.05
  9
$TEXTSTYLE
  7
STANDARD
  9
$CLAYER
  8
0
  9
$CELTYPE
  6
CONTINUOUS
  9
$CECOLOR
 62
   256
  9
$DIMSCALE
 40
1.0
  9
$DIMASZ
 40
0.18
  9
$DIMEXO
 40
0.0625
  9
$DIMDLI
 40
0.38
  9
$DIMRND
 40
0.0
  9
$DIMDLE
 40
0.0
  9
$DIMEXE
 40
0.18
  9
$DIMTP
 40
0.0
  9
$DIMTM
 40
0.0
  9
$DIMTXT
 40
0.18
  9
$DIMCEN
 40
0.09
  9
$DIMTSZ
 40
0.0
  9
$DIMTOL
 70
     0
  9
$DIMLIM
 70
     0
  9
$DIMTIH
 70
     1
  9
$DIMTOH
 70
     1
  9
$DIMSE1
 70
     0
  9
$DIMSE2
 70
     0
  9
$DIMTAD
 70
     0
  9
$DIMZIN
 70
     0
  9
$DIMBLK
  1

  9
$DIMASO
 70
     1
  9
$DIMSHO
 70
     1
  9
$DIMPOST
  1

  9
$DIMAPOST
  1

  9
$DIMALT
 70
     0
  9
$DIMALTD
 70
     2
  9
$DIMALTF
 40
25.399999999999999
  9
$DIMLFAC
 40
1.0
  9
$DIMTOFL
 70
     0
  9
$DIMTVP
 40
0.0
  9
$DIMTIX
 70
     0
  9
$DIMSOXD
 70
     0
  9
$DIMSAH
 70
     0
  9
$DIMBLK1
  1

  9
$DIMBLK2
  1

  9
$DIMSTYLE
  2
STANDARD
  9
$DIMCLRD
 70
     0
  9
$DIMCLRE
 70
     0
  9
$DIMCLRT
 70
     0
  9
$DIMTFAC
 40
1.0
  9
$DIMGAP
 40
0.09
  9
$LUNITS
 70
     2
  9
$LUPREC
 70
     4
  9
$SKETCHINC
 40
0.1
  9
$FILLETRAD
 40
0.0
  9
$AUNITS
 70
     0
  9
$AUPREC
 70
     0
  9
$MENU
  1
.
  9
$ELEVATION
 40
0.0
  9
$PELEVATION
 40
0.0
  9
$THICKNESS
 40
0.0
  9
$LIMCHECK
 70
     0
  9
$BLIPMODE
 70
     0
  9
$CHAMFERA
 40
0.0
  9
$CHAMFERB
 40
0.0
  9
$SKPOLY
 70
     0
  9
$TDCREATE
 40
2452878.621406782
  9
$TDUPDATE
 40
2452878.621695416
  9
$TDINDWG
 40
0.0002889931
  9
$TDUSRTIMER
 40
0.0002889931
  9
$USRTIMER
 70
     1
  9
$ANGBASE
 50
0.0
  9
$ANGDIR
 70
     0
  9
$PDMODE
 70
     0
  9
$PDSIZE
 40
0.0
  9
$PLINEWID
 40
0.0
  9
$COORDS
 70
     0
  9
$SPLFRAME
 70
     0
  9
$SPLINETYPE
 70
     6
  9
$SPLINESEGS
 70
     8
  9
$ATTDIA
 70
     1
  9
$ATTREQ
 70
     1
  9
$HANDLING
 70
     1
  9
$HANDSEED
  5
1F4
  9
$SURFTAB1
 70
     6
  9
$SURFTAB2
 70
     6
  9
$SURFTYPE
 70
     6
  9
$SURFU
 70
     6
  9
$SURFV
 70
     6
  9
$UCSNAME
  2

  9
$UCSORG
 10
0.0
 20
0.0
 30
0.0
  9
$UCSXDIR
 10
1.0
 20
0.0
 30
0.0
  9
$UCSYDIR
 10
0.0
 20
1.0
 30
0.0
  9
$PUCSNAME
  2

  9
$PUCSORG
 10
0.0
 20
0.0
 30
0.0
  9
$PUCSXDIR
 10
1.0
 20
0.0
 30
0.0
  9
$PUCSYDIR
 10
0.0
 20
1.0
 30
0.0
  9
$USERI1
 70
     0
  9
$USERI2
 70
     0
  9
$USERI3
 70
     0
  9
$USERI4
 70
     0
  9
$USERI5
 70
     0
  9
$USERR1
 40
0.0
  9
$USERR2
 40
0.0
  9
$USERR3
 40
0.0
  9
$USERR4
 40
0.0
  9
$USERR5
 40
0.0
  9
$WORLDVIEW
 70
     1
  9
$SHADEDGE
 70
     3
  9
$SHADEDIF
 70
    70
  9
$TILEMODE
 70
     1
  9
$MAXACTVP
 70
    64
  9
$PLIMCHECK
 70
     0
  9
$PEXTMIN
 10
1.0000000000000000E+020
 20
1.0000000000000000E+020
 30
1.0000000000000000E+020
  9
$PEXTMAX
 10
-1.0000000000000000E+020
 20
-1.0000000000000000E+020
 30
-1.0000000000000000E+020
  9
$PLIMMIN
 10
0.0
 20
0.0
  9
$PLIMMAX
 10
12.0
 20
9.0
  9
$UNITMODE
 70
     0
  9
$VISRETAIN
 70
     1
  9
$PLINEGEN
 70
     0
  9
$PSLTSCALE
 70
     1
  0
ENDSEC
  0
SECTION
  2
TABLES
  0
TABLE
  2
VPORT
 70
     3
  0
VPORT
  2
*ACTIVE
 70
     0
 10
0.0
 20
0.0
 11
1.0
 21
1.0
 12
-57.518088450443543
 22
23.024124765447478
 13
0.0
 23
0.0
 14
1.0
 24
1.0
 15
0.0
 25
0.0
 16
0.0
 26
0.0
 36
1.0
 17
0.0
 27
0.0
 37
0.0
 40
153.2332372574227
 41
1.5242130750605321
 42
50.0
 43
0.0
 44
0.0
 50
0.0
 51
0.0
 71
     0
 72
   100
 73
     1
 74
     1
 75
     0
 76
     0
 77
     0
 78
     0
  0
ENDTAB
  0
TABLE
  2
LTYPE
 70
    19
  0
LTYPE
  2
CONTINUOUS
 70
     0
  3
Solid line
 72
    65
 73
     0
 40
0.0
  0
LTYPE
  2
DASHED
 70
     0
  3
__ __ __ __ __ __ __ __ __ __ __ __ __ __ __
 72
    65
 73
     2
 40
3.5
 49
2.0
 49
-1.5
  0
LTYPE
  2
CENTER
 70
     0
  3
____ _ ____ _ ____ _ ____ _ ____ _ ____ _ ____
 72
    65
 73
     4
 40
17.5
 49
13.0
 49
-1.5
 49
1.5
 49
-1.5
  0
LTYPE
  2
PHANTOM
 70
     0
  3
_____ _ _ _____ _ _ _____ _ _ _____ _ _ ____  
 72
    65
 73
     6
 40
15.5
 49
8.0
 49
-1.5
 49
1.5
 49
-1.5
 49
1.5
 49
-1.5
  0
LTYPE
  2
DOT
 70
     0
  3
. . . . . . . . . . . . . . . . . . . . . . . .
 72
    65
 73
     2
 40
0.25
 49
0.0
 49
-0.25
  0
LTYPE
  2
AM_ISO02W050
 70
     0
  3
__ __ __ __ __ __ __ __ __ __ __ __ __ __ __
 72
    65
 73
     2
 40
7.5
 49
6.0
 49
-1.5
  0
LTYPE
  2
AM_ISO08W050
 70
     0
  3
____ . ____ . ____ . ____ . ____ . ____ . ____
 72
    65
 73
     4
 40
18.0
 49
12.0
 49
-1.5
 49
3.0
 49
-1.5
  0
LTYPE
  2
AM_ISO09W050
 70
     0
  3
_____ . . _____ . . _____ . . ____ .. ____
 72
    65
 73
     6
 40
22.5
 49
12.0
 49
-1.5
 49
3.0
 49
-1.5
 49
3.0
 49
-1.5
  0
LTYPE
  2
AMCONSTR
 70
     0
  3
_______________________
 72
    65
 73
     2
 40
9999.0
 49
9999.0
 49
0.0
  0
LTYPE
  2
AM_ISO08W050X2
 70
     0
  3
__ . __ . __ . __ . __ . __
 72
    65
 73
     4
 40
9.0
 49
6.0
 49
-0.75
 49
1.5
 49
-0.75
  0
LTYPE
  2
AM_ISO02W050X2
 70
     0
  3
 _ _ _ _ _ _ _ _ _ _ _ _
 72
    65
 73
     2
 40
3.75
 49
3.0
 49
-0.75
  0
LTYPE
  2
AMZIGZAG
 70
     0
  3
/\/-/\/-/\/-/\/-/\/-/\/
 72
    65
 73
     2
 40
11.000099999999991
 49
0.0001
 49
-11.0
  0
LTYPE
  2
HIDDEN
 70
     0
  3
Hidden __ __ __ __ __ __ __ __ __ __ __ __ __ _
 72
    65
 73
     2
 40
0.375
 49
0.25
 49
-0.125
  0
LTYPE
  2
PHANTOM2
 70
     0
  3
Phantom (.5x) ___ _ _ ___ _ _ ___ _ _ ___ _ _
 72
    65
 73
     6
 40
1.25
 49
0.625
 49
-0.125
 49
0.125
 49
-0.125
 49
0.125
 49
-0.125
  0
LTYPE
  2
CENTER2
 70
     0
  3
Center (.5x) ___ _ ___ _ ___ _ ___ _ ___ _ ___
 72
    65
 73
     4
 40
1.125
 49
0.75
 49
-0.125
 49
0.125
 49
-0.125
  0
LTYPE
  2
HIDDEN2
 70
     0
  3
Hidden (.5x) _ _ _ _ _ _ _ _ _ _ _ _ _ _ _ _ _
 72
    65
 73
     2
 40
0.1875
 49
0.125
 49
-0.0625
  0
LTYPE
  2
AMZIGZAG2
 70
     0
  3
/\/-/\/-/\/-/\/-/\/-/\/
 72
    65
 73
     2
 40
0.4401
 49
0.0001
 49
-0.4400000000000001
  0
LTYPE
  2
ACANSTGB
 70
     0
  3
__ . . __ . .
 72
    65
 73
     6
 40
0.35433070866
 49
0.15748031496
 49
-0.03937007874
 49
0.03937007874
 49
-0.03937007874
 49
0.03937007874
 49
-0.03937007874
  0
LTYPE
  2
ACANSTGL
 70
     0
  3
_ _ _ _ _
 72
    65
 73
     2
 40
0.11811023622
 49
0.07874015748
 49
-0.03937007874
  0
ENDTAB
  0
TABLE
  2
LAYER
 70
     3
  0
LAYER
  2
0
 70
     0
 62
     7
  6
CONTINUOUS
  0
LAYER
  2
1
 70
     0
 62
     7
  6
CONTINUOUS
  0
LAYER
  2
2
 70
     0
 62
     7
  6
CONTINUOUS
  0
ENDTAB
  0
TABLE
  2
STYLE
 70
     4
  0
STYLE
  2
STANDARD
 70
     0
 40
0.0
 41
1.0
 50
0.0
 71
     0
 42
0.2
  3
txt
  4
BIGFONT
  0
STYLE
  2

 70
     1
 40
0.0
 41
1.0
 50
0.0
 71
     0
 42
0.2
  3
ltypeshp.shx
  4

  0
STYLE
  2
ACANSTS
 70
     0
 40
1.0
 41
1.0
 50
0.0
 71
     0
 42
0.2
  3
romans.shx
  4
extfont.shx
  0
STYLE
  2
ACANSGDT
 70
     0
 40
0.0
 41
1.0
 50
0.0
 71
     0
 42
0.2
  3
amgdtans.shx
  4

  0
ENDTAB
  0
TABLE
  2
VIEW
 70
     0
  0
ENDTAB
  0
TABLE
  2
UCS
 70
     0
  0
ENDTAB
  0
TABLE
  2
APPID
 70
     4
  0
APPID
  2
ACAD
 70
     0
  0
APPID
  2
MCAD_NO_VIS
 70
     0
  0
APPID
  2
ACAD_TEMP_GRAPHIC
 70
     0
  0
APPID
  2
ACATTRIBSERVICES
 70
     0
  0
ENDTAB
  0
TABLE
  2
DIMSTYLE
 70
     7
  0
DIMSTYLE
  2
STANDARD
 70
     0
  3

  4

  5

  6

  7

 40
1.0
 41
0.18
 42
0.0625
 43
0.38
 44
0.18
 45
0.0
 46
0.0
 47
0.0
 48
0.0
140
0.18
141
0.09
142
0.0
143
25.399999999999999
144
1.0
145
0.0
146
1.0
147
0.09
 71
     0
 72
     0
 73
     1
 74
     1
 75
     0
 76
     0
 77
     0
 78
     0
170
     0
171
     2
172
     0
173
     0
174
     0
175
     0
176
     0
177
     0
178
     0
  0
DIMSTYLE
  2
AM_ANSI
 70
     0
  3

  4
mm
  5

  6

  7

 40
1.0
 41
0.1
 42
0.05
 43
0.5
 44
0.1
 45
0.0
 46
0.0
 47
0.1
 48
0.1
140
0.12
141
0.0
142
0.0
143
25.399999999999999
144
1.0
145
0.0
146
0.71
147
0.06
 71
     0
 72
     0
 73
     1
 74
     1
 75
     0
 76
     0
 77
     0
 78
     7
170
     0
171
     2
172
     0
173
     0
174
     0
175
     0
176
   256
177
   256
178
     2
  0
DIMSTYLE
  2
AM_ANSI$3
 70
     0
  3

  4
mm
  5

  6

  7

 40
1.0
 41
0.1
 42
0.05
 43
0.5
 44
0.1
 45
0.0
 46
0.0
 47
0.1
 48
0.1
140
0.12
141
0.0
142
0.0
143
25.399999999999999
144
1.0
145
0.0
146
0.71
147
0.06
 71
     0
 72
     0
 73
     1
 74
     1
 75
     0
 76
     0
 77
     0
 78
     7
170
     0
171
     2
172
     0
173
     0
174
     0
175
     0
176
   256
177
   256
178
     2
  0
DIMSTYLE
  2
AM_ANSI$4
 70
     0
  3

  4
mm
  5

  6

  7

 40
1.0
 41
0.1
 42
0.05
 43
0.5
 44
0.1
 45
0.0
 46
0.0
 47
0.1
 48
0.1
140
0.12
141
0.0
142
0.0
143
25.399999999999999
144
1.0
145
0.0
146
0.71
147
0.06
 71
     0
 72
     0
 73
     1
 74
     1
 75
     0
 76
     0
 77
     0
 78
     7
170
     0
171
     2
172
     0
173
     0
174
     0
175
     0
176
   256
177
   256
178
     2
  0
DIMSTYLE
  2
AM_ANSI$7
 70
     0
  3

  4
mm
  5

  6

  7

 40
1.0
 41
0.1
 42
0.05
 43
0.5
 44
0.1
 45
0.0
 46
0.0
 47
0.1
 48
0.1
140
0.24
141
0.0
142
0.0
143
25.399999999999999
144
1.0
145
0.0
146
0.71
147
0.06
 71
     0
 72
     0
 73
     1
 74
     1
 75
     0
 76
     0
 77
     0
 78
     7
170
     0
171
     2
172
     0
173
     0
174
     0
175
     0
176
   256
177
   256
178
     2
  0
DIMSTYLE
  2
AM_ANSI$SF
 70
     0
  3

  4
mm
  5

  6

  7

 40
1.0
 41
0.1
 42
0.05
 43
0.5
 44
0.1
 45
0.0
 46
0.0
 47
0.1
 48
0.1
140
0.12
141
0.0
142
0.0
143
25.399999999999999
144
1.0
145
0.0
146
0.71
147
0.06
 71
     0
 72
     0
 73
     1
 74
     1
 75
     1
 76
     1
 77
     0
 78
     7
170
     0
171
     2
172
     0
173
     0
174
     0
175
     0
176
   256
177
   256
178
     2
  0
DIMSTYLE
  2
AM_ANSI$SH
 70
     0
  3

  4
mm
  5

  6
GENAXEH
  7

 40
1.0
 41
0.1
 42
0.05
 43
0.5
 44
0.1
 45
0.0
 46
0.0
 47
0.1
 48
0.1
140
0.12
141
0.0
142
0.0
143
25.399999999999999
144
1.0
145
0.0
146
0.71
147
0.06
 71
     0
 72
     0
 73
     1
 74
     1
 75
     1
 76
     1
 77
     0
 78
     7
170
     0
171
     2
172
     0
173
     1
174
     0
175
     0
176
   256
177
   256
178
     2
  0
ENDTAB
  0
ENDSEC
  0
SECTION
  2
BLOCKS
  0
BLOCK
  8
0
  2
$MODEL_SPACE
 70
     0
 10
0.0
 20
0.0
 30
0.0
  3
$MODEL_SPACE
  1

  0
ENDBLK
  5
20
  8
0
  0
BLOCK
 67
     1
  8
0
  2
$PAPER_SPACE
 70
     0
 10
0.0
 20
0.0
 30
0.0
  3
$PAPER_SPACE
  1

  0
ENDBLK
  5
1C
 67
     1
  8
0
  0
BLOCK
  8
0
  2
GENAXEH
 70
     0
 10
0.0
 20
0.0
 30
0.0
  3
GENAXEH
  1

  0
LINE
  5
1D9
  8
0
 10
-1.0
 20
0.0
 30
0.0
 11
1.0
 21
0.0
 31
0.0
  0
ENDBLK
  5
1DB
  8
0
  0
ENDSEC
  0
SECTION
  2
ENTITIES
  0
LINE
  5
2F
  8
0
  6
CONTINUOUS
 62
     7
 10
-164.66072
 20
8.1785717000000009
 30
0.0
 11
-42.660713000000001
 21
8.1785717000000009
 31
0.0
  0
LINE
  5
30
  8
0
  6
CONTINUOUS
 62
     7
 10
-164.66072
 20
5.1785712000000004
 30
0.0
 11
-151.66071999999991
 21
5.1785712000000004
 31
0.0
  0
LINE
  5
31
  8
0
  6
CONTINUOUS
 62
     7
 10
-164.66072
 20
7.7958493000000004
 30
0.0
 11
-164.66072
 21
5.1785712000000004
 31
0.0
  0
LINE
  5
32
  8
0
  6
CONTINUOUS
 62
     7
 10
-42.660713000000001
 20
8.1785717000000009
 30
0.0
 11
-42.660713000000001
 21
5.1785712000000004
 31
0.0
  0
LINE
  5
33
  8
0
  6
CONTINUOUS
 62
     7
 10
-150.16072
 20
-21.821428000000001
 30
0.0
 11
-98.010711999999998
 21
-21.821428000000001
 31
0.0
  0
LINE
  5
34
  8
0
  6
CONTINUOUS
 62
     7
 10
31.774999999999999
 20
-36.821429999999992
 30
0.0
 11
49.474997999999999
 21
-36.821429999999992
 31
0.0
  0
LINE
  5
35
  8
0
  6
CONTINUOUS
 62
     7
 10
-55.660713000000001
 20
5.1785712000000004
 30
0.0
 11
-55.660713000000001
 21
-20.321428000000001
 31
0.0
  0
LINE
  5
36
  8
0
  6
CONTINUOUS
 62
     7
 10
-151.66071999999991
 20
5.1785712000000004
 30
0.0
 11
-151.66071999999991
 21
-20.321428000000001
 31
0.0
  0
LINE
  5
37
  8
0
  6
CONTINUOUS
 62
     7
 10
-164.66072
 20
6.6785712000000004
 30
0.0
 11
-42.660713000000001
 21
6.6785712000000004
 31
0.0
  0
LINE
  5
38
  8
0
  6
CENTER
 62
     7
 10
40.625
 20
23.178571999999999
 30
0.0
 11
40.625
 21
-41.821429999999992
 31
0.0
  0
LINE
  5
39
  8
0
  6
CONTINUOUS
 62
     7
 10
49.474997999999999
 20
-21.821428000000001
 30
0.0
 11
49.474997999999999
 21
-36.821429999999992
 31
0.0
  0
LINE
  5
3A
  8
0
  6
CONTINUOUS
 62
     7
 10
31.774999999999999
 20
-21.821428000000001
 30
0.0
 11
31.774999999999999
 21
-36.821429999999992
 31
0.0
  0
LINE
  5
3B
  8
0
  6
CONTINUOUS
 62
     7
 10
33.275002000000001
 20
-21.821428000000001
 30
0.0
 11
33.275002000000001
 21
-36.821429999999992
 31
0.0
  0
LINE
  5
3C
  8
0
  6
CONTINUOUS
 62
     7
 10
47.974997999999992
 20
-21.821428000000001
 30
0.0
 11
47.974997999999992
 21
-36.821429999999992
 31
0.0
  0
LINE
  5
3D
  8
0
  6
CONTINUOUS
 62
     7
 10
35.625
 20
-21.821428000000001
 30
0.0
 11
40.625
 21
-26.821428000000001
 31
0.0
  0
LINE
  5
3E
  8
0
  6
CONTINUOUS
 62
     7
 10
40.625
 20
-26.821428000000001
 30
0.0
 11
45.625
 21
-21.821428000000001
 31
0.0
  0
LINE
  5
3F
  8
0
  6
CONTINUOUS
 62
     7
 10
50.974997999999999
 20
-21.821428000000001
 30
0.0
 11
50.974997999999999
 21
-26.821428000000001
 31
0.0
  0
LINE
  5
40
  8
0
  6
CONTINUOUS
 62
     7
 10
30.274999999999991
 20
-21.821428000000001
 30
0.0
 11
30.274999999999991
 21
-26.821428000000001
 31
0.0
  0
LINE
  5
41
  8
0
  6
CONTINUOUS
 62
     7
 10
-150.16072
 20
-20.321428000000001
 30
0.0
 11
-77.310715000000002
 21
-20.321428000000001
 31
0.0
  0
LINE
  5
42
  8
0
  6
CONTINUOUS
 62
     7
 10
-57.160713000000001
 20
5.1785712000000004
 30
0.0
 11
-57.160713000000001
 21
-20.321428000000001
 31
0.0
  0
LINE
  5
43
  8
0
  6
CONTINUOUS
 62
     7
 10
-150.16072
 20
5.1785712000000004
 30
0.0
 11
-150.16072
 21
-20.321428000000001
 31
0.0
  0
LINE
  5
44
  8
0
  6
CONTINUOUS
 62
     7
 10
-55.660713000000001
 20
5.1785712000000004
 30
0.0
 11
-42.660713000000001
 21
5.1785712000000004
 31
0.0
  0
LINE
  5
45
  8
0
  6
CONTINUOUS
 62
     7
 10
30.274999999999991
 20
-26.821428000000001
 30
0.0
 11
31.774999999999999
 21
-26.821428000000001
 31
0.0
  0
LINE
  5
46
  8
0
  6
CONTINUOUS
 62
     7
 10
49.474997999999999
 20
-26.821428000000001
 30
0.0
 11
50.974997999999999
 21
-26.821428000000001
 31
0.0
  0
LINE
  5
47
  8
0
  6
CONTINUOUS
 62
     7
 10
-77.310715000000002
 20
-20.321428000000001
 30
0.0
 11
-57.160713000000001
 21
-20.321428000000001
 31
0.0
  0
LINE
  5
48
  8
0
  6
CONTINUOUS
 62
     7
 10
31.774999999999999
 20
-21.821428000000001
 30
0.0
 11
49.474997999999999
 21
-21.821428000000001
 31
0.0
  0
LINE
  5
49
  8
0
  6
CONTINUOUS
 62
     7
 10
-77.310715000000002
 20
-21.821428000000001
 30
0.0
 11
-57.160713000000001
 21
-21.821428000000001
 31
0.0
  0
LINE
  5
4A
  8
0
  6
CENTER
 62
     7
 10
-158.66071999999991
 20
11.178572000000001
 30
0.0
 11
-158.66071999999991
 21
2.178571499999999
 31
0.0
  0
LINE
  5
4B
  8
0
  6
CENTER
 62
     7
 10
-48.660713000000001
 20
11.178572000000001
 30
0.0
 11
-48.660713000000001
 21
2.178571499999999
 31
0.0
  0
LINE
  5
4C
  8
0
  6
CONTINUOUS
 62
     7
 10
-141.66072
 20
19.178571999999999
 30
0.0
 11
-137.66072
 21
19.178571999999999
 31
0.0
  0
LINE
  5
4D
  8
0
  6
CENTER
 62
     7
 10
-139.66072
 20
23.387066000000001
 30
0.0
 11
-139.66072
 21
-29.821428000000001
 31
0.0
  0
LINE
  5
4E
  8
0
  6
CONTINUOUS
 62
     7
 10
-144.66072
 20
16.178571999999988
 30
0.0
 11
-144.66072
 21
8.1785717000000009
 31
0.0
  0
LINE
  5
4F
  8
0
  6
CONTINUOUS
 62
     7
 10
-134.66072
 20
16.178571999999988
 30
0.0
 11
-134.66072
 21
8.1785717000000009
 31
0.0
  0
LINE
  5
50
  8
0
  6
CONTINUOUS
 62
     7
 10
-145.91072
 20
-23.821428000000001
 30
0.0
 11
-133.41072
 21
-23.821428000000001
 31
0.0
  0
LINE
  5
51
  8
0
  6
CONTINUOUS
 62
     7
 10
-145.91072
 20
-21.821428000000001
 30
0.0
 11
-145.91072
 21
-23.821428000000001
 31
0.0
  0
LINE
  5
52
  8
0
  6
CONTINUOUS
 62
     7
 10
-133.41072
 20
-21.821428000000001
 30
0.0
 11
-133.41072
 21
-23.821428000000001
 31
0.0
  0
LINE
  5
53
  8
0
  6
CONTINUOUS
 62
     7
 10
-144.66072
 20
-24.821428000000001
 30
0.0
 11
-134.66072
 21
-24.821428000000001
 31
0.0
  0
LINE
  5
54
  8
0
  6
CONTINUOUS
 62
     7
 10
-134.66072
 20
-23.821428000000001
 30
0.0
 11
-134.66072
 21
-24.821428000000001
 31
0.0
  0
LINE
  5
55
  8
0
  6
CONTINUOUS
 62
     7
 10
-144.66072
 20
-23.821428000000001
 30
0.0
 11
-144.66072
 21
-24.821428000000001
 31
0.0
  0
LINE
  5
56
  8
0
  6
CONTINUOUS
 62
     7
 10
26.625
 20
8.1785717000000009
 30
0.0
 11
26.625
 21
-21.821428000000001
 31
0.0
  0
LINE
  5
57
  8
0
  6
CONTINUOUS
 62
     7
 10
54.625
 20
8.1785717000000009
 30
0.0
 11
54.625
 21
-21.821428000000001
 31
0.0
  0
LINE
  5
58
  8
0
  6
CONTINUOUS
 62
     7
 10
26.625
 20
-21.821428000000001
 30
0.0
 11
54.625
 21
-21.821428000000001
 31
0.0
  0
LINE
  5
59
  8
0
  6
CONTINUOUS
 62
     7
 10
26.625
 20
8.1785717000000009
 30
0.0
 11
54.625
 21
8.1785717000000009
 31
0.0
  0
LINE
  5
5A
  8
0
  6
CONTINUOUS
 62
     7
 10
26.625
 20
6.6785712000000004
 30
0.0
 11
54.625
 21
6.6785712000000004
 31
0.0
  0
LINE
  5
5B
  8
0
  6
CONTINUOUS
 62
     7
 10
26.625
 20
5.1785712000000004
 30
0.0
 11
54.625
 21
5.1785712000000004
 31
0.0
  0
LINE
  5
5C
  8
0
  6
CONTINUOUS
 62
     7
 10
-78.810715000000002
 20
-26.821428000000001
 30
0.0
 11
-77.310715000000002
 21
-26.821428000000001
 31
0.0
  0
LINE
  5
5D
  8
0
  6
CONTINUOUS
 62
     7
 10
-96.510711999999998
 20
-36.821429999999992
 30
0.0
 11
-78.810715000000002
 21
-36.821429999999992
 31
0.0
  0
LINE
  5
5E
  8
0
  6
CONTINUOUS
 62
     7
 10
-98.010711999999998
 20
-26.821428000000001
 30
0.0
 11
-96.510711999999998
 21
-26.821428000000001
 31
0.0
  0
LINE
  5
5F
  8
0
  6
CONTINUOUS
 62
     7
 10
-78.810715000000002
 20
-21.821428000000001
 30
0.0
 11
-78.810715000000002
 21
-36.821429999999992
 31
0.0
  0
LINE
  5
60
  8
0
  6
CONTINUOUS
 62
     7
 10
-96.510711999999998
 20
-21.821428000000001
 30
0.0
 11
-96.510711999999998
 21
-36.821429999999992
 31
0.0
  0
LINE
  5
61
  8
0
  6
CONTINUOUS
 62
     7
 10
-95.010711999999998
 20
-21.821428000000001
 30
0.0
 11
-95.010711999999998
 21
-36.821429999999992
 31
0.0
  0
LINE
  5
62
  8
0
  6
CONTINUOUS
 62
     7
 10
-80.310715000000016
 20
-21.821428000000001
 30
0.0
 11
-80.310715000000016
 21
-36.821429999999992
 31
0.0
  0
LINE
  5
63
  8
0
  6
CONTINUOUS
 62
     7
 10
-92.660713000000001
 20
-21.821432000000001
 30
0.0
 11
-87.660713000000001
 21
-26.821432000000001
 31
0.0
  0
LINE
  5
64
  8
0
  6
CONTINUOUS
 62
     7
 10
-87.660713000000001
 20
-26.821432000000001
 30
0.0
 11
-82.660713000000001
 21
-21.821432000000001
 31
0.0
  0
LINE
  5
65
  8
0
  6
CONTINUOUS
 62
     7
 10
-77.310715000000002
 20
-21.821428000000001
 30
0.0
 11
-77.310715000000002
 21
-26.821428000000001
 31
0.0
  0
LINE
  5
66
  8
0
  6
CONTINUOUS
 62
     7
 10
-98.010711999999998
 20
-21.821428000000001
 30
0.0
 11
-98.010711999999998
 21
-26.821428000000001
 31
0.0
  0
LINE
  5
67
  8
0
  6
CONTINUOUS
 62
     7
 10
-96.510711999999998
 20
-21.821428000000001
 30
0.0
 11
-78.810715000000002
 21
-21.821428000000001
 31
0.0
  0
LINE
  5
68
  8
0
  6
CENTER
 62
     7
 10
-87.660713000000001
 20
13.178572000000001
 30
0.0
 11
-87.660713000000001
 21
-41.821429999999992
 31
0.0
  0
LINE
  5
69
  8
0
  6
CONTINUOUS
 62
     7
 10
50.125
 20
8.2643576000000003
 30
0.0
 11
50.125
 21
8.1785717000000009
 31
0.0
  0
LINE
  5
6A
  8
0
  6
CONTINUOUS
 62
     7
 10
31.125
 20
8.2643576000000003
 30
0.0
 11
31.125
 21
8.1785717000000009
 31
0.0
  0
LINE
  5
6B
  8
0
  6
CONTINUOUS
 62
     7
 10
32.003681
 20
10.385678
 30
0.0
 11
39.210788999999991
 21
17.592784999999989
 31
0.0
  0
LINE
  5
6C
  8
0
  6
CONTINUOUS
 62
     7
 10
42.039214999999999
 20
17.592784999999989
 30
0.0
 11
49.24632299999999
 21
10.385678
 31
0.0
  0
LINE
  5
6D
  8
0
  6
CENTER
 62
     7
 10
35.625
 20
-6.8214287999999987
 30
0.0
 11
45.625
 21
-6.8214287999999987
 31
0.0
  0
LINE
  5
6E
  8
0
  6
DASHED
 62
     7
 10
-96.160713000000015
 20
8.1785717000000009
 30
0.0
 11
-96.160713000000015
 21
6.6785712000000004
 31
0.0
  0
LINE
  5
6F
  8
0
  6
DASHED
 62
     7
 10
-79.160713000000001
 20
8.1785717000000009
 30
0.0
 11
-79.160713000000001
 21
6.6785712000000004
 31
0.0
  0
LINE
  5
70
  8
0
  6
CONTINUOUS
 62
     7
 10
-164.66072
 20
96.071426000000017
 30
0.0
 11
-164.66072
 21
68.071426000000002
 31
0.0
  0
LINE
  5
71
  8
0
  6
CONTINUOUS
 62
     7
 10
-42.660713000000001
 20
96.071426000000017
 30
0.0
 11
-42.660713000000001
 21
68.071426000000002
 31
0.0
  0
LINE
  5
72
  8
0
  6
CONTINUOUS
 62
     7
 10
-164.66072
 20
68.071426000000002
 30
0.0
 11
-42.660713000000001
 21
68.071426000000002
 31
0.0
  0
LINE
  5
73
  8
0
  6
CONTINUOUS
 62
     7
 10
-164.66072
 20
96.071426000000017
 30
0.0
 11
-42.660713000000001
 21
96.071426000000017
 31
0.0
  0
LINE
  5
74
  8
0
  6
CENTER
 62
     7
 10
-158.66071999999991
 20
96.071426000000017
 30
0.0
 11
-158.66071999999991
 21
86.071426000000017
 31
0.0
  0
LINE
  5
75
  8
0
  6
CENTER
 62
     7
 10
-163.66072
 20
91.071426000000017
 30
0.0
 11
-153.66071999999991
 21
91.071426000000017
 31
0.0
  0
LINE
  5
76
  8
0
  6
CENTER
 62
     7
 10
-158.66071999999991
 20
78.071426000000002
 30
0.0
 11
-158.66071999999991
 21
68.071426000000002
 31
0.0
  0
LINE
  5
77
  8
0
  6
CENTER
 62
     7
 10
-163.66072
 20
73.071426000000002
 30
0.0
 11
-153.66071999999991
 21
73.071426000000002
 31
0.0
  0
LINE
  5
78
  8
0
  6
CENTER
 62
     7
 10
-48.660713000000001
 20
78.071426000000002
 30
0.0
 11
-48.660713000000001
 21
68.071426000000002
 31
0.0
  0
LINE
  5
79
  8
0
  6
CENTER
 62
     7
 10
-53.660713000000001
 20
73.071426000000002
 30
0.0
 11
-43.660713000000001
 21
73.071426000000002
 31
0.0
  0
LINE
  5
7A
  8
0
  6
CENTER
 62
     7
 10
-48.660713000000001
 20
96.071426000000017
 30
0.0
 11
-48.660713000000001
 21
86.071426000000017
 31
0.0
  0
LINE
  5
7B
  8
0
  6
CENTER
 62
     7
 10
-53.660713000000001
 20
91.071426000000017
 30
0.0
 11
-43.660713000000001
 21
91.071426000000017
 31
0.0
  0
LINE
  5
7C
  8
0
  6
CENTER
 62
     7
 10
-139.66072
 20
99.071426000000002
 30
0.0
 11
-139.66072
 21
65.071426000000002
 31
0.0
  0
LINE
  5
7D
  8
0
  6
CENTER
 62
     7
 10
-169.66072
 20
82.071426000000002
 30
0.0
 11
-37.660713000000001
 21
82.071426000000002
 31
0.0
  0
LINE
  5
7E
  8
0
  6
CONTINUOUS
 62
     7
 10
-142.66072
 20
71.571426000000002
 30
0.0
 11
-136.66072
 21
71.571426000000002
 31
0.0
  0
LINE
  5
7F
  8
0
  6
CONTINUOUS
 62
     7
 10
-142.66072
 20
92.571425999999988
 30
0.0
 11
-136.66072
 21
92.571425999999988
 31
0.0
  0
LINE
  5
80
  8
0
  6
CONTINUOUS
 62
     7
 10
-145.66072
 20
89.571426000000002
 30
0.0
 11
-145.66072
 21
74.571426000000002
 31
0.0
  0
LINE
  5
81
  8
0
  6
CONTINUOUS
 62
     7
 10
-133.66071999999991
 20
89.571426000000002
 30
0.0
 11
-133.66071999999991
 21
74.571426000000002
 31
0.0
  0
LINE
  5
82
  8
0
  6
CONTINUOUS
 62
     7
 10
-144.66072
 20
89.571426000000002
 30
0.0
 11
-144.66072
 21
74.571426000000002
 31
0.0
  0
LINE
  5
83
  8
0
  6
CONTINUOUS
 62
     7
 10
-142.66072
 20
91.571426000000002
 30
0.0
 11
-136.66072
 21
91.571426000000002
 31
0.0
  0
LINE
  5
84
  8
0
  6
CONTINUOUS
 62
     7
 10
-134.66072
 20
89.571426000000002
 30
0.0
 11
-134.66072
 21
74.571426000000002
 31
0.0
  0
LINE
  5
85
  8
0
  6
CONTINUOUS
 62
     7
 10
-142.66072
 20
72.571426000000002
 30
0.0
 11
-136.66072
 21
72.571426000000002
 31
0.0
  0
LINE
  5
86
  8
0
  6
CENTER
 62
     7
 10
-87.660713000000001
 20
99.071426000000002
 30
0.0
 11
-87.660713000000001
 21
65.071426000000002
 31
0.0
  0
LINE
  5
87
  8
0
  6
CONTINUOUS
 62
     7
 10
-96.160713000000015
 20
90.571426000000002
 30
0.0
 11
-96.160713000000015
 21
73.571426000000002
 31
0.0
  0
LINE
  5
88
  8
0
  6
CONTINUOUS
 62
     7
 10
-79.160713000000001
 20
90.571426000000002
 30
0.0
 11
-79.160713000000001
 21
73.571426000000002
 31
0.0
  0
LINE
  5
89
  8
0
  6
CONTINUOUS
 62
     7
 10
-96.160713000000015
 20
90.571426000000002
 30
0.0
 11
-79.160713000000001
 21
90.571426000000002
 31
0.0
  0
LINE
  5
8A
  8
0
  6
CONTINUOUS
 62
     7
 10
-96.160713000000015
 20
73.571426000000002
 30
0.0
 11
-79.160713000000001
 21
73.571426000000002
 31
0.0
  0
LINE
  5
8B
  8
0
  6
CONTINUOUS
 62
     7
 10
-84.160713000000001
 20
90.571426000000002
 30
0.0
 11
-84.160713000000001
 21
73.571426000000002
 31
0.0
  0
LINE
  5
8C
  8
0
  6
CONTINUOUS
 62
     7
 10
-95.160713000000001
 20
89.571426000000002
 30
0.0
 11
-84.160713000000001
 21
89.571426000000002
 31
0.0
  0
LINE
  5
8D
  8
0
  6
CONTINUOUS
 62
     7
 10
-95.160713000000001
 20
89.571426000000002
 30
0.0
 11
-95.160713000000001
 21
74.571426000000002
 31
0.0
  0
LINE
  5
8E
  8
0
  6
CONTINUOUS
 62
     7
 10
-95.160713000000001
 20
74.571426000000002
 30
0.0
 11
-84.160713000000001
 21
74.571426000000002
 31
0.0
  0
LINE
  5
8F
  8
0
  6
CONTINUOUS
 62
     7
 10
-122.4207199999999
 20
74.571426000000002
 30
0.0
 11
-122.90071
 21
74.571426000000002
 31
0.0
  0
LINE
  5
90
  8
0
  6
CONTINUOUS
 62
     7
 10
-121.16070999999999
 20
73.311431999999996
 30
0.0
 11
-121.52070999999999
 21
73.311431999999996
 31
0.0
  0
LINE
  5
91
  8
0
  6
CONTINUOUS
 62
     7
 10
-121.16070999999999
 20
72.831429
 30
0.0
 11
-121.52070999999999
 21
72.831429
 31
0.0
  0
LINE
  5
92
  8
0
  6
CONTINUOUS
 62
     7
 10
-122.4207199999999
 20
71.571426000000002
 30
0.0
 11
-122.90071
 21
71.571426000000002
 31
0.0
  0
LINE
  5
93
  8
0
  6
CONTINUOUS
 62
     7
 10
-122.4207199999999
 20
74.571426000000002
 30
0.0
 11
-122.4207199999999
 21
74.211433
 31
0.0
  0
LINE
  5
94
  8
0
  6
CONTINUOUS
 62
     7
 10
-122.90071
 20
74.571426000000002
 30
0.0
 11
-122.90071
 21
74.211433
 31
0.0
  0
LINE
  5
95
  8
0
  6
CONTINUOUS
 62
     7
 10
-124.16070999999999
 20
73.311431999999996
 30
0.0
 11
-124.16070999999999
 21
72.831429
 31
0.0
  0
LINE
  5
96
  8
0
  6
CONTINUOUS
 62
     7
 10
-121.16070999999999
 20
73.311431999999996
 30
0.0
 11
-121.16070999999999
 21
72.831429
 31
0.0
  0
LINE
  5
97
  8
0
  6
CONTINUOUS
 62
     7
 10
-123.80071
 20
72.831429
 30
0.0
 11
-124.16070999999999
 21
72.831429
 31
0.0
  0
LINE
  5
98
  8
0
  6
CONTINUOUS
 62
     7
 10
-122.4207199999999
 20
71.931426999999999
 30
0.0
 11
-122.4207199999999
 21
71.571426000000002
 31
0.0
  0
LINE
  5
99
  8
0
  6
CONTINUOUS
 62
     7
 10
-122.90071
 20
71.931426999999999
 30
0.0
 11
-122.90071
 21
71.571426000000002
 31
0.0
  0
LINE
  5
9A
  8
0
  6
CONTINUOUS
 62
     7
 10
-123.80071
 20
73.311431999999996
 30
0.0
 11
-124.16070999999999
 21
73.311431999999996
 31
0.0
  0
LINE
  5
9B
  8
0
  6
CENTER
 62
     7
 10
-122.66070999999999
 20
75.471428000000003
 30
0.0
 11
-122.66070999999999
 21
70.671424999999999
 31
0.0
  0
LINE
  5
9C
  8
0
  6
CENTER
 62
     7
 10
-125.06071
 20
73.071426000000002
 30
0.0
 11
-120.26071
 21
73.071426000000002
 31
0.0
  0
LINE
  5
9D
  8
0
  6
CONTINUOUS
 62
     7
 10
-60.420715000000001
 20
74.571426000000002
 30
0.0
 11
-60.900711000000001
 21
74.571426000000002
 31
0.0
  0
LINE
  5
9E
  8
0
  6
CONTINUOUS
 62
     7
 10
-59.160713000000001
 20
73.311431999999996
 30
0.0
 11
-59.520718000000002
 21
73.311431999999996
 31
0.0
  0
LINE
  5
9F
  8
0
  6
CONTINUOUS
 62
     7
 10
-59.160713000000001
 20
72.831429
 30
0.0
 11
-59.520718000000002
 21
72.831429
 31
0.0
  0
LINE
  5
A0
  8
0
  6
CONTINUOUS
 62
     7
 10
-60.420715000000001
 20
71.571426000000002
 30
0.0
 11
-60.900711000000001
 21
71.571426000000002
 31
0.0
  0
LINE
  5
A1
  8
0
  6
CONTINUOUS
 62
     7
 10
-60.420715000000001
 20
74.571426000000002
 30
0.0
 11
-60.420715000000001
 21
74.211433
 31
0.0
  0
LINE
  5
A2
  8
0
  6
CONTINUOUS
 62
     7
 10
-60.900711000000001
 20
74.571426000000002
 30
0.0
 11
-60.900711000000001
 21
74.211433
 31
0.0
  0
LINE
  5
A3
  8
0
  6
CONTINUOUS
 62
     7
 10
-62.160713000000001
 20
73.311431999999996
 30
0.0
 11
-62.160713000000001
 21
72.831429
 31
0.0
  0
LINE
  5
A4
  8
0
  6
CONTINUOUS
 62
     7
 10
-59.160713000000001
 20
73.311431999999996
 30
0.0
 11
-59.160713000000001
 21
72.831429
 31
0.0
  0
LINE
  5
A5
  8
0
  6
CONTINUOUS
 62
     7
 10
-61.800708999999998
 20
72.831429
 30
0.0
 11
-62.160713000000001
 21
72.831429
 31
0.0
  0
LINE
  5
A6
  8
0
  6
CONTINUOUS
 62
     7
 10
-60.420715000000001
 20
71.931426999999999
 30
0.0
 11
-60.420715000000001
 21
71.571426000000002
 31
0.0
  0
LINE
  5
A7
  8
0
  6
CONTINUOUS
 62
     7
 10
-60.900711000000001
 20
71.931426999999999
 30
0.0
 11
-60.900711000000001
 21
71.571426000000002
 31
0.0
  0
LINE
  5
A8
  8
0
  6
CONTINUOUS
 62
     7
 10
-61.800708999999998
 20
73.311431999999996
 30
0.0
 11
-62.160713000000001
 21
73.311431999999996
 31
0.0
  0
LINE
  5
A9
  8
0
  6
CENTER
 62
     7
 10
-60.660713000000001
 20
75.471428000000003
 30
0.0
 11
-60.660713000000001
 21
70.671424999999999
 31
0.0
  0
LINE
  5
AA
  8
0
  6
CENTER
 62
     7
 10
-63.060715000000002
 20
73.071426000000002
 30
0.0
 11
-58.260711999999998
 21
73.071426000000002
 31
0.0
  0
LINE
  5
AB
  8
0
  6
CONTINUOUS
 62
     7
 10
-60.420715000000001
 20
92.571425999999988
 30
0.0
 11
-60.900711000000001
 21
92.571425999999988
 31
0.0
  0
LINE
  5
AC
  8
0
  6
CONTINUOUS
 62
     7
 10
-59.160713000000001
 20
91.311431999999996
 30
0.0
 11
-59.520718000000002
 21
91.311431999999996
 31
0.0
  0
LINE
  5
AD
  8
0
  6
CONTINUOUS
 62
     7
 10
-59.160713000000001
 20
90.831429
 30
0.0
 11
-59.520718000000002
 21
90.831429
 31
0.0
  0
LINE
  5
AE
  8
0
  6
CONTINUOUS
 62
     7
 10
-60.420715000000001
 20
89.571426000000002
 30
0.0
 11
-60.900711000000001
 21
89.571426000000002
 31
0.0
  0
LINE
  5
AF
  8
0
  6
CONTINUOUS
 62
     7
 10
-60.420715000000001
 20
92.571425999999988
 30
0.0
 11
-60.420715000000001
 21
92.211432999999985
 31
0.0
  0
LINE
  5
B0
  8
0
  6
CONTINUOUS
 62
     7
 10
-60.900711000000001
 20
92.571425999999988
 30
0.0
 11
-60.900711000000001
 21
92.211432999999985
 31
0.0
  0
LINE
  5
B1
  8
0
  6
CONTINUOUS
 62
     7
 10
-62.160713000000001
 20
91.311431999999996
 30
0.0
 11
-62.160713000000001
 21
90.831429
 31
0.0
  0
LINE
  5
B2
  8
0
  6
CONTINUOUS
 62
     7
 10
-59.160713000000001
 20
91.311431999999996
 30
0.0
 11
-59.160713000000001
 21
90.831429
 31
0.0
  0
LINE
  5
B3
  8
0
  6
CONTINUOUS
 62
     7
 10
-61.800708999999998
 20
90.831429
 30
0.0
 11
-62.160713000000001
 21
90.831429
 31
0.0
  0
LINE
  5
B4
  8
0
  6
CONTINUOUS
 62
     7
 10
-60.420715000000001
 20
89.931426999999985
 30
0.0
 11
-60.420715000000001
 21
89.571426000000002
 31
0.0
  0
LINE
  5
B5
  8
0
  6
CONTINUOUS
 62
     7
 10
-60.900711000000001
 20
89.931426999999985
 30
0.0
 11
-60.900711000000001
 21
89.571426000000002
 31
0.0
  0
LINE
  5
B6
  8
0
  6
CONTINUOUS
 62
     7
 10
-61.800708999999998
 20
91.311431999999996
 30
0.0
 11
-62.160713000000001
 21
91.311431999999996
 31
0.0
  0
LINE
  5
B7
  8
0
  6
CENTER
 62
     7
 10
-60.660713000000001
 20
93.471428000000003
 30
0.0
 11
-60.660713000000001
 21
88.671424999999985
 31
0.0
  0
LINE
  5
B8
  8
0
  6
CENTER
 62
     7
 10
-63.060715000000002
 20
91.071426000000017
 30
0.0
 11
-58.260711999999998
 21
91.071426000000017
 31
0.0
  0
LINE
  5
B9
  8
0
  6
CONTINUOUS
 62
     7
 10
-122.4207199999999
 20
92.571425999999988
 30
0.0
 11
-122.90071
 21
92.571425999999988
 31
0.0
  0
LINE
  5
BA
  8
0
  6
CONTINUOUS
 62
     7
 10
-121.16070999999999
 20
91.311431999999996
 30
0.0
 11
-121.52070999999999
 21
91.311431999999996
 31
0.0
  0
LINE
  5
BB
  8
0
  6
CONTINUOUS
 62
     7
 10
-121.16070999999999
 20
90.831429
 30
0.0
 11
-121.52070999999999
 21
90.831429
 31
0.0
  0
LINE
  5
BC
  8
0
  6
CONTINUOUS
 62
     7
 10
-122.4207199999999
 20
89.571426000000002
 30
0.0
 11
-122.90071
 21
89.571426000000002
 31
0.0
  0
LINE
  5
BD
  8
0
  6
CONTINUOUS
 62
     7
 10
-122.4207199999999
 20
92.571425999999988
 30
0.0
 11
-122.4207199999999
 21
92.211432999999985
 31
0.0
  0
LINE
  5
BE
  8
0
  6
CONTINUOUS
 62
     7
 10
-122.90071
 20
92.571425999999988
 30
0.0
 11
-122.90071
 21
92.211432999999985
 31
0.0
  0
LINE
  5
BF
  8
0
  6
CONTINUOUS
 62
     7
 10
-124.16070999999999
 20
91.311431999999996
 30
0.0
 11
-124.16070999999999
 21
90.831429
 31
0.0
  0
LINE
  5
C0
  8
0
  6
CONTINUOUS
 62
     7
 10
-121.16070999999999
 20
91.311431999999996
 30
0.0
 11
-121.16070999999999
 21
90.831429
 31
0.0
  0
LINE
  5
C1
  8
0
  6
CONTINUOUS
 62
     7
 10
-123.80071
 20
90.831429
 30
0.0
 11
-124.16070999999999
 21
90.831429
 31
0.0
  0
LINE
  5
C2
  8
0
  6
CONTINUOUS
 62
     7
 10
-122.4207199999999
 20
89.931426999999985
 30
0.0
 11
-122.4207199999999
 21
89.571426000000002
 31
0.0
  0
LINE
  5
C3
  8
0
  6
CONTINUOUS
 62
     7
 10
-122.90071
 20
89.931426999999985
 30
0.0
 11
-122.90071
 21
89.571426000000002
 31
0.0
  0
LINE
  5
C4
  8
0
  6
CONTINUOUS
 62
     7
 10
-123.80071
 20
91.311431999999996
 30
0.0
 11
-124.16070999999999
 21
91.311431999999996
 31
0.0
  0
LINE
  5
C5
  8
0
  6
CENTER
 62
     7
 10
-122.66070999999999
 20
93.471428000000003
 30
0.0
 11
-122.66070999999999
 21
88.671424999999985
 31
0.0
  0
LINE
  5
C6
  8
0
  6
CENTER
 62
     7
 10
-125.06071
 20
91.071426000000017
 30
0.0
 11
-120.26071
 21
91.071426000000017
 31
0.0
  0
ARC
  5
C7
  8
0
  6
CONTINUOUS
 62
     7
 10
-55.660713000000001
 20
5.1785712000000004
 30
0.0
 40
1.5
 50
90.000003000000007
 51
180.00001
  0
ARC
  5
C8
  8
0
  6
CONTINUOUS
 62
     7
 10
-151.66071999999991
 20
5.1785712000000004
 30
0.0
 40
1.5
 50
0.0
 51
90.000003000000007
  0
ARC
  5
C9
  8
0
  6
CONTINUOUS
 62
     7
 10
-150.16072
 20
-20.321428000000001
 30
0.0
 40
1.5
 50
179.99998999999991
 51
270.0
  0
ARC
  5
CA
  8
0
  6
CONTINUOUS
 62
     7
 10
-57.160713000000001
 20
-20.321428000000001
 30
0.0
 40
1.5
 50
270.0
 51
0.0
  0
ARC
  5
CB
  8
0
  6
CONTINUOUS
 62
     7
 10
-98.010711999999998
 20
-21.821428000000001
 30
0.0
 40
1.5
 50
0.0
 51
90.000003000000007
  0
ARC
  5
CC
  8
0
  6
CONTINUOUS
 62
     7
 10
-77.310715000000002
 20
-21.821428000000001
 30
0.0
 40
1.5
 50
90.000003000000007
 51
180.00001
  0
ARC
  5
CD
  8
0
  6
CONTINUOUS
 62
     7
 10
-141.66072
 20
16.178571999999988
 30
0.0
 40
3.0
 50
90.000003000000007
 51
180.00001
  0
ARC
  5
CE
  8
0
  6
CONTINUOUS
 62
     7
 10
-137.66072
 20
16.178571999999988
 30
0.0
 40
3.0
 50
0.0
 51
90.000003000000007
  0
ARC
  5
CF
  8
0
  6
CONTINUOUS
 62
     7
 10
40.625
 20
16.178571999999988
 30
0.0
 40
2.0
 50
45.00000099999999
 51
135.0
  0
ARC
  5
D0
  8
0
  6
CONTINUOUS
 62
     7
 10
47.125
 20
8.2643576000000003
 30
0.0
 40
3.0
 50
0.0
 51
45.00000099999999
  0
ARC
  5
D1
  8
0
  6
CONTINUOUS
 62
     7
 10
34.125
 20
8.2643576000000003
 30
0.0
 40
3.0
 50
135.0
 51
180.00001
  0
CIRCLE
  5
D2
  8
0
  6
CONTINUOUS
 62
     7
 10
40.625
 20
-6.8214287999999987
 30
0.0
 40
2.75
  0
CIRCLE
  5
D3
  8
0
  6
CONTINUOUS
 62
     7
 10
-158.66071999999991
 20
91.071426000000017
 30
0.0
 40
2.25
  0
CIRCLE
  5
D4
  8
0
  6
CONTINUOUS
 62
     7
 10
-158.66071999999991
 20
73.071426000000002
 30
0.0
 40
2.25
  0
CIRCLE
  5
D5
  8
0
  6
CONTINUOUS
 62
     7
 10
-48.660713000000001
 20
73.071426000000002
 30
0.0
 40
2.25
  0
CIRCLE
  5
D6
  8
0
  6
CONTINUOUS
 62
     7
 10
-48.660713000000001
 20
91.071426000000017
 30
0.0
 40
2.25
  0
CIRCLE
  5
D7
  8
0
  6
CONTINUOUS
 62
     7
 10
-48.660713000000001
 20
91.071426000000017
 30
0.0
 40
4.25
  0
CIRCLE
  5
D8
  8
0
  6
CONTINUOUS
 62
     7
 10
-48.660713000000001
 20
73.071426000000002
 30
0.0
 40
4.25
  0
CIRCLE
  5
D9
  8
0
  6
CONTINUOUS
 62
     7
 10
-158.66071999999991
 20
73.071426000000002
 30
0.0
 40
4.25
  0
CIRCLE
  5
DA
  8
0
  6
CONTINUOUS
 62
     7
 10
-158.66071999999991
 20
91.071426000000017
 30
0.0
 40
4.25
  0
ARC
  5
DB
  8
0
  6
CONTINUOUS
 62
     7
 10
-142.66072
 20
89.571426000000002
 30
0.0
 40
3.0
 50
90.000003000000007
 51
180.00001
  0
ARC
  5
DC
  8
0
  6
CONTINUOUS
 62
     7
 10
-136.66072
 20
89.571426000000002
 30
0.0
 40
3.0
 50
0.0
 51
90.000003000000007
  0
ARC
  5
DD
  8
0
  6
CONTINUOUS
 62
     7
 10
-136.66072
 20
74.571426000000002
 30
0.0
 40
3.0
 50
270.0
 51
0.0
  0
ARC
  5
DE
  8
0
  6
CONTINUOUS
 62
     7
 10
-142.66072
 20
74.571426000000002
 30
0.0
 40
3.0
 50
179.99998999999991
 51
270.0
  0
ARC
  5
DF
  8
0
  6
CONTINUOUS
 62
     7
 10
-142.66072
 20
89.571426000000002
 30
0.0
 40
2.0
 50
90.000003000000007
 51
180.00001
  0
ARC
  5
E0
  8
0
  6
CONTINUOUS
 62
     7
 10
-136.66072
 20
89.571426000000002
 30
0.0
 40
2.0
 50
0.0
 51
90.000003000000007
  0
ARC
  5
E1
  8
0
  6
CONTINUOUS
 62
     7
 10
-136.66072
 20
74.571426000000002
 30
0.0
 40
2.0
 50
270.0
 51
0.0
  0
ARC
  5
E2
  8
0
  6
CONTINUOUS
 62
     7
 10
-142.66072
 20
74.571426000000002
 30
0.0
 40
2.0
 50
179.99998999999991
 51
270.0
  0
CIRCLE
  5
E3
  8
0
  6
CONTINUOUS
 62
     7
 10
-48.660713000000001
 20
82.071426000000002
 30
0.0
 40
1.75
  0
CIRCLE
  5
E4
  8
0
  6
CONTINUOUS
 62
     7
 10
-158.66071999999991
 20
82.071426000000002
 30
0.0
 40
1.75
  0
ARC
  5
E5
  8
0
  6
CONTINUOUS
 62
     7
 10
-121.52070999999999
 20
74.211433
 30
0.0
 40
0.8999999800000001
 50
179.99998999999991
 51
270.0
  0
CIRCLE
  5
E6
  8
0
  6
CONTINUOUS
 62
     7
 10
-122.66070999999999
 20
73.071426000000002
 30
0.0
 40
1.8599999
  0
ARC
  5
E7
  8
0
  6
CONTINUOUS
 62
     7
 10
-123.80071
 20
71.931426999999999
 30
0.0
 40
0.8999999800000001
 50
359.99998999999991
 51
89.999995999999996
  0
ARC
  5
E8
  8
0
  6
CONTINUOUS
 62
     7
 10
-123.80071
 20
74.211433
 30
0.0
 40
0.8999999800000001
 50
270.0
 51
0.000008651422
  0
ARC
  5
E9
  8
0
  6
CONTINUOUS
 62
     7
 10
-121.52070999999999
 20
71.931426999999999
 30
0.0
 40
0.8999999800000001
 50
89.999995999999996
 51
180.00001
  0
ARC
  5
EA
  8
0
  6
CONTINUOUS
 62
     7
 10
-59.520718000000002
 20
74.211433
 30
0.0
 40
0.8999999800000001
 50
179.99998999999991
 51
270.0
  0
CIRCLE
  5
EB
  8
0
  6
CONTINUOUS
 62
     7
 10
-60.660713000000001
 20
73.071426000000002
 30
0.0
 40
1.8599999
  0
ARC
  5
EC
  8
0
  6
CONTINUOUS
 62
     7
 10
-61.800708999999998
 20
71.931426999999999
 30
0.0
 40
0.8999999800000001
 50
359.99998999999991
 51
89.999995999999996
  0
ARC
  5
ED
  8
0
  6
CONTINUOUS
 62
     7
 10
-61.800708999999998
 20
74.211433
 30
0.0
 40
0.8999999800000001
 50
270.0
 51
0.000008651422
  0
ARC
  5
EE
  8
0
  6
CONTINUOUS
 62
     7
 10
-59.520718000000002
 20
71.931426999999999
 30
0.0
 40
0.8999999800000001
 50
89.999995999999996
 51
180.00001
  0
ARC
  5
EF
  8
0
  6
CONTINUOUS
 62
     7
 10
-59.520718000000002
 20
92.211432999999985
 30
0.0
 40
0.8999999800000001
 50
179.99998999999991
 51
270.0
  0
CIRCLE
  5
F0
  8
0
  6
CONTINUOUS
 62
     7
 10
-60.660713000000001
 20
91.071426000000017
 30
0.0
 40
1.8599999
  0
ARC
  5
F1
  8
0
  6
CONTINUOUS
 62
     7
 10
-61.800708999999998
 20
89.931426999999985
 30
0.0
 40
0.8999999800000001
 50
359.99998999999991
 51
89.999995999999996
  0
ARC
  5
F2
  8
0
  6
CONTINUOUS
 62
     7
 10
-61.800708999999998
 20
92.211432999999985
 30
0.0
 40
0.8999999800000001
 50
270.0
 51
0.000008651422
  0
ARC
  5
F3
  8
0
  6
CONTINUOUS
 62
     7
 10
-59.520718000000002
 20
89.931426999999985
 30
0.0
 40
0.8999999800000001
 50
89.999995999999996
 51
180.00001
  0
ARC
  5
F4
  8
0
  6
CONTINUOUS
 62
     7
 10
-121.52070999999999
 20
92.211432999999985
 30
0.0
 40
0.8999999800000001
 50
179.99998999999991
 51
270.0
  0
CIRCLE
  5
F5
  8
0
  6
CONTINUOUS
 62
     7
 10
-122.66070999999999
 20
91.071426000000017
 30
0.0
 40
1.8599999
  0
ARC
  5
F6
  8
0
  6
CONTINUOUS
 62
     7
 10
-123.80071
 20
89.931426999999985
 30
0.0
 40
0.8999999800000001
 50
359.99998999999991
 51
89.999995999999996
  0
ARC
  5
F7
  8
0
  6
CONTINUOUS
 62
     7
 10
-123.80071
 20
92.211432999999985
 30
0.0
 40
0.8999999800000001
 50
270.0
 51
0.000008651422
  0
ARC
  5
F8
  8
0
  6
CONTINUOUS
 62
     7
 10
-121.52070999999999
 20
89.931426999999985
 30
0.0
 40
0.8999999800000001
 50
89.999995999999996
 51
180.00001
  0
TEXT
  5
103
  8
0
  6
CONTINUOUS
 62
     7
 10
-33.160713000000001
 20
69.857140000000001
 30
0.0
 40
2.0
  1
5
 50
90.000003000000007
 41
1.071429
  0
LINE
  5
104
  8
0
  6
CONTINUOUS
 62
     7
 10
-32.660713000000001
 20
73.071426000000002
 30
0.0
 11
-32.660713000000001
 21
70.571426000000002
 31
0.0
  0
CIRCLE
  5
105
  8
0
  6
CONTINUOUS
 62
     7
 10
-32.660713000000001
 20
73.071426000000002
 30
0.0
 40
0.3
  0
LINE
  5
106
  8
0
  6
CONTINUOUS
 62
     7
 10
-32.660713000000001
 20
68.071426000000002
 30
0.0
 11
-32.660713000000001
 21
70.571426000000002
 31
0.0
  0
CIRCLE
  5
107
  8
0
  6
CONTINUOUS
 62
     7
 10
-32.660713000000001
 20
68.071426000000002
 30
0.0
 40
0.3
  0
LINE
  5
108
  8
0
  6
CONTINUOUS
 62
     7
 10
-42.660713000000001
 20
73.071426000000002
 30
0.0
 11
-31.460712000000001
 21
73.071426000000002
 31
0.0
  0
LINE
  5
109
  8
0
  6
CONTINUOUS
 62
     7
 10
-42.660713000000001
 20
68.071426000000002
 30
0.0
 11
-31.460712000000001
 21
68.071426000000002
 31
0.0
  0
TEXT
  5
10A
  8
0
  6
CONTINUOUS
 62
     7
 10
-33.160713000000001
 20
80.357140000000001
 30
0.0
 40
2.0
  1
18
 50
90.000003000000007
 41
1.2857145000000001
  0
LINE
  5
10B
  8
0
  6
CONTINUOUS
 62
     7
 10
-32.660713000000001
 20
73.071426000000002
 30
0.0
 11
-32.660713000000001
 21
82.071426000000002
 31
0.0
  0
CIRCLE
  5
10C
  8
0
  6
CONTINUOUS
 62
     7
 10
-32.660713000000001
 20
73.071426000000002
 30
0.0
 40
0.3
  0
LINE
  5
10D
  8
0
  6
CONTINUOUS
 62
     7
 10
-32.660713000000001
 20
91.071426000000017
 30
0.0
 11
-32.660713000000001
 21
82.071426000000002
 31
0.0
  0
CIRCLE
  5
10E
  8
0
  6
CONTINUOUS
 62
     7
 10
-32.660713000000001
 20
91.071426000000017
 30
0.0
 40
0.3
  0
LINE
  5
10F
  8
0
  6
CONTINUOUS
 62
     7
 10
-31.460712000000001
 20
73.071426000000002
 30
0.0
 11
-33.860714000000002
 21
73.071426000000002
 31
0.0
  0
LINE
  5
110
  8
0
  6
CONTINUOUS
 62
     7
 10
-42.660713000000001
 20
91.071426000000017
 30
0.0
 11
-31.460712000000001
 21
91.071426000000017
 31
0.0
  0
TEXT
  5
111
  8
0
  6
CONTINUOUS
 62
     7
 10
-33.160713000000001
 20
92.857140000000001
 30
0.0
 40
2.0
  1
5
 50
90.000003000000007
 41
1.071429
  0
LINE
  5
112
  8
0
  6
CONTINUOUS
 62
     7
 10
-32.660713000000001
 20
91.071426000000017
 30
0.0
 11
-32.660713000000001
 21
93.571426000000017
 31
0.0
  0
CIRCLE
  5
113
  8
0
  6
CONTINUOUS
 62
     7
 10
-32.660713000000001
 20
91.071426000000017
 30
0.0
 40
0.3
  0
LINE
  5
114
  8
0
  6
CONTINUOUS
 62
     7
 10
-32.660713000000001
 20
96.071426000000017
 30
0.0
 11
-32.660713000000001
 21
93.571426000000017
 31
0.0
  0
CIRCLE
  5
115
  8
0
  6
CONTINUOUS
 62
     7
 10
-32.660713000000001
 20
96.071426000000017
 30
0.0
 40
0.3
  0
LINE
  5
116
  8
0
  6
CONTINUOUS
 62
     7
 10
-43.660713000000001
 20
91.071426000000017
 30
0.0
 11
-31.460712000000001
 21
91.071426000000017
 31
0.0
  0
LINE
  5
117
  8
0
  6
CONTINUOUS
 62
     7
 10
-42.660713000000001
 20
96.071426000000017
 30
0.0
 11
-31.460712000000001
 21
96.071426000000017
 31
0.0
  0
TEXT
  5
118
  8
0
  6
CONTINUOUS
 62
     7
 10
-28.160713000000001
 20
80.357140000000001
 30
0.0
 40
2.0
  1
28
 50
90.000003000000007
 41
1.0285716
  0
LINE
  5
119
  8
0
  6
CONTINUOUS
 62
     7
 10
-27.660713000000001
 20
68.071426000000002
 30
0.0
 11
-27.660713000000001
 21
82.071426000000002
 31
0.0
  0
CIRCLE
  5
11A
  8
0
  6
CONTINUOUS
 62
     7
 10
-27.660713000000001
 20
68.071426000000002
 30
0.0
 40
0.3
  0
LINE
  5
11B
  8
0
  6
CONTINUOUS
 62
     7
 10
-27.660713000000001
 20
96.071426000000017
 30
0.0
 11
-27.660713000000001
 21
82.071426000000002
 31
0.0
  0
CIRCLE
  5
11C
  8
0
  6
CONTINUOUS
 62
     7
 10
-27.660713000000001
 20
96.071426000000017
 30
0.0
 40
0.3
  0
LINE
  5
11D
  8
0
  6
CONTINUOUS
 62
     7
 10
-42.660713000000001
 20
68.071426000000002
 30
0.0
 11
-26.460712000000001
 21
68.071426000000002
 31
0.0
  0
LINE
  5
11E
  8
0
  6
CONTINUOUS
 62
     7
 10
-42.660713000000001
 20
96.071426000000017
 30
0.0
 11
-26.460712000000001
 21
96.071426000000017
 31
0.0
  0
TEXT
  5
11F
  8
0
  6
CONTINUOUS
 62
     7
 10
-46.374999000000003
 20
58.571426000000002
 30
0.0
 40
2.0
  1
6
 41
1.071429
  0
LINE
  5
120
  8
0
  6
CONTINUOUS
 62
     7
 10
-48.660713000000001
 20
58.071426000000002
 30
0.0
 11
-45.660712999999987
 21
58.071426000000002
 31
0.0
  0
CIRCLE
  5
121
  8
0
  6
CONTINUOUS
 62
     7
 10
-48.660713000000001
 20
58.071426000000002
 30
0.0
 40
0.3
  0
LINE
  5
122
  8
0
  6
CONTINUOUS
 62
     7
 10
-42.660713000000001
 20
58.071426000000002
 30
0.0
 11
-45.660712999999987
 21
58.071426000000002
 31
0.0
  0
CIRCLE
  5
123
  8
0
  6
CONTINUOUS
 62
     7
 10
-42.660713000000001
 20
58.071426000000002
 30
0.0
 40
0.3
  0
LINE
  5
124
  8
0
  6
CONTINUOUS
 62
     7
 10
-48.660713000000001
 20
68.071426000000002
 30
0.0
 11
-48.660713000000001
 21
56.871426
 31
0.0
  0
LINE
  5
125
  8
0
  6
CONTINUOUS
 62
     7
 10
-42.660713000000001
 20
68.071426000000002
 30
0.0
 11
-42.660713000000001
 21
56.871426
 31
0.0
  0
TEXT
  5
126
  8
0
  6
CONTINUOUS
 62
     7
 10
-69.874999000000003
 20
58.571426000000002
 30
0.0
 40
2.0
  1
39
 41
1.0285716
  0
LINE
  5
127
  8
0
  6
CONTINUOUS
 62
     7
 10
-87.660713000000001
 20
58.071426000000002
 30
0.0
 11
-68.160713000000001
 21
58.071426000000002
 31
0.0
  0
CIRCLE
  5
128
  8
0
  6
CONTINUOUS
 62
     7
 10
-87.660713000000001
 20
58.071426000000002
 30
0.0
 40
0.3
  0
LINE
  5
129
  8
0
  6
CONTINUOUS
 62
     7
 10
-48.660713000000001
 20
58.071426000000002
 30
0.0
 11
-68.160713000000001
 21
58.071426000000002
 31
0.0
  0
CIRCLE
  5
12A
  8
0
  6
CONTINUOUS
 62
     7
 10
-48.660713000000001
 20
58.071426000000002
 30
0.0
 40
0.3
  0
LINE
  5
12B
  8
0
  6
CONTINUOUS
 62
     7
 10
-87.660713000000001
 20
65.071426000000002
 30
0.0
 11
-87.660713000000001
 21
56.871426
 31
0.0
  0
TEXT
  5
12C
  8
0
  6
CONTINUOUS
 62
     7
 10
-115.37501
 20
58.571426000000002
 30
0.0
 40
2.0
  1
52
 41
1.0285716
  0
LINE
  5
12D
  8
0
  6
CONTINUOUS
 62
     7
 10
-87.660713000000001
 20
58.071426000000002
 30
0.0
 11
-113.66072
 21
58.071426000000002
 31
0.0
  0
CIRCLE
  5
12E
  8
0
  6
CONTINUOUS
 62
     7
 10
-87.660713000000001
 20
58.071426000000002
 30
0.0
 40
0.3
  0
LINE
  5
12F
  8
0
  6
CONTINUOUS
 62
     7
 10
-139.66072
 20
58.071426000000002
 30
0.0
 11
-113.66072
 21
58.071426000000002
 31
0.0
  0
CIRCLE
  5
130
  8
0
  6
CONTINUOUS
 62
     7
 10
-139.66072
 20
58.071426000000002
 30
0.0
 40
0.3
  0
LINE
  5
131
  8
0
  6
CONTINUOUS
 62
     7
 10
-139.66072
 20
65.071426000000002
 30
0.0
 11
-139.66072
 21
56.871426
 31
0.0
  0
TEXT
  5
132
  8
0
  6
CONTINUOUS
 62
     7
 10
-150.87501
 20
58.571426000000002
 30
0.0
 40
2.0
  1
19
 41
1.2857145000000001
  0
LINE
  5
133
  8
0
  6
CONTINUOUS
 62
     7
 10
-158.66071999999991
 20
58.071426000000002
 30
0.0
 11
-149.16071999999991
 21
58.071426000000002
 31
0.0
  0
CIRCLE
  5
134
  8
0
  6
CONTINUOUS
 62
     7
 10
-158.66071999999991
 20
58.071426000000002
 30
0.0
 40
0.3
  0
LINE
  5
135
  8
0
  6
CONTINUOUS
 62
     7
 10
-139.66072
 20
58.071426000000002
 30
0.0
 11
-149.16071999999991
 21
58.071426000000002
 31
0.0
  0
CIRCLE
  5
136
  8
0
  6
CONTINUOUS
 62
     7
 10
-139.66072
 20
58.071426000000002
 30
0.0
 40
0.3
  0
LINE
  5
137
  8
0
  6
CONTINUOUS
 62
     7
 10
-158.66071999999991
 20
68.071426000000002
 30
0.0
 11
-158.66071999999991
 21
56.871426
 31
0.0
  0
TEXT
  5
138
  8
0
  6
CONTINUOUS
 62
     7
 10
-162.37501
 20
58.571426000000002
 30
0.0
 40
2.0
  1
6
 41
1.071429
  0
LINE
  5
139
  8
0
  6
CONTINUOUS
 62
     7
 10
-164.66072
 20
58.071426000000002
 30
0.0
 11
-161.66071999999991
 21
58.071426000000002
 31
0.0
  0
CIRCLE
  5
13A
  8
0
  6
CONTINUOUS
 62
     7
 10
-164.66072
 20
58.071426000000002
 30
0.0
 40
0.3
  0
LINE
  5
13B
  8
0
  6
CONTINUOUS
 62
     7
 10
-158.66071999999991
 20
58.071426000000002
 30
0.0
 11
-161.66071999999991
 21
58.071426000000002
 31
0.0
  0
CIRCLE
  5
13C
  8
0
  6
CONTINUOUS
 62
     7
 10
-158.66071999999991
 20
58.071426000000002
 30
0.0
 40
0.3
  0
LINE
  5
13D
  8
0
  6
CONTINUOUS
 62
     7
 10
-164.66072
 20
68.071426000000002
 30
0.0
 11
-164.66072
 21
56.871426
 31
0.0
  0
TEXT
  5
13E
  8
0
  6
CONTINUOUS
 62
     7
 10
-120.37501
 20
53.571426000000002
 30
0.0
 40
2.0
  1
１２２（切欠１２２．２×２８．２）
 41
0.84273711
  0
LINE
  5
13F
  8
0
  6
CONTINUOUS
 62
     7
 10
-164.66072
 20
53.071426000000002
 30
0.0
 11
-103.6607199999999
 21
53.071426000000002
 31
0.0
  0
CIRCLE
  5
140
  8
0
  6
CONTINUOUS
 62
     7
 10
-164.66072
 20
53.071426000000002
 30
0.0
 40
0.3
  0
LINE
  5
141
  8
0
  6
CONTINUOUS
 62
     7
 10
-42.660713000000001
 20
53.071426000000002
 30
0.0
 11
-103.6607199999999
 21
53.071426000000002
 31
0.0
  0
CIRCLE
  5
142
  8
0
  6
CONTINUOUS
 62
     7
 10
-42.660713000000001
 20
53.071426000000002
 30
0.0
 40
0.3
  0
LINE
  5
143
  8
0
  6
CONTINUOUS
 62
     7
 10
-164.66072
 20
68.071426000000002
 30
0.0
 11
-164.66072
 21
51.871426
 31
0.0
  0
LINE
  5
144
  8
0
  6
CONTINUOUS
 62
     7
 10
-42.660713000000001
 20
68.071426000000002
 30
0.0
 11
-42.660713000000001
 21
51.871426
 31
0.0
  0
TEXT
  5
145
  8
0
  6
CONTINUOUS
 62
     7
 10
-33.160713000000001
 20
5.9642856000000002
 30
0.0
 40
2.0
  1
3
 50
90.000003000000007
 41
1.071429
  0
LINE
  5
146
  8
0
  6
CONTINUOUS
 62
     7
 10
-32.660713000000001
 20
5.1785712000000004
 30
0.0
 11
-32.660713000000001
 21
6.6785714999999994
 31
0.0
  0
CIRCLE
  5
147
  8
0
  6
CONTINUOUS
 62
     7
 10
-32.660713000000001
 20
5.1785712000000004
 30
0.0
 40
0.3
  0
LINE
  5
148
  8
0
  6
CONTINUOUS
 62
     7
 10
-32.660713000000001
 20
8.1785717000000009
 30
0.0
 11
-32.660713000000001
 21
6.6785714999999994
 31
0.0
  0
CIRCLE
  5
149
  8
0
  6
CONTINUOUS
 62
     7
 10
-32.660713000000001
 20
8.1785717000000009
 30
0.0
 40
0.3
  0
LINE
  5
14A
  8
0
  6
CONTINUOUS
 62
     7
 10
-42.660713000000001
 20
5.1785712000000004
 30
0.0
 11
-31.460712000000001
 21
5.1785712000000004
 31
0.0
  0
LINE
  5
14B
  8
0
  6
CONTINUOUS
 62
     7
 10
-42.660713000000001
 20
8.1785717000000009
 30
0.0
 11
-31.460712000000001
 21
8.1785717000000009
 31
0.0
  0
TEXT
  5
14C
  8
0
  6
CONTINUOUS
 62
     7
 10
-28.160713000000001
 20
-8.5357143999999998
 30
0.0
 40
2.0
  1
30
 50
90.000003000000007
 41
1.102041
  0
LINE
  5
14D
  8
0
  6
CONTINUOUS
 62
     7
 10
-27.660713000000001
 20
-21.821428000000001
 30
0.0
 11
-27.660713000000001
 21
-6.8214283
 31
0.0
  0
CIRCLE
  5
14E
  8
0
  6
CONTINUOUS
 62
     7
 10
-27.660713000000001
 20
-21.821428000000001
 30
0.0
 40
0.3
  0
LINE
  5
14F
  8
0
  6
CONTINUOUS
 62
     7
 10
-27.660713000000001
 20
8.1785717000000009
 30
0.0
 11
-27.660713000000001
 21
-6.8214283
 31
0.0
  0
CIRCLE
  5
150
  8
0
  6
CONTINUOUS
 62
     7
 10
-27.660713000000001
 20
8.1785717000000009
 30
0.0
 40
0.3
  0
LINE
  5
151
  8
0
  6
CONTINUOUS
 62
     7
 10
-55.660713000000001
 20
-21.821428000000001
 30
0.0
 11
-26.460712000000001
 21
-21.821428000000001
 31
0.0
  0
TEXT
  5
152
  8
0
  6
CONTINUOUS
 62
     7
 10
-23.160713000000001
 20
-16.035715
 30
0.0
 40
2.0
  1
45
 50
90.000003000000007
 41
1.0285716
  0
LINE
  5
153
  8
0
  6
CONTINUOUS
 62
     7
 10
-22.660713000000001
 20
-36.821429999999992
 30
0.0
 11
-22.660713000000001
 21
-14.321429
 31
0.0
  0
CIRCLE
  5
154
  8
0
  6
CONTINUOUS
 62
     7
 10
-22.660713000000001
 20
-36.821429999999992
 30
0.0
 40
0.3
  0
LINE
  5
155
  8
0
  6
CONTINUOUS
 62
     7
 10
-22.660713000000001
 20
8.1785717000000009
 30
0.0
 11
-22.660713000000001
 21
-14.321429
 31
0.0
  0
CIRCLE
  5
156
  8
0
  6
CONTINUOUS
 62
     7
 10
-22.660713000000001
 20
8.1785717000000009
 30
0.0
 40
0.3
  0
LINE
  5
157
  8
0
  6
CONTINUOUS
 62
     7
 10
-78.810715000000002
 20
-36.821429999999992
 30
0.0
 11
-21.460712000000001
 21
-36.821429999999992
 31
0.0
  0
LINE
  5
158
  8
0
  6
CONTINUOUS
 62
     7
 10
-42.660713000000001
 20
8.1785717000000009
 30
0.0
 11
-21.460712000000001
 21
8.1785717000000009
 31
0.0
  0
TEXT
  5
159
  8
0
  6
CONTINUOUS
 62
     7
 10
-73.374999000000003
 20
-46.321429999999999
 30
0.0
 40
2.0
  1
32
 41
1.0285716
  0
LINE
  5
15A
  8
0
  6
CONTINUOUS
 62
     7
 10
-87.660713000000001
 20
-46.821429999999992
 30
0.0
 11
-71.660713000000001
 21
-46.821429999999992
 31
0.0
  0
CIRCLE
  5
15B
  8
0
  6
CONTINUOUS
 62
     7
 10
-87.660713000000001
 20
-46.821429999999992
 30
0.0
 40
0.3
  0
LINE
  5
15C
  8
0
  6
CONTINUOUS
 62
     7
 10
-55.660713000000001
 20
-46.821429999999992
 30
0.0
 11
-71.660713000000001
 21
-46.821429999999992
 31
0.0
  0
CIRCLE
  5
15D
  8
0
  6
CONTINUOUS
 62
     7
 10
-55.660713000000001
 20
-46.821429999999992
 30
0.0
 40
0.3
  0
LINE
  5
15E
  8
0
  6
CONTINUOUS
 62
     7
 10
-87.660713000000001
 20
-41.821429999999992
 30
0.0
 11
-87.660713000000001
 21
-48.021431
 31
0.0
  0
LINE
  5
15F
  8
0
  6
CONTINUOUS
 62
     7
 10
-55.660713000000001
 20
-20.321428000000001
 30
0.0
 11
-55.660713000000001
 21
-48.021431
 31
0.0
  0
TEXT
  5
160
  8
0
  6
CONTINUOUS
 62
     7
 10
-121.37501
 20
-46.321429999999999
 30
0.0
 40
2.0
  1
64
 41
1.0285716
  0
LINE
  5
161
  8
0
  6
CONTINUOUS
 62
     7
 10
-151.66071999999991
 20
-46.821429999999992
 30
0.0
 11
-119.66072
 21
-46.821429999999992
 31
0.0
  0
CIRCLE
  5
162
  8
0
  6
CONTINUOUS
 62
     7
 10
-151.66071999999991
 20
-46.821429999999992
 30
0.0
 40
0.3
  0
LINE
  5
163
  8
0
  6
CONTINUOUS
 62
     7
 10
-87.660713000000001
 20
-46.821429999999992
 30
0.0
 11
-119.66072
 21
-46.821429999999992
 31
0.0
  0
CIRCLE
  5
164
  8
0
  6
CONTINUOUS
 62
     7
 10
-87.660713000000001
 20
-46.821429999999992
 30
0.0
 40
0.3
  0
LINE
  5
165
  8
0
  6
CONTINUOUS
 62
     7
 10
-151.66071999999991
 20
-20.321428000000001
 30
0.0
 11
-151.66071999999991
 21
-48.021431
 31
0.0
  0
TEXT
  5
166
  8
0
  6
CONTINUOUS
 62
     7
 10
-50.874999000000003
 20
-51.321429999999999
 30
0.0
 40
2.0
  1
13
 41
1.2857145000000001
  0
LINE
  5
167
  8
0
  6
CONTINUOUS
 62
     7
 10
-55.660713000000001
 20
-51.821429999999992
 30
0.0
 11
-49.160713000000001
 21
-51.821429999999992
 31
0.0
  0
CIRCLE
  5
168
  8
0
  6
CONTINUOUS
 62
     7
 10
-55.660713000000001
 20
-51.821429999999992
 30
0.0
 40
0.3
  0
LINE
  5
169
  8
0
  6
CONTINUOUS
 62
     7
 10
-42.660713000000001
 20
-51.821429999999992
 30
0.0
 11
-49.160713000000001
 21
-51.821429999999992
 31
0.0
  0
CIRCLE
  5
16A
  8
0
  6
CONTINUOUS
 62
     7
 10
-42.660713000000001
 20
-51.821429999999992
 30
0.0
 40
0.3
  0
LINE
  5
16B
  8
0
  6
CONTINUOUS
 62
     7
 10
-55.660713000000001
 20
-20.321428000000001
 30
0.0
 11
-55.660713000000001
 21
-53.021431000000007
 31
0.0
  0
LINE
  5
16C
  8
0
  6
CONTINUOUS
 62
     7
 10
-42.660713000000001
 20
5.1785712000000004
 30
0.0
 11
-42.660713000000001
 21
-53.021431000000007
 31
0.0
  0
TEXT
  5
16D
  8
0
  6
CONTINUOUS
 62
     7
 10
-121.37501
 20
-51.321429999999999
 30
0.0
 40
2.0
  1
９６（補強板切欠９６．２×２８．２）
 41
0.8426012099999999
  0
LINE
  5
16E
  8
0
  6
CONTINUOUS
 62
     7
 10
-55.660713000000001
 20
-51.821429999999992
 30
0.0
 11
-103.6607199999999
 21
-51.821429999999992
 31
0.0
  0
CIRCLE
  5
16F
  8
0
  6
CONTINUOUS
 62
     7
 10
-55.660713000000001
 20
-51.821429999999992
 30
0.0
 40
0.3
  0
LINE
  5
170
  8
0
  6
CONTINUOUS
 62
     7
 10
-151.66071999999991
 20
-51.821429999999992
 30
0.0
 11
-103.6607199999999
 21
-51.821429999999992
 31
0.0
  0
CIRCLE
  5
171
  8
0
  6
CONTINUOUS
 62
     7
 10
-151.66071999999991
 20
-51.821429999999992
 30
0.0
 40
0.3
  0
LINE
  5
172
  8
0
  6
CONTINUOUS
 62
     7
 10
-55.660713000000001
 20
-20.321428000000001
 30
0.0
 11
-55.660713000000001
 21
-53.021431000000007
 31
0.0
  0
LINE
  5
173
  8
0
  6
CONTINUOUS
 62
     7
 10
-151.66071999999991
 20
-20.321428000000001
 30
0.0
 11
-151.66071999999991
 21
-53.021431000000007
 31
0.0
  0
TEXT
  5
174
  8
0
  6
CONTINUOUS
 62
     7
 10
-159.87501
 20
-51.321429999999999
 30
0.0
 40
2.0
  1
13
 41
1.2857145000000001
  0
LINE
  5
175
  8
0
  6
CONTINUOUS
 62
     7
 10
-164.66072
 20
-51.821429999999992
 30
0.0
 11
-158.16072
 21
-51.821429999999992
 31
0.0
  0
CIRCLE
  5
176
  8
0
  6
CONTINUOUS
 62
     7
 10
-164.66072
 20
-51.821429999999992
 30
0.0
 40
0.3
  0
LINE
  5
177
  8
0
  6
CONTINUOUS
 62
     7
 10
-151.66071999999991
 20
-51.821429999999992
 30
0.0
 11
-158.16072
 21
-51.821429999999992
 31
0.0
  0
CIRCLE
  5
178
  8
0
  6
CONTINUOUS
 62
     7
 10
-151.66071999999991
 20
-51.821429999999992
 30
0.0
 40
0.3
  0
LINE
  5
179
  8
0
  6
CONTINUOUS
 62
     7
 10
-164.66072
 20
5.1785712000000004
 30
0.0
 11
-164.66072
 21
-53.021431000000007
 31
0.0
  0
TEXT
  5
17A
  8
0
  6
CONTINUOUS
 62
     7
 10
-23.160713000000001
 20
11.964285999999991
 30
0.0
 40
2.0
  1
11
 50
90.000003000000007
 41
1.542857399999999
  0
LINE
  5
17B
  8
0
  6
CONTINUOUS
 62
     7
 10
-22.660713000000001
 20
8.1785717000000009
 30
0.0
 11
-22.660713000000001
 21
13.678572000000001
 31
0.0
  0
CIRCLE
  5
17C
  8
0
  6
CONTINUOUS
 62
     7
 10
-22.660713000000001
 20
8.1785717000000009
 30
0.0
 40
0.3
  0
LINE
  5
17D
  8
0
  6
CONTINUOUS
 62
     7
 10
-22.660713000000001
 20
19.178571999999999
 30
0.0
 11
-22.660713000000001
 21
13.678572000000001
 31
0.0
  0
CIRCLE
  5
17E
  8
0
  6
CONTINUOUS
 62
     7
 10
-22.660713000000001
 20
19.178571999999999
 30
0.0
 40
0.3
  0
LINE
  5
17F
  8
0
  6
CONTINUOUS
 62
     7
 10
-134.66072
 20
19.178571999999999
 30
0.0
 11
-21.460712000000001
 21
19.178571999999999
 31
0.0
  0
TEXT
  5
180
  8
0
  6
CONTINUOUS
 62
     7
 10
-141.37501
 20
29.678571999999988
 30
0.0
 40
2.0
  1
10
 41
1.4025976999999989
  0
LINE
  5
181
  8
0
  6
CONTINUOUS
 62
     7
 10
-144.66072
 20
29.178571999999988
 30
0.0
 11
-139.66072
 21
29.178571999999988
 31
0.0
  0
CIRCLE
  5
182
  8
0
  6
CONTINUOUS
 62
     7
 10
-144.66072
 20
29.178571999999988
 30
0.0
 40
0.3
  0
LINE
  5
183
  8
0
  6
CONTINUOUS
 62
     7
 10
-134.66072
 20
29.178571999999988
 30
0.0
 11
-139.66072
 21
29.178571999999988
 31
0.0
  0
CIRCLE
  5
184
  8
0
  6
CONTINUOUS
 62
     7
 10
-134.66072
 20
29.178571999999988
 30
0.0
 40
0.3
  0
LINE
  5
185
  8
0
  6
CONTINUOUS
 62
     7
 10
-144.66072
 20
16.178571999999988
 30
0.0
 11
-144.66072
 21
30.378571999999991
 31
0.0
  0
LINE
  5
186
  8
0
  6
CONTINUOUS
 62
     7
 10
-134.66072
 20
16.178571999999988
 30
0.0
 11
-134.66072
 21
30.378571999999991
 31
0.0
  0
LINE
  5
187
  8
0
  6
CONTINUOUS
 62
     7
 10
-32.029045000000004
 20
53.217421999999999
 30
0.0
 11
-4.5184602999999992
 21
53.217421999999999
 31
0.0
  0
LINE
  5
188
  8
0
  6
CONTINUOUS
 62
     7
 10
-45.931548999999997
 20
69.813492000000011
 30
0.0
 11
-32.029049000000001
 21
53.217421999999999
 31
0.0
  0
LINE
  5
189
  8
0
  6
CONTINUOUS
 62
     7
 10
-51.389884999999992
 20
76.329360999999992
 30
0.0
 11
-45.931548999999997
 21
69.813492000000011
 31
0.0
  0
CIRCLE
  5
18A
  8
0
  6
CONTINUOUS
 62
     7
 10
-51.389884999999992
 20
76.329360999999992
 30
0.0
 40
0.3
  0
LINE
  5
18B
  8
0
  6
CONTINUOUS
 62
     7
 10
-45.931548999999997
 20
69.813492000000011
 30
0.0
 11
-51.389884999999992
 21
76.329360999999992
 31
0.0
  0
CIRCLE
  5
18C
  8
0
  6
CONTINUOUS
 62
     7
 10
-45.931548999999997
 20
69.813492000000011
 30
0.0
 40
0.3
  0
TEXT
  5
18D
  8
0
  6
CONTINUOUS
 62
     7
 10
-29.947032
 20
53.717421999999992
 30
0.0
 40
2.0
  1
４－%%C４．５×%%C８．５サラ
 41
0.8653098500000001
  0
ENDSEC
  0
EOF
