  0
SECTION
  2
HEADER
  9
$ACADVER
  1
AC1015
  9
$ACADMAINTVER
 70
    20
  9
$DWGCODEPAGE
  3
ANSI_932
  9
$INSBASE
 10
0.0
 20
0.0
 30
0.0
  9
$EXTMIN
 10
344.6839299999999
 20
289.13989
 30
0.0
  9
$EXTMAX
 10
764.6838999999999
 20
586.13989
 30
0.0
  9
$LIMMIN
 10
344.6839
 20
289.13989
  9
$LIMMAX
 10
764.6838999999999
 20
586.13989
  9
$ORTHOMODE
 70
     0
  9
$REGENMODE
 70
     1
  9
$FILLMODE
 70
     1
  9
$QTEXTMODE
 70
     0
  9
$MIRRTEXT
 70
     1
  9
$LTSCALE
 40
1.0
  9
$ATTMODE
 70
     1
  9
$TEXTSIZE
 40
0.2
  9
$TRACEWID
 40
0.05
  9
$TEXTSTYLE
  7
STANDARD
  9
$CLAYER
  8
0
  9
$CELTYPE
  6
CONTINUOUS
  9
$CECOLOR
 62
   256
  9
$CELTSCALE
 40
1.0
  9
$DISPSILH
 70
     0
  9
$DIMSCALE
 40
1.0
  9
$DIMASZ
 40
1.0
  9
$DIMEXO
 40
2.54
  9
$DIMDLI
 40
0.38
  9
$DIMRND
 40
0.0
  9
$DIMDLE
 40
0.0
  9
$DIMEXE
 40
2.54
  9
$DIMTP
 40
0.0
  9
$DIMTM
 40
0.0
  9
$DIMTXT
 40
3.2
  9
$DIMCEN
 40
0.09
  9
$DIMTSZ
 40
0.0
  9
$DIMTOL
 70
     0
  9
$DIMLIM
 70
     0
  9
$DIMTIH
 70
     0
  9
$DIMTOH
 70
     0
  9
$DIMSE1
 70
     0
  9
$DIMSE2
 70
     0
  9
$DIMTAD
 70
     1
  9
$DIMZIN
 70
     0
  9
$DIMBLK
  1

  9
$DIMASO
 70
     1
  9
$DIMSHO
 70
     0
  9
$DIMPOST
  1

  9
$DIMAPOST
  1

  9
$DIMALT
 70
     0
  9
$DIMALTD
 70
     2
  9
$DIMALTF
 40
25.4
  9
$DIMLFAC
 40
1.0
  9
$DIMTOFL
 70
     0
  9
$DIMTVP
 40
1.0
  9
$DIMTIX
 70
     0
  9
$DIMSOXD
 70
     0
  9
$DIMSAH
 70
     1
  9
$DIMBLK1
  1

  9
$DIMBLK2
  1

  9
$DIMSTYLE
  2
STANDARD
  9
$DIMCLRD
 70
     0
  9
$DIMCLRE
 70
     0
  9
$DIMCLRT
 70
     0
  9
$DIMTFAC
 40
1.0
  9
$DIMGAP
 40
1.6
  9
$DIMJUST
 70
     0
  9
$DIMSD1
 70
     0
  9
$DIMSD2
 70
     0
  9
$DIMTOLJ
 70
     1
  9
$DIMTZIN
 70
     0
  9
$DIMALTZ
 70
     0
  9
$DIMALTTZ
 70
     0
  9
$DIMUPT
 70
     0
  9
$DIMDEC
 70
     4
  9
$DIMTDEC
 70
     4
  9
$DIMALTU
 70
     2
  9
$DIMALTTD
 70
     2
  9
$DIMTXSTY
  7
STANDARD
  9
$DIMAUNIT
 70
     0
  9
$DIMADEC
 70
     0
  9
$DIMALTRND
 40
0.0
  9
$DIMAZIN
 70
     0
  9
$DIMDSEP
 70
    46
  9
$DIMATFIT
 70
     3
  9
$DIMFRAC
 70
     0
  9
$DIMLDRBLK
  1

  9
$DIMLUNIT
 70
     2
  9
$DIMLWD
 70
    -2
  9
$DIMLWE
 70
    -2
  9
$DIMTMOVE
 70
     0
  9
$LUNITS
 70
     2
  9
$LUPREC
 70
     4
  9
$SKETCHINC
 40
0.1
  9
$FILLETRAD
 40
0.0
  9
$AUNITS
 70
     0
  9
$AUPREC
 70
     0
  9
$MENU
  1
.
  9
$ELEVATION
 40
0.0
  9
$PELEVATION
 40
0.0
  9
$THICKNESS
 40
0.0
  9
$LIMCHECK
 70
     0
  9
$CHAMFERA
 40
0.0
  9
$CHAMFERB
 40
0.0
  9
$CHAMFERC
 40
0.0
  9
$CHAMFERD
 40
0.0
  9
$SKPOLY
 70
     0
  9
$TDCREATE
 40
2452815.374345209
  9
$TDUCREATE
 40
2452814.999345209
  9
$TDUPDATE
 40
2454597.577499271
  9
$TDUUPDATE
 40
2454597.202499271
  9
$TDINDWG
 40
0.0053130671
  9
$TDUSRTIMER
 40
0.0053127083
  9
$USRTIMER
 70
     1
  9
$ANGBASE
 50
0.0
  9
$ANGDIR
 70
     0
  9
$PDMODE
 70
     0
  9
$PDSIZE
 40
0.0
  9
$PLINEWID
 40
0.0
  9
$SPLFRAME
 70
     0
  9
$SPLINETYPE
 70
     6
  9
$SPLINESEGS
 70
     8
  9
$HANDSEED
  5
633
  9
$SURFTAB1
 70
     6
  9
$SURFTAB2
 70
     6
  9
$SURFTYPE
 70
     6
  9
$SURFU
 70
     6
  9
$SURFV
 70
     6
  9
$UCSBASE
  2

  9
$UCSNAME
  2

  9
$UCSORG
 10
0.0
 20
0.0
 30
0.0
  9
$UCSXDIR
 10
1.0
 20
0.0
 30
0.0
  9
$UCSYDIR
 10
0.0
 20
1.0
 30
0.0
  9
$UCSORTHOREF
  2

  9
$UCSORTHOVIEW
 70
     0
  9
$UCSORGTOP
 10
0.0
 20
0.0
 30
0.0
  9
$UCSORGBOTTOM
 10
0.0
 20
0.0
 30
0.0
  9
$UCSORGLEFT
 10
0.0
 20
0.0
 30
0.0
  9
$UCSORGRIGHT
 10
0.0
 20
0.0
 30
0.0
  9
$UCSORGFRONT
 10
0.0
 20
0.0
 30
0.0
  9
$UCSORGBACK
 10
0.0
 20
0.0
 30
0.0
  9
$PUCSBASE
  2

  9
$PUCSNAME
  2

  9
$PUCSORG
 10
0.0
 20
0.0
 30
0.0
  9
$PUCSXDIR
 10
1.0
 20
0.0
 30
0.0
  9
$PUCSYDIR
 10
0.0
 20
1.0
 30
0.0
  9
$PUCSORTHOREF
  2

  9
$PUCSORTHOVIEW
 70
     0
  9
$PUCSORGTOP
 10
0.0
 20
0.0
 30
0.0
  9
$PUCSORGBOTTOM
 10
0.0
 20
0.0
 30
0.0
  9
$PUCSORGLEFT
 10
0.0
 20
0.0
 30
0.0
  9
$PUCSORGRIGHT
 10
0.0
 20
0.0
 30
0.0
  9
$PUCSORGFRONT
 10
0.0
 20
0.0
 30
0.0
  9
$PUCSORGBACK
 10
0.0
 20
0.0
 30
0.0
  9
$USERI1
 70
     0
  9
$USERI2
 70
     0
  9
$USERI3
 70
     0
  9
$USERI4
 70
     0
  9
$USERI5
 70
     0
  9
$USERR1
 40
0.0
  9
$USERR2
 40
0.0
  9
$USERR3
 40
0.0
  9
$USERR4
 40
0.0
  9
$USERR5
 40
0.0
  9
$WORLDVIEW
 70
     1
  9
$SHADEDGE
 70
     3
  9
$SHADEDIF
 70
    70
  9
$TILEMODE
 70
     1
  9
$MAXACTVP
 70
    64
  9
$PINSBASE
 10
0.0
 20
0.0
 30
0.0
  9
$PLIMCHECK
 70
     0
  9
$PEXTMIN
 10
1.000000000000000E+20
 20
1.000000000000000E+20
 30
1.000000000000000E+20
  9
$PEXTMAX
 10
-1.000000000000000E+20
 20
-1.000000000000000E+20
 30
-1.000000000000000E+20
  9
$PLIMMIN
 10
344.6839
 20
289.13989
  9
$PLIMMAX
 10
764.6838999999999
 20
586.13989
  9
$UNITMODE
 70
     0
  9
$VISRETAIN
 70
     1
  9
$PLINEGEN
 70
     0
  9
$PSLTSCALE
 70
     1
  9
$TREEDEPTH
 70
  3020
  9
$CMLSTYLE
  2
Standard
  9
$CMLJUST
 70
     0
  9
$CMLSCALE
 40
1.0
  9
$PROXYGRAPHICS
 70
     1
  9
$MEASUREMENT
 70
     0
  9
$CELWEIGHT
370
    -1
  9
$ENDCAPS
280
     0
  9
$JOINSTYLE
280
     0
  9
$LWDISPLAY
290
     0
  9
$INSUNITS
 70
     0
  9
$HYPERLINKBASE
  1

  9
$STYLESHEET
  1

  9
$XEDIT
290
     1
  9
$CEPSNTYPE
380
     0
  9
$PSTYLEMODE
290
     1
  9
$FINGERPRINTGUID
  2
{0E3B8D14-E19D-4561-8F35-0428B59C7A1D}
  9
$VERSIONGUID
  2
{8FF37E6E-4C90-4EDF-B10B-B2C732B2CEC5}
  9
$EXTNAMES
290
     1
  9
$PSVPSCALE
 40
0.0
  9
$OLESTARTUP
290
     0
  0
ENDSEC
  0
SECTION
  2
CLASSES
  0
CLASS
  1
ACDBDICTIONARYWDFLT
  2
AcDbDictionaryWithDefault
  3
ObjectDBX Classes
 90
        0
280
     0
281
     0
  0
CLASS
  1
MATERIAL
  2
AcDbMaterial
  3
ObjectDBX Classes
 90
     1153
280
     0
281
     0
  0
CLASS
  1
VISUALSTYLE
  2
AcDbVisualStyle
  3
ObjectDBX Classes
 90
     4095
280
     0
281
     0
  0
CLASS
  1
TABLESTYLE
  2
AcDbTableStyle
  3
ObjectDBX Classes
 90
     4095
280
     0
281
     0
  0
CLASS
  1
AMGSETTINGSOBJ
  2
AmgSettingsObj
  3
"AcadM|Product Description: AutoCAD Mechanical|Company: Autodesk"
 90
        0
280
     0
281
     0
  0
CLASS
  1
ACME_DOCUMENT
  2
AcMeDbDoc
  3
AcMeServices
 90
        0
280
     0
281
     0
  0
CLASS
  1
ACMESCOPE
  2
AcMeScope
  3
AcMeServices
 90
        0
280
     0
281
     0
  0
CLASS
  1
ACMECOMMANDHISTORY
  2
AcMeCommandHistory
  3
AcMeServices
 90
        0
280
     0
281
     0
  0
CLASS
  1
ACIMSYSVARMAN
  2
AcImSysVarManager
  3
AcMeServices
 90
        0
280
     0
281
     0
  0
CLASS
  1
ACIMINTSYSVAR
  2
AcImIntSysVar
  3
AcMeServices
 90
        0
280
     0
281
     0
  0
CLASS
  1
ACMEDRAWINGMAN
  2
AcMeDrawingMan
  3
AcMeServices
 90
        0
280
     0
281
     0
  0
CLASS
  1
ACMEVIEW
  2
AcMeView
  3
AcMeServices
 90
        0
280
     0
281
     0
  0
CLASS
  1
ACDBENTITYCACHE
  2
AcMeEntityCache
  3
AcMeServices
 90
        0
280
     0
281
     0
  0
CLASS
  1
GSMANAGER
  2
AcMeGSManager
  3
AcMeServices
 90
        0
280
     0
281
     0
  0
CLASS
  1
AMDTINTERNALREACTOR
  2
AmdtInternalReactor
  3
AcMeServices
 90
        0
280
     0
281
     0
  0
CLASS
  1
ACMESTATEMGR
  2
AcMeStateMgr
  3
AcMeServices
 90
        0
280
     0
281
     0
  0
CLASS
  1
ACGREFMASTER
  2
AcGrefMaster
  3
AcAttribServices
 90
        0
280
     0
281
     0
  0
CLASS
  1
AM_DRAWING_MGR
  2
AcDmDwgMgr
  3
AcMechDwgViewMgmt
 90
        0
280
     0
281
     0
  0
CLASS
  1
AM_DWG_DOCUMENT
  2
AcDmDwgDocument
  3
AcMechDwgViewMgmt
 90
        0
280
     0
281
     0
  0
CLASS
  1
AM_DWG_SHEET
  2
AcDmSheet
  3
AcMechDwgViewMgmt
 90
        0
280
     0
281
     0
  0
CLASS
  1
AM_VIEWDIMPARMAP
  2
AcDmViewDimParMap
  3
AcMechDwgViewMgmt
 90
        0
280
     0
281
     0
  0
CLASS
  1
ACIMREALSYSVAR
  2
AcImRealSysVar
  3
AcMeServices
 90
        0
280
     0
281
     0
  0
CLASS
  1
AM_DWGMGR_NAME
  2
AcDmDwgMgrName
  3
AcMechDwgViewMgmt
 90
        0
280
     0
281
     0
  0
CLASS
  1
ACME_DATABASE
  2
AcMeDbDatabase
  3
AcMeServices
 90
        0
280
     0
281
     0
  0
CLASS
  1
ACRFINSADJUSTERMGR
  2
AcRfInsAdjusterMgr
  3
AcMeServices
 90
        0
280
     0
281
     0
  0
CLASS
  1
ACGREFACADMASTER
  2
AcGrefacadMaster
  3
AcGrefServices
 90
        0
280
     0
281
     0
  0
CLASS
  1
AMDTMENUSTATEMGR
  2
AmdtMenuStateMgr
  3
McadcomServices
 90
        0
280
     0
281
     0
  0
CLASS
  1
AMDTMCOMMENUSTATE
  2
AmdtMcomMenuState
  3
McadcomServices
 90
        0
280
     0
281
     0
  0
CLASS
  1
AMIMASTER
  2
AmiMaster
  3
AmiServices
 90
        0
280
     0
281
     0
  0
CLASS
  1
MAPIAMMOUDLE
  2
MApiAmModule
  3
MApiAmServices
 90
        0
280
     0
281
     0
  0
CLASS
  1
ACIMSTRSYSVAR
  2
AcImStrSysVar
  3
AcMeServices
 90
        0
280
     0
281
     0
  0
CLASS
  1
AMDTADMENUSTATE
  2
AmdtAdMenuState
  3
DesignerServices
 90
        0
280
     0
281
     0
  0
CLASS
  1
ADAPPL
  2
AcAdAppl
  3
DesignerServices
 90
        0
280
     0
281
     0
  0
CLASS
  1
DEPMGR
  2
AcAdDepMgr
  3
DesignerServices
 90
        0
280
     0
281
     0
  0
CLASS
  1
PARAMMGR
  2
AcAdParamMgr
  3
DesignerServices
 90
        0
280
     0
281
     0
  0
CLASS
  1
PARAMSCOPE
  2
AcAdParamScope
  3
DesignerServices
 90
        0
280
     0
281
     0
  0
CLASS
  1
NAMEDAPPL
  2
AcAdNamedAppl
  3
DesignerServices
 90
        0
280
     0
281
     0
  0
CLASS
  1
AMDTDMMENUSTATE
  2
AmdtDmMenuState
  3
AcMechDwgViewMgmt
 90
        0
280
     0
281
     0
  0
CLASS
  1
AMDTAMMENUSTATE
  2
AmdtAmMenuState
  3
DesignerAssemblies
 90
        0
280
     0
281
     0
  0
CLASS
  1
ACAMPROJECT
  2
AcAmProject
  3
DesignerAssemblies
 90
        0
280
     0
281
     0
  0
CLASS
  1
ACAMGRCOMPDEF
  2
AcAmGrCompDef
  3
DesignerAssemblies
 90
        0
280
     0
281
     0
  0
CLASS
  1
ACCMCONTEXT
  2
AcCmContext
  3
DesignerAssemblies
 90
        0
280
     0
281
     0
  0
CLASS
  1
ACAMCOMPDEF
  2
AcAmCompDef
  3
DesignerAssemblies
 90
        0
280
     0
281
     0
  0
CLASS
  1
ACAMCOMPDEFMGR
  2
AcAmCompDefMgr
  3
DesignerAssemblies
 90
        0
280
     0
281
     0
  0
CLASS
  1
AMCONTEXTMGR
  2
AcAmContextMgr
  3
DesignerAssemblies
 90
        0
280
     0
281
     0
  0
CLASS
  1
ACAMCONTEXTMODELER
  2
AcAmContextModeler
  3
DesignerAssemblies
 90
        0
280
     0
281
     0
  0
CLASS
  1
ACMDATADICTIONARY
  2
AcmDataDictionary
  3
"AcmSymBB|Product Description: AutoCAD Mechanical|Company: Autodesk"
 90
        0
280
     0
281
     0
  0
CLASS
  1
CATALOGSTATE
  2
AcAmCatalogState
  3
DesignerAssemblies
 90
        0
280
     0
281
     0
  0
CLASS
  1
ACAMGRCOMPDEFSET
  2
AcAmGrCompDefSet
  3
DesignerAssemblies
 90
        0
280
     0
281
     0
  0
CLASS
  1
AMDTBROWSERDBTAB
  2
AmdtBrowserDbTab
  3
McadcomServices
 90
        0
280
     0
281
     0
  0
CLASS
  1
CBROWSERAPPOBJECT
  2
CBrowserAppObject
  3
McadcomServices
 90
        0
280
     0
281
     0
  0
CLASS
  1
DM_PLACEHOLDER
  2
AcDmSelsetPlaceholder
  3
AcMechDwgViewMgmt
 90
        0
280
     0
281
     0
  0
CLASS
  1
ACMSTANDARDANSI
  2
AcmStandardANSI
  3
"Amdt_StdImp|Product Description: AutoCAD Mechanical|Company: Autodesk"
 90
        0
280
     0
281
     0
  0
CLASS
  1
AMGOBJPROPCFG
  2
AmgObjPropCfg
  3
"AmgLay|Product Description: AutoCAD Mechanical|Company: Autodesk"
 90
        1
280
     0
281
     0
  0
CLASS
  1
ACMSURFSTANDARDANSI
  2
AcmSurfTextStdANSI
  3
"Amdt_StdImp|Product Description: AutoCAD Mechanical|Company: Autodesk"
 90
        0
280
     0
281
     0
  0
CLASS
  1
ACMFCFSTANDARDANSI
  2
AcmFCFStdANSI
  3
"Amdt_StdImp|Product Description: AutoCAD Mechanical|Company: Autodesk"
 90
        0
280
     0
281
     0
  0
CLASS
  1
ACMWELDSTANDARDANSI
  2
AcmWeldingStdANSI
  3
"Amdt_StdImp|Product Description: AutoCAD Mechanical|Company: Autodesk"
 90
        0
280
     0
281
     0
  0
CLASS
  1
ACMIDSTANDARDANSI
  2
AcmIdStdANSI
  3
"Amdt_StdImp|Product Description: AutoCAD Mechanical|Company: Autodesk"
 90
        0
280
     0
281
     0
  0
CLASS
  1
ACMDATUMSTANDARDANSI
  2
AcmDatumStdANSI
  3
"Amdt_StdImp|Product Description: AutoCAD Mechanical|Company: Autodesk"
 90
        0
280
     0
281
     0
  0
CLASS
  1
ACMBOMSTANDARDANSI
  2
AcmBOMStdANSI
  3
"Amdt_StdImp|Product Description: AutoCAD Mechanical|Company: Autodesk"
 90
        0
280
     0
281
     0
  0
CLASS
  1
ACMDETAILSTANDARDANSI
  2
AmdtDetailSymStdANSI
  3
"Amdt_StdImp|Product Description: AutoCAD Mechanical|Company: Autodesk"
 90
        0
280
     0
281
     0
  0
CLASS
  1
ACMSECTIONSTANDARDANSI
  2
AmdtSectionSymStdANSI
  3
"Amdt_StdImp|Product Description: AutoCAD Mechanical|Company: Autodesk"
 90
        0
280
     0
281
     0
  0
CLASS
  1
ACMCENTERLINESTANDARDANSI
  2
AmdtCenterLineStdANSI
  3
"Amdt_StdImp|Product Description: AutoCAD Mechanical|Company: Autodesk"
 90
        0
280
     0
281
     0
  0
CLASS
  1
ACMTHREADLINESTANDARDANSI
  2
AmdtThreadLineStdANSI
  3
"Amdt_StdImp|Product Description: AutoCAD Mechanical|Company: Autodesk"
 90
        0
280
     0
281
     0
  0
CLASS
  1
ACMNOTESTANDARDANSI
  2
AmdtNoteStdANSI
  3
"Amdt_StdImp|Product Description: AutoCAD Mechanical|Company: Autodesk"
 90
        0
280
     0
281
     0
  0
CLASS
  1
ACMTAPERSTANDARDANSI
  2
AcmTaperStdANSI
  3
"Amdt_StdImp|Product Description: AutoCAD Mechanical|Company: Autodesk"
 90
        0
280
     0
281
     0
  0
CLASS
  1
AMDTNOTETEMPLATEDB
  2
AmdtNoteTemplateDB
  3
AMDT_STDIMP_MODULE_NAME
 90
        0
280
     0
281
     0
  0
CLASS
  1
ACAMGLAYSTD
  2
AcAmgLayStd
  3
"AmgLay|Product Description: AutoCAD Mechanical|Company: Autodesk"
 90
        0
280
     0
281
     0
  0
CLASS
  1
ACAMGDIMSTD
  2
AcAmgDimStd
  3
"AmgDim|Product Description: AutoCAD Mechanical|Company: Autodesk"
 90
        0
280
     0
281
     0
  0
CLASS
  1
ACAMGHOLECHARTSTDANSI
  2
AcAmgHoleChartStdANSI
  3
ACMSYMBB_MODULE_NAME
 90
        0
280
     0
281
     0
  0
CLASS
  1
ACAMGTITLESTD
  2
AcAmgTitleStd
  3
"AmgTitle|Product Description: AutoCAD Mechanical|Company: Autodesk"
 90
        0
280
     0
281
     0
  0
CLASS
  1
ACAMGFILTERDAT
  2
AcAmgFilterDat
  3
"AcadM|Product Description: AutoCAD Mechanical|Company: Autodesk"
 90
    32768
280
     0
281
     0
  0
CLASS
  1
DICTIONARYVAR
  2
AcDbDictionaryVar
  3
ObjectDBX Classes
 90
        0
280
     0
281
     0
  0
CLASS
  1
ACDBPLACEHOLDER
  2
AcDbPlaceHolder
  3
ObjectDBX Classes
 90
        0
280
     0
281
     0
  0
CLASS
  1
LAYOUT
  2
AcDbLayout
  3
ObjectDBX Classes
 90
        0
280
     0
281
     0
  0
CLASS
  1
CAMSSTRUCTBTNSTATE
  2
StructBtnState
  3
L"DesignerAssemblies"
 90
        0
280
     0
281
     0
  0
ENDSEC
  0
SECTION
  2
TABLES
  0
TABLE
  2
VPORT
  5
430
330
0
100
AcDbSymbolTable
 70
     1
  0
VPORT
  5
462
330
430
100
AcDbSymbolTableRecord
100
AcDbViewportTableRecord
  2
*ACTIVE
 70
     0
 10
0.0
 20
0.0
 11
1.0
 21
1.0
 12
552.3123331376438
 22
456.6517259733353
 13
0.0
 23
0.0
 14
1.0
 24
1.0
 15
0.0
 25
0.0
 16
0.0
 26
0.0
 36
1.0
 17
0.0
 27
0.0
 37
0.0
 40
425.58431322586
 41
1.375
 42
50.0
 43
0.0
 44
0.0
 50
0.0
 51
0.0
 71
     0
 72
   100
 73
     1
 74
     1
 75
     0
 76
     0
 77
     0
 78
     0
281
     0
 65
     0
110
0.0
120
0.0
130
0.0
111
1.0
121
0.0
131
0.0
112
0.0
122
1.0
132
0.0
 79
     0
146
0.0
  0
ENDTAB
  0
TABLE
  2
LTYPE
  5
42D
330
0
100
AcDbSymbolTable
 70
    19
  0
LTYPE
  5
450
330
42D
100
AcDbSymbolTableRecord
100
AcDbLinetypeTableRecord
  2
ByBlock
 70
     0
  3

 72
    65
 73
     0
 40
0.0
  0
LTYPE
  5
451
330
42D
100
AcDbSymbolTableRecord
100
AcDbLinetypeTableRecord
  2
ByLayer
 70
     0
  3

 72
    65
 73
     0
 40
0.0
  0
LTYPE
  5
452
330
42D
100
AcDbSymbolTableRecord
100
AcDbLinetypeTableRecord
  2
CONTINUOUS
 70
     0
  3
Solid line
 72
    65
 73
     0
 40
0.0
  0
LTYPE
  5
463
330
42D
100
AcDbSymbolTableRecord
100
AcDbLinetypeTableRecord
  2
DASHED
 70
     0
  3
__ __ __ __ __ __ __ __ __ __ __ __ __ __ __
 72
    65
 73
     2
 40
3.5
 49
2.0
 74
     0
 49
-1.5
 74
     0
  0
LTYPE
  5
464
330
42D
100
AcDbSymbolTableRecord
100
AcDbLinetypeTableRecord
  2
CENTER
 70
     0
  3
____ _ ____ _ ____ _ ____ _ ____ _ ____ _ ____
 72
    65
 73
     4
 40
17.5
 49
13.0
 74
     0
 49
-1.5
 74
     0
 49
1.5
 74
     0
 49
-1.5
 74
     0
  0
LTYPE
  5
465
330
42D
100
AcDbSymbolTableRecord
100
AcDbLinetypeTableRecord
  2
PHANTOM
 70
     0
  3
_____ _ _ _____ _ _ _____ _ _ _____ _ _ ____  
 72
    65
 73
     6
 40
15.5
 49
8.0
 74
     0
 49
-1.5
 74
     0
 49
1.5
 74
     0
 49
-1.5
 74
     0
 49
1.5
 74
     0
 49
-1.5
 74
     0
  0
LTYPE
  5
466
330
42D
100
AcDbSymbolTableRecord
100
AcDbLinetypeTableRecord
  2
DOT
 70
     0
  3
. . . . . . . . . . . . . . . . . . . . . . . .
 72
    65
 73
     2
 40
0.25
 49
0.0
 74
     0
 49
-0.25
 74
     0
  0
LTYPE
  5
467
330
42D
100
AcDbSymbolTableRecord
100
AcDbLinetypeTableRecord
  2
HIDDEN
 70
     0
  3
__ __ __ __ __ __ __ __ __ __ __ __ __ __ __
 72
    65
 73
     2
 40
3.5
 49
2.0
 74
     0
 49
-1.5
 74
     0
  0
LTYPE
  5
4F6
330
42D
100
AcDbSymbolTableRecord
100
AcDbLinetypeTableRecord
  2
PHANTOM2
 70
     0
  3
Phantom (.5x) ___ _ _ ___ _ _ ___ _ _ ___ _ _
 72
    65
 73
     6
 40
1.25
 49
0.625
 74
     0
 49
-0.125
 74
     0
 49
0.125
 74
     0
 49
-0.125
 74
     0
 49
0.125
 74
     0
 49
-0.125
 74
     0
  0
LTYPE
  5
52B
330
42D
100
AcDbSymbolTableRecord
100
AcDbLinetypeTableRecord
  2
AM_ISO02W050
 70
     0
  3
__ __ __ __ __ __ __ __ __ __ __ __ __ __ __
 72
    65
 73
     2
 40
7.5
 49
6.0
 74
     0
 49
-1.5
 74
     0
  0
LTYPE
  5
52C
330
42D
100
AcDbSymbolTableRecord
100
AcDbLinetypeTableRecord
  2
AM_ISO08W050
 70
     0
  3
____ . ____ . ____ . ____ . ____ . ____ . ____
 72
    65
 73
     4
 40
18.0
 49
12.0
 74
     0
 49
-1.5
 74
     0
 49
3.0
 74
     0
 49
-1.5
 74
     0
  0
LTYPE
  5
52D
330
42D
100
AcDbSymbolTableRecord
100
AcDbLinetypeTableRecord
  2
AM_ISO09W050
 70
     0
  3
_____ . . _____ . . _____ . . ____ .. ____
 72
    65
 73
     6
 40
22.5
 49
12.0
 74
     0
 49
-1.5
 74
     0
 49
3.0
 74
     0
 49
-1.5
 74
     0
 49
3.0
 74
     0
 49
-1.5
 74
     0
  0
LTYPE
  5
52E
330
42D
100
AcDbSymbolTableRecord
100
AcDbLinetypeTableRecord
  2
Amconstr
 70
     0
  3
_______________________
 72
    65
 73
     2
 40
9999.0
 49
9999.0
 74
     0
 49
0.0
 74
     0
  0
LTYPE
  5
52F
330
42D
100
AcDbSymbolTableRecord
100
AcDbLinetypeTableRecord
  2
AM_ISO08W050x2
 70
     0
  3
__ . __ . __ . __ . __ . __
 72
    65
 73
     4
 40
9.0
 49
6.0
 74
     0
 49
-0.75
 74
     0
 49
1.5
 74
     0
 49
-0.75
 74
     0
  0
LTYPE
  5
530
330
42D
100
AcDbSymbolTableRecord
100
AcDbLinetypeTableRecord
  2
AM_ISO02W050x2
 70
     0
  3
 _ _ _ _ _ _ _ _ _ _ _ _
 72
    65
 73
     2
 40
3.75
 49
3.0
 74
     0
 49
-0.75
 74
     0
  0
LTYPE
  5
533
330
42D
100
AcDbSymbolTableRecord
100
AcDbLinetypeTableRecord
  2
Amzigzag
 70
     0
  3
/\/-/\/-/\/-/\/-/\/-/\/
 72
    65
 73
     2
 40
11.0001
 49
0.0001
 74
     4
 75
   136
340
532
 46
0.04
 50
0.0
 44
0.0
 45
0.0
 49
-11.0
 74
     0
  0
LTYPE
  5
534
330
42D
100
AcDbSymbolTableRecord
100
AcDbLinetypeTableRecord
  2
CENTER2
 70
     0
  3
Center (.5x) ___ _ ___ _ ___ _ ___ _ ___ _ ___
 72
    65
 73
     4
 40
1.125
 49
0.75
 74
     0
 49
-0.125
 74
     0
 49
0.125
 74
     0
 49
-0.125
 74
     0
  0
LTYPE
  5
535
330
42D
100
AcDbSymbolTableRecord
100
AcDbLinetypeTableRecord
  2
HIDDEN2
 70
     0
  3
Hidden (.5x) _ _ _ _ _ _ _ _ _ _ _ _ _ _ _ _ _
 72
    65
 73
     2
 40
0.1875
 49
0.125
 74
     0
 49
-0.0625
 74
     0
  0
LTYPE
  5
536
330
42D
100
AcDbSymbolTableRecord
100
AcDbLinetypeTableRecord
  2
Amzigzag2
 70
     0
  3
/\/-/\/-/\/-/\/-/\/-/\/
 72
    65
 73
     2
 40
0.4401
 49
0.0001
 74
     4
 75
   136
340
532
 46
0.0016
 50
0.0
 44
0.0
 45
0.0
 49
-0.4400000000000002
 74
     0
  0
LTYPE
  5
545
330
42D
100
AcDbSymbolTableRecord
100
AcDbLinetypeTableRecord
  2
ACANSTGB
 70
     0
  3
__ . . __ . .
 72
    65
 73
     6
 40
0.35433070866
 49
0.15748031496
 74
     0
 49
-0.03937007874
 74
     0
 49
0.03937007874
 74
     0
 49
-0.03937007874
 74
     0
 49
0.03937007874
 74
     0
 49
-0.03937007874
 74
     0
  0
LTYPE
  5
546
330
42D
100
AcDbSymbolTableRecord
100
AcDbLinetypeTableRecord
  2
ACANSTGL
 70
     0
  3
_ _ _ _ _
 72
    65
 73
     2
 40
0.11811023622
 49
0.07874015748
 74
     0
 49
-0.03937007874
 74
     0
  0
ENDTAB
  0
TABLE
  2
LAYER
  5
42A
330
0
100
AcDbSymbolTable
 70
     1
  0
LAYER
  5
44D
330
42A
100
AcDbSymbolTableRecord
100
AcDbLayerTableRecord
  2
0
 70
     0
 62
     7
  6
CONTINUOUS
370
    -3
390
437
  0
ENDTAB
  0
TABLE
  2
STYLE
  5
42B
330
0
100
AcDbSymbolTable
 70
     4
  0
STYLE
  5
44E
330
42B
100
AcDbSymbolTableRecord
100
AcDbTextStyleTableRecord
  2
STANDARD
 70
     0
 40
0.0
 41
1.0
 50
0.0
 71
     0
 42
0.2
  3
txt
  4
BIGFONT
  0
STYLE
  5
532
330
42B
100
AcDbSymbolTableRecord
100
AcDbTextStyleTableRecord
  2

 70
     1
 40
0.0
 41
1.0
 50
0.0
 71
     0
 42
0.2
  3
genltshp.shx
  4

  0
STYLE
  5
537
330
42B
100
AcDbSymbolTableRecord
100
AcDbTextStyleTableRecord
  2
ACANSTS
 70
     0
 40
1.0
 41
1.0
 50
0.0
 71
     0
 42
0.2
  3
romans.shx
  4
extfont.shx
  0
STYLE
  5
544
330
42B
100
AcDbSymbolTableRecord
100
AcDbTextStyleTableRecord
  2
ACANSGDT
 70
     0
 40
0.0
 41
1.0
 50
0.0
 71
     0
 42
0.2
  3
amgdt.shx
  4

  0
ENDTAB
  0
TABLE
  2
VIEW
  5
42E
330
0
100
AcDbSymbolTable
 70
     0
  0
ENDTAB
  0
TABLE
  2
UCS
  5
42F
330
0
100
AcDbSymbolTable
 70
     0
  0
ENDTAB
  0
TABLE
  2
APPID
  5
431
330
0
100
AcDbSymbolTable
 70
     9
  0
APPID
  5
44F
330
431
100
AcDbSymbolTableRecord
100
AcDbRegAppTableRecord
  2
ACAD
 70
     0
  0
APPID
  5
4C9
330
431
100
AcDbSymbolTableRecord
100
AcDbRegAppTableRecord
  2
MCAD_NO_VIS
 70
     0
  0
APPID
  5
4CA
330
431
100
AcDbSymbolTableRecord
100
AcDbRegAppTableRecord
  2
ACAD_TEMP_GRAPHIC
 70
     0
  0
APPID
  5
4F8
330
431
100
AcDbSymbolTableRecord
100
AcDbRegAppTableRecord
  2
AD_DRAW
 70
     0
  0
APPID
  5
4FB
330
431
100
AcDbSymbolTableRecord
100
AcDbRegAppTableRecord
  2
ACATTRIBSERVICES
 70
     0
  0
APPID
  5
51C
330
431
100
AcDbSymbolTableRecord
100
AcDbRegAppTableRecord
  2
DESIGNERASSEMBLIES
 70
     0
  0
APPID
  5
522
330
431
100
AcDbSymbolTableRecord
100
AcDbRegAppTableRecord
  2
ACADM_DIM_EDIT
 70
     0
  0
APPID
  5
523
330
431
100
AcDbSymbolTableRecord
100
AcDbRegAppTableRecord
  2
AMDT_DM_ADJ
 70
     0
  0
APPID
  5
591
330
431
100
AcDbSymbolTableRecord
100
AcDbRegAppTableRecord
  2
ACAD_DSTYLE_DIMARC_LENGTH_SYMBOL
 70
     0
  0
ENDTAB
  0
TABLE
  2
DIMSTYLE
  5
432
330
0
100
AcDbSymbolTable
 70
     7
100
AcDbDimStyleTable
 71
     0
  0
DIMSTYLE
105
468
330
432
100
AcDbSymbolTableRecord
100
AcDbDimStyleTableRecord
  2
STANDARD
 70
     0
279
     2
340
44E
  0
DIMSTYLE
105
552
330
432
100
AcDbSymbolTableRecord
100
AcDbDimStyleTableRecord
  2
AM_ANSI
 70
     0
  4
mm
 41
0.1
 42
0.05
 43
0.5
 44
0.1
 47
0.1
 48
0.1
 78
     7
 79
     2
140
0.12
141
0.0
146
0.71
147
0.06
176
   256
177
   256
178
     2
274
     4
284
     7
340
44E
371
    -1
372
    -1
1001
ACAD_DSTYLE_DIMARC_LENGTH_SYMBOL
1070
   379
1070
     1
  0
DIMSTYLE
105
553
330
432
100
AcDbSymbolTableRecord
100
AcDbDimStyleTableRecord
  2
AM_ANSI$3
 70
     0
  4
mm
 41
0.1
 42
0.05
 43
0.5
 44
0.1
 47
0.1
 48
0.1
 78
     7
 79
     2
140
0.12
141
0.0
146
0.71
147
0.06
176
   256
177
   256
178
     2
274
     4
284
     7
288
     1
289
     0
340
44E
371
    -1
372
    -1
1001
ACAD_DSTYLE_DIMARC_LENGTH_SYMBOL
1070
   379
1070
     1
  0
DIMSTYLE
105
554
330
432
100
AcDbSymbolTableRecord
100
AcDbDimStyleTableRecord
  2
AM_ANSI$4
 70
     0
  4
mm
 41
0.1
 42
0.05
 43
0.5
 44
0.1
 47
0.1
 48
0.1
 78
     7
 79
     2
140
0.12
141
0.0
146
0.71
147
0.06
176
   256
177
   256
178
     2
274
     4
284
     7
288
     1
289
     0
340
44E
371
    -1
372
    -1
1001
ACAD_DSTYLE_DIMARC_LENGTH_SYMBOL
1070
   379
1070
     1
  0
DIMSTYLE
105
555
330
432
100
AcDbSymbolTableRecord
100
AcDbDimStyleTableRecord
  2
AM_ANSI$7
 70
     0
  4
mm
 41
0.1
 42
0.05
 43
0.5
 44
0.1
 47
0.1
 48
0.1
 78
     7
 79
     2
140
0.24
141
0.0
146
0.71
147
0.06
176
   256
177
   256
178
     2
274
     4
284
     7
340
44E
371
    -1
372
    -1
1001
ACAD_DSTYLE_DIMARC_LENGTH_SYMBOL
1070
   379
1070
     1
  0
DIMSTYLE
105
556
330
432
100
AcDbSymbolTableRecord
100
AcDbDimStyleTableRecord
  2
AM_ANSI$SF
 70
     0
  4
mm
 41
0.1
 42
0.05
 43
0.5
 44
0.1
 47
0.1
 48
0.1
 75
     1
 76
     1
 78
     7
 79
     2
140
0.12
141
0.0
146
0.71
147
0.06
176
   256
177
   256
178
     2
274
     4
284
     7
340
44E
371
    -1
372
    -1
1001
ACAD_DSTYLE_DIMARC_LENGTH_SYMBOL
1070
   379
1070
     1
  0
DIMSTYLE
105
55B
330
432
100
AcDbSymbolTableRecord
100
AcDbDimStyleTableRecord
  2
AM_ANSI$SH
 70
     0
  4
mm
 41
0.1
 42
0.05
 43
0.5
 44
0.1
 47
0.1
 48
0.1
 75
     1
 76
     1
 78
     7
 79
     2
140
0.12
141
0.0
146
0.71
147
0.06
173
     1
176
   256
177
   256
178
     2
274
     4
284
     7
340
44E
343
557
371
    -1
372
    -1
1001
ACAD_DSTYLE_DIMARC_LENGTH_SYMBOL
1070
   379
1070
     1
  0
ENDTAB
  0
TABLE
  2
BLOCK_RECORD
  5
429
330
0
100
AcDbSymbolTable
 70
    44
  0
BLOCK_RECORD
  5
45E
330
429
100
AcDbSymbolTableRecord
100
AcDbBlockTableRecord
  2
*Model_Space
340
461
  0
BLOCK_RECORD
  5
45A
330
429
100
AcDbSymbolTableRecord
100
AcDbBlockTableRecord
  2
*Paper_Space
340
45D
  0
BLOCK_RECORD
  5
46F
330
429
100
AcDbSymbolTableRecord
100
AcDbBlockTableRecord
  2
KOZU0001
340
0
102
{BLKREFS
331
31E
102
}
  0
BLOCK_RECORD
  5
471
330
429
100
AcDbSymbolTableRecord
100
AcDbBlockTableRecord
  2
KOZU0002
340
0
102
{BLKREFS
331
31F
102
}
  0
BLOCK_RECORD
  5
473
330
429
100
AcDbSymbolTableRecord
100
AcDbBlockTableRecord
  2
KOZU0003
340
0
102
{BLKREFS
331
320
102
}
  0
BLOCK_RECORD
  5
475
330
429
100
AcDbSymbolTableRecord
100
AcDbBlockTableRecord
  2
KOZU0004
340
0
102
{BLKREFS
331
321
102
}
  0
BLOCK_RECORD
  5
477
330
429
100
AcDbSymbolTableRecord
100
AcDbBlockTableRecord
  2
KOZU0005
340
0
102
{BLKREFS
331
322
102
}
  0
BLOCK_RECORD
  5
479
330
429
100
AcDbSymbolTableRecord
100
AcDbBlockTableRecord
  2
KOZU0006
340
0
102
{BLKREFS
331
323
102
}
  0
BLOCK_RECORD
  5
47B
330
429
100
AcDbSymbolTableRecord
100
AcDbBlockTableRecord
  2
KOZU0007
340
0
102
{BLKREFS
331
324
102
}
  0
BLOCK_RECORD
  5
47D
330
429
100
AcDbSymbolTableRecord
100
AcDbBlockTableRecord
  2
KOZU0008
340
0
102
{BLKREFS
331
325
102
}
  0
BLOCK_RECORD
  5
47F
330
429
100
AcDbSymbolTableRecord
100
AcDbBlockTableRecord
  2
KOZU0009
340
0
102
{BLKREFS
331
326
102
}
  0
BLOCK_RECORD
  5
481
330
429
100
AcDbSymbolTableRecord
100
AcDbBlockTableRecord
  2
KOZU0010
340
0
102
{BLKREFS
331
327
102
}
  0
BLOCK_RECORD
  5
483
330
429
100
AcDbSymbolTableRecord
100
AcDbBlockTableRecord
  2
KOZU0011
340
0
102
{BLKREFS
331
328
102
}
  0
BLOCK_RECORD
  5
485
330
429
100
AcDbSymbolTableRecord
100
AcDbBlockTableRecord
  2
KOZU0012
340
0
102
{BLKREFS
331
329
102
}
  0
BLOCK_RECORD
  5
487
330
429
100
AcDbSymbolTableRecord
100
AcDbBlockTableRecord
  2
KOZU0013
340
0
102
{BLKREFS
331
32A
102
}
  0
BLOCK_RECORD
  5
489
330
429
100
AcDbSymbolTableRecord
100
AcDbBlockTableRecord
  2
KOZU0014
340
0
102
{BLKREFS
331
32B
102
}
  0
BLOCK_RECORD
  5
48B
330
429
100
AcDbSymbolTableRecord
100
AcDbBlockTableRecord
  2
KOZU0015
340
0
102
{BLKREFS
331
32C
102
}
  0
BLOCK_RECORD
  5
48D
330
429
100
AcDbSymbolTableRecord
100
AcDbBlockTableRecord
  2
KOZU0016
340
0
102
{BLKREFS
331
32D
102
}
  0
BLOCK_RECORD
  5
48F
330
429
100
AcDbSymbolTableRecord
100
AcDbBlockTableRecord
  2
KOZU0017
340
0
102
{BLKREFS
331
32E
102
}
  0
BLOCK_RECORD
  5
491
330
429
100
AcDbSymbolTableRecord
100
AcDbBlockTableRecord
  2
KOZU0018
340
0
102
{BLKREFS
331
32F
102
}
  0
BLOCK_RECORD
  5
493
330
429
100
AcDbSymbolTableRecord
100
AcDbBlockTableRecord
  2
KOZU0019
340
0
102
{BLKREFS
331
330
102
}
  0
BLOCK_RECORD
  5
495
330
429
100
AcDbSymbolTableRecord
100
AcDbBlockTableRecord
  2
KOZU0020
340
0
102
{BLKREFS
331
331
102
}
  0
BLOCK_RECORD
  5
497
330
429
100
AcDbSymbolTableRecord
100
AcDbBlockTableRecord
  2
KOZU0021
340
0
102
{BLKREFS
331
332
102
}
  0
BLOCK_RECORD
  5
499
330
429
100
AcDbSymbolTableRecord
100
AcDbBlockTableRecord
  2
KOZU0022
340
0
102
{BLKREFS
331
333
102
}
  0
BLOCK_RECORD
  5
49B
330
429
100
AcDbSymbolTableRecord
100
AcDbBlockTableRecord
  2
KOZU0023
340
0
102
{BLKREFS
331
334
102
}
  0
BLOCK_RECORD
  5
49D
330
429
100
AcDbSymbolTableRecord
100
AcDbBlockTableRecord
  2
KOZU0024
340
0
102
{BLKREFS
331
335
102
}
  0
BLOCK_RECORD
  5
49F
330
429
100
AcDbSymbolTableRecord
100
AcDbBlockTableRecord
  2
KOZU0025
340
0
102
{BLKREFS
331
336
102
}
  0
BLOCK_RECORD
  5
4A1
330
429
100
AcDbSymbolTableRecord
100
AcDbBlockTableRecord
  2
KOZU0026
340
0
102
{BLKREFS
331
337
102
}
  0
BLOCK_RECORD
  5
4A3
330
429
100
AcDbSymbolTableRecord
100
AcDbBlockTableRecord
  2
KOZU0027
340
0
102
{BLKREFS
331
338
102
}
  0
BLOCK_RECORD
  5
4A5
330
429
100
AcDbSymbolTableRecord
100
AcDbBlockTableRecord
  2
KOZU0028
340
0
102
{BLKREFS
331
339
102
}
  0
BLOCK_RECORD
  5
4A7
330
429
100
AcDbSymbolTableRecord
100
AcDbBlockTableRecord
  2
KOZU0029
340
0
102
{BLKREFS
331
33A
102
}
  0
BLOCK_RECORD
  5
4A9
330
429
100
AcDbSymbolTableRecord
100
AcDbBlockTableRecord
  2
KOZU0030
340
0
102
{BLKREFS
331
33B
102
}
  0
BLOCK_RECORD
  5
4AB
330
429
100
AcDbSymbolTableRecord
100
AcDbBlockTableRecord
  2
KOZU0031
340
0
102
{BLKREFS
331
33C
102
}
  0
BLOCK_RECORD
  5
4AD
330
429
100
AcDbSymbolTableRecord
100
AcDbBlockTableRecord
  2
KOZU0032
340
0
102
{BLKREFS
331
33D
102
}
  0
BLOCK_RECORD
  5
4AF
330
429
100
AcDbSymbolTableRecord
100
AcDbBlockTableRecord
  2
KOZU0033
340
0
102
{BLKREFS
331
33E
102
}
  0
BLOCK_RECORD
  5
4B1
330
429
100
AcDbSymbolTableRecord
100
AcDbBlockTableRecord
  2
KOZU0034
340
0
102
{BLKREFS
331
33F
102
}
  0
BLOCK_RECORD
  5
4B3
330
429
100
AcDbSymbolTableRecord
100
AcDbBlockTableRecord
  2
KOZU0035
340
0
102
{BLKREFS
331
340
102
}
  0
BLOCK_RECORD
  5
4B5
330
429
100
AcDbSymbolTableRecord
100
AcDbBlockTableRecord
  2
KOZU0036
340
0
102
{BLKREFS
331
341
102
}
  0
BLOCK_RECORD
  5
4B7
330
429
100
AcDbSymbolTableRecord
100
AcDbBlockTableRecord
  2
KOZU0037
340
0
102
{BLKREFS
331
342
102
}
  0
BLOCK_RECORD
  5
4B9
330
429
100
AcDbSymbolTableRecord
100
AcDbBlockTableRecord
  2
KOZU0038
340
0
102
{BLKREFS
331
343
102
}
  0
BLOCK_RECORD
  5
4BB
330
429
100
AcDbSymbolTableRecord
100
AcDbBlockTableRecord
  2
KOZU0039
340
0
102
{BLKREFS
331
344
102
}
  0
BLOCK_RECORD
  5
4BD
330
429
100
AcDbSymbolTableRecord
100
AcDbBlockTableRecord
  2
KOZU0040
340
0
102
{BLKREFS
331
345
102
}
  0
BLOCK_RECORD
  5
4BF
330
429
100
AcDbSymbolTableRecord
100
AcDbBlockTableRecord
  2
KOZU0041
340
0
102
{BLKREFS
331
346
102
}
  0
BLOCK_RECORD
  5
4C1
330
429
100
AcDbSymbolTableRecord
100
AcDbBlockTableRecord
  2
KOZU0042
340
0
102
{BLKREFS
331
347
102
}
  0
BLOCK_RECORD
  5
557
330
429
100
AcDbSymbolTableRecord
100
AcDbBlockTableRecord
  2
GENAXEH
340
0
  0
ENDTAB
  0
ENDSEC
  0
SECTION
  2
BLOCKS
  0
BLOCK
  5
45F
330
45E
100
AcDbEntity
  8
0
100
AcDbBlockBegin
  2
*Model_Space
 70
     0
 10
0.0
 20
0.0
 30
0.0
  3
*Model_Space
  1

  0
ENDBLK
  5
460
330
45E
100
AcDbEntity
  8
0
100
AcDbBlockEnd
  0
BLOCK
  5
45B
330
45A
100
AcDbEntity
 67
     1
  8
0
100
AcDbBlockBegin
  2
*Paper_Space
 70
     0
 10
0.0
 20
0.0
 30
0.0
  3
*Paper_Space
  1

  0
ENDBLK
  5
45C
330
45A
100
AcDbEntity
 67
     1
  8
0
100
AcDbBlockEnd
  0
BLOCK
  5
470
330
46F
100
AcDbEntity
  8
0
100
AcDbBlockBegin
  2
KOZU0001
 70
     0
 10
0.0
 20
0.0
 30
0.0
  3
KOZU0001
  1

  0
POLYLINE
  5
2C
330
46F
100
AcDbEntity
  8
0
  6
Continuous
 62
     7
100
AcDb2dPolyline
 66
     1
 10
0.0
 20
0.0
 30
0.0
 70
     1
 40
0.4000000100000002
 41
0.4000000100000002
  0
VERTEX
  5
351
330
2C
100
AcDbEntity
  8
0
  6
Continuous
 62
     7
100
AcDbVertex
100
AcDb2dVertex
 10
-0.2
 20
0.0
 30
0.0
 42
1.0
  0
VERTEX
  5
352
330
2C
100
AcDbEntity
  8
0
  6
Continuous
 62
     7
100
AcDbVertex
100
AcDb2dVertex
 10
0.2
 20
0.0
 30
0.0
 42
1.0
  0
SEQEND
  5
353
330
2C
100
AcDbEntity
  8
0
  6
Continuous
 62
     7
  0
ENDBLK
  5
30
330
46F
100
AcDbEntity
  8
0
100
AcDbBlockEnd
  0
BLOCK
  5
472
330
471
100
AcDbEntity
  8
0
100
AcDbBlockBegin
  2
KOZU0002
 70
     0
 10
0.0
 20
0.0
 30
0.0
  3
KOZU0002
  1

  0
POLYLINE
  5
33
330
471
100
AcDbEntity
  8
0
  6
Continuous
 62
     7
100
AcDb2dPolyline
 66
     1
 10
0.0
 20
0.0
 30
0.0
 70
     1
 40
0.4000000100000002
 41
0.4000000100000002
  0
VERTEX
  5
354
330
33
100
AcDbEntity
  8
0
  6
Continuous
 62
     7
100
AcDbVertex
100
AcDb2dVertex
 10
-0.2
 20
0.0
 30
0.0
 42
1.0
  0
VERTEX
  5
355
330
33
100
AcDbEntity
  8
0
  6
Continuous
 62
     7
100
AcDbVertex
100
AcDb2dVertex
 10
0.2
 20
0.0
 30
0.0
 42
1.0
  0
SEQEND
  5
356
330
33
100
AcDbEntity
  8
0
  6
Continuous
 62
     7
  0
ENDBLK
  5
37
330
471
100
AcDbEntity
  8
0
100
AcDbBlockEnd
  0
BLOCK
  5
474
330
473
100
AcDbEntity
  8
0
100
AcDbBlockBegin
  2
KOZU0003
 70
     0
 10
0.0
 20
0.0
 30
0.0
  3
KOZU0003
  1

  0
POLYLINE
  5
3A
330
473
100
AcDbEntity
  8
0
  6
Continuous
 62
     7
100
AcDb2dPolyline
 66
     1
 10
0.0
 20
0.0
 30
0.0
 70
     1
 40
0.4000000100000002
 41
0.4000000100000002
  0
VERTEX
  5
357
330
3A
100
AcDbEntity
  8
0
  6
Continuous
 62
     7
100
AcDbVertex
100
AcDb2dVertex
 10
-0.2
 20
0.0
 30
0.0
 42
1.0
  0
VERTEX
  5
358
330
3A
100
AcDbEntity
  8
0
  6
Continuous
 62
     7
100
AcDbVertex
100
AcDb2dVertex
 10
0.2
 20
0.0
 30
0.0
 42
1.0
  0
SEQEND
  5
359
330
3A
100
AcDbEntity
  8
0
  6
Continuous
 62
     7
  0
ENDBLK
  5
3E
330
473
100
AcDbEntity
  8
0
100
AcDbBlockEnd
  0
BLOCK
  5
476
330
475
100
AcDbEntity
  8
0
100
AcDbBlockBegin
  2
KOZU0004
 70
     0
 10
0.0
 20
0.0
 30
0.0
  3
KOZU0004
  1

  0
POLYLINE
  5
41
330
475
100
AcDbEntity
  8
0
  6
Continuous
 62
     7
100
AcDb2dPolyline
 66
     1
 10
0.0
 20
0.0
 30
0.0
 70
     1
 40
0.4000000100000002
 41
0.4000000100000002
  0
VERTEX
  5
35A
330
41
100
AcDbEntity
  8
0
  6
Continuous
 62
     7
100
AcDbVertex
100
AcDb2dVertex
 10
-0.2
 20
0.0
 30
0.0
 42
1.0
  0
VERTEX
  5
35B
330
41
100
AcDbEntity
  8
0
  6
Continuous
 62
     7
100
AcDbVertex
100
AcDb2dVertex
 10
0.2
 20
0.0
 30
0.0
 42
1.0
  0
SEQEND
  5
35C
330
41
100
AcDbEntity
  8
0
  6
Continuous
 62
     7
  0
ENDBLK
  5
45
330
475
100
AcDbEntity
  8
0
100
AcDbBlockEnd
  0
BLOCK
  5
478
330
477
100
AcDbEntity
  8
0
100
AcDbBlockBegin
  2
KOZU0005
 70
     0
 10
0.0
 20
0.0
 30
0.0
  3
KOZU0005
  1

  0
POLYLINE
  5
48
330
477
100
AcDbEntity
  8
0
  6
Continuous
 62
     7
100
AcDb2dPolyline
 66
     1
 10
0.0
 20
0.0
 30
0.0
 70
     1
 40
0.4000000100000002
 41
0.4000000100000002
  0
VERTEX
  5
35D
330
48
100
AcDbEntity
  8
0
  6
Continuous
 62
     7
100
AcDbVertex
100
AcDb2dVertex
 10
-0.2
 20
0.0
 30
0.0
 42
1.0
  0
VERTEX
  5
35E
330
48
100
AcDbEntity
  8
0
  6
Continuous
 62
     7
100
AcDbVertex
100
AcDb2dVertex
 10
0.2
 20
0.0
 30
0.0
 42
1.0
  0
SEQEND
  5
35F
330
48
100
AcDbEntity
  8
0
  6
Continuous
 62
     7
  0
ENDBLK
  5
4C
330
477
100
AcDbEntity
  8
0
100
AcDbBlockEnd
  0
BLOCK
  5
47A
330
479
100
AcDbEntity
  8
0
100
AcDbBlockBegin
  2
KOZU0006
 70
     0
 10
0.0
 20
0.0
 30
0.0
  3
KOZU0006
  1

  0
POLYLINE
  5
4F
330
479
100
AcDbEntity
  8
0
  6
Continuous
 62
     7
100
AcDb2dPolyline
 66
     1
 10
0.0
 20
0.0
 30
0.0
 70
     1
 40
0.4000000100000002
 41
0.4000000100000002
  0
VERTEX
  5
360
330
4F
100
AcDbEntity
  8
0
  6
Continuous
 62
     7
100
AcDbVertex
100
AcDb2dVertex
 10
-0.2
 20
0.0
 30
0.0
 42
1.0
  0
VERTEX
  5
361
330
4F
100
AcDbEntity
  8
0
  6
Continuous
 62
     7
100
AcDbVertex
100
AcDb2dVertex
 10
0.2
 20
0.0
 30
0.0
 42
1.0
  0
SEQEND
  5
362
330
4F
100
AcDbEntity
  8
0
  6
Continuous
 62
     7
  0
ENDBLK
  5
53
330
479
100
AcDbEntity
  8
0
100
AcDbBlockEnd
  0
BLOCK
  5
47C
330
47B
100
AcDbEntity
  8
0
100
AcDbBlockBegin
  2
KOZU0007
 70
     0
 10
0.0
 20
0.0
 30
0.0
  3
KOZU0007
  1

  0
POLYLINE
  5
56
330
47B
100
AcDbEntity
  8
0
  6
Continuous
 62
     7
100
AcDb2dPolyline
 66
     1
 10
0.0
 20
0.0
 30
0.0
 70
     1
 40
0.4000000100000002
 41
0.4000000100000002
  0
VERTEX
  5
363
330
56
100
AcDbEntity
  8
0
  6
Continuous
 62
     7
100
AcDbVertex
100
AcDb2dVertex
 10
-0.2
 20
0.0
 30
0.0
 42
1.0
  0
VERTEX
  5
364
330
56
100
AcDbEntity
  8
0
  6
Continuous
 62
     7
100
AcDbVertex
100
AcDb2dVertex
 10
0.2
 20
0.0
 30
0.0
 42
1.0
  0
SEQEND
  5
365
330
56
100
AcDbEntity
  8
0
  6
Continuous
 62
     7
  0
ENDBLK
  5
5A
330
47B
100
AcDbEntity
  8
0
100
AcDbBlockEnd
  0
BLOCK
  5
47E
330
47D
100
AcDbEntity
  8
0
100
AcDbBlockBegin
  2
KOZU0008
 70
     0
 10
0.0
 20
0.0
 30
0.0
  3
KOZU0008
  1

  0
POLYLINE
  5
5D
330
47D
100
AcDbEntity
  8
0
  6
Continuous
 62
     7
100
AcDb2dPolyline
 66
     1
 10
0.0
 20
0.0
 30
0.0
 70
     1
 40
0.4000000100000002
 41
0.4000000100000002
  0
VERTEX
  5
366
330
5D
100
AcDbEntity
  8
0
  6
Continuous
 62
     7
100
AcDbVertex
100
AcDb2dVertex
 10
-0.2
 20
0.0
 30
0.0
 42
1.0
  0
VERTEX
  5
367
330
5D
100
AcDbEntity
  8
0
  6
Continuous
 62
     7
100
AcDbVertex
100
AcDb2dVertex
 10
0.2
 20
0.0
 30
0.0
 42
1.0
  0
SEQEND
  5
368
330
5D
100
AcDbEntity
  8
0
  6
Continuous
 62
     7
  0
ENDBLK
  5
61
330
47D
100
AcDbEntity
  8
0
100
AcDbBlockEnd
  0
BLOCK
  5
480
330
47F
100
AcDbEntity
  8
0
100
AcDbBlockBegin
  2
KOZU0009
 70
     0
 10
0.0
 20
0.0
 30
0.0
  3
KOZU0009
  1

  0
POLYLINE
  5
64
330
47F
100
AcDbEntity
  8
0
  6
Continuous
 62
     7
100
AcDb2dPolyline
 66
     1
 10
0.0
 20
0.0
 30
0.0
 70
     1
 40
0.4000000100000002
 41
0.4000000100000002
  0
VERTEX
  5
369
330
64
100
AcDbEntity
  8
0
  6
Continuous
 62
     7
100
AcDbVertex
100
AcDb2dVertex
 10
-0.2
 20
0.0
 30
0.0
 42
1.0
  0
VERTEX
  5
36A
330
64
100
AcDbEntity
  8
0
  6
Continuous
 62
     7
100
AcDbVertex
100
AcDb2dVertex
 10
0.2
 20
0.0
 30
0.0
 42
1.0
  0
SEQEND
  5
36B
330
64
100
AcDbEntity
  8
0
  6
Continuous
 62
     7
  0
ENDBLK
  5
68
330
47F
100
AcDbEntity
  8
0
100
AcDbBlockEnd
  0
BLOCK
  5
482
330
481
100
AcDbEntity
  8
0
100
AcDbBlockBegin
  2
KOZU0010
 70
     0
 10
0.0
 20
0.0
 30
0.0
  3
KOZU0010
  1

  0
POLYLINE
  5
6B
330
481
100
AcDbEntity
  8
0
  6
Continuous
 62
     7
100
AcDb2dPolyline
 66
     1
 10
0.0
 20
0.0
 30
0.0
 70
     1
 40
0.4000000100000002
 41
0.4000000100000002
  0
VERTEX
  5
36C
330
6B
100
AcDbEntity
  8
0
  6
Continuous
 62
     7
100
AcDbVertex
100
AcDb2dVertex
 10
-0.2
 20
0.0
 30
0.0
 42
1.0
  0
VERTEX
  5
36D
330
6B
100
AcDbEntity
  8
0
  6
Continuous
 62
     7
100
AcDbVertex
100
AcDb2dVertex
 10
0.2
 20
0.0
 30
0.0
 42
1.0
  0
SEQEND
  5
36E
330
6B
100
AcDbEntity
  8
0
  6
Continuous
 62
     7
  0
ENDBLK
  5
6F
330
481
100
AcDbEntity
  8
0
100
AcDbBlockEnd
  0
BLOCK
  5
484
330
483
100
AcDbEntity
  8
0
100
AcDbBlockBegin
  2
KOZU0011
 70
     0
 10
0.0
 20
0.0
 30
0.0
  3
KOZU0011
  1

  0
POLYLINE
  5
72
330
483
100
AcDbEntity
  8
0
  6
Continuous
 62
     7
100
AcDb2dPolyline
 66
     1
 10
0.0
 20
0.0
 30
0.0
 70
     1
 40
0.4000000100000002
 41
0.4000000100000002
  0
VERTEX
  5
36F
330
72
100
AcDbEntity
  8
0
  6
Continuous
 62
     7
100
AcDbVertex
100
AcDb2dVertex
 10
-0.2
 20
0.0
 30
0.0
 42
1.0
  0
VERTEX
  5
370
330
72
100
AcDbEntity
  8
0
  6
Continuous
 62
     7
100
AcDbVertex
100
AcDb2dVertex
 10
0.2
 20
0.0
 30
0.0
 42
1.0
  0
SEQEND
  5
371
330
72
100
AcDbEntity
  8
0
  6
Continuous
 62
     7
  0
ENDBLK
  5
76
330
483
100
AcDbEntity
  8
0
100
AcDbBlockEnd
  0
BLOCK
  5
486
330
485
100
AcDbEntity
  8
0
100
AcDbBlockBegin
  2
KOZU0012
 70
     0
 10
0.0
 20
0.0
 30
0.0
  3
KOZU0012
  1

  0
POLYLINE
  5
79
330
485
100
AcDbEntity
  8
0
  6
Continuous
 62
     7
100
AcDb2dPolyline
 66
     1
 10
0.0
 20
0.0
 30
0.0
 70
     1
 40
0.4000000100000002
 41
0.4000000100000002
  0
VERTEX
  5
372
330
79
100
AcDbEntity
  8
0
  6
Continuous
 62
     7
100
AcDbVertex
100
AcDb2dVertex
 10
-0.2
 20
0.0
 30
0.0
 42
1.0
  0
VERTEX
  5
373
330
79
100
AcDbEntity
  8
0
  6
Continuous
 62
     7
100
AcDbVertex
100
AcDb2dVertex
 10
0.2
 20
0.0
 30
0.0
 42
1.0
  0
SEQEND
  5
374
330
79
100
AcDbEntity
  8
0
  6
Continuous
 62
     7
  0
ENDBLK
  5
7D
330
485
100
AcDbEntity
  8
0
100
AcDbBlockEnd
  0
BLOCK
  5
488
330
487
100
AcDbEntity
  8
0
100
AcDbBlockBegin
  2
KOZU0013
 70
     0
 10
0.0
 20
0.0
 30
0.0
  3
KOZU0013
  1

  0
POLYLINE
  5
80
330
487
100
AcDbEntity
  8
0
  6
Continuous
 62
     7
100
AcDb2dPolyline
 66
     1
 10
0.0
 20
0.0
 30
0.0
 70
     1
 40
0.4000000100000002
 41
0.4000000100000002
  0
VERTEX
  5
375
330
80
100
AcDbEntity
  8
0
  6
Continuous
 62
     7
100
AcDbVertex
100
AcDb2dVertex
 10
-0.2
 20
0.0
 30
0.0
 42
1.0
  0
VERTEX
  5
376
330
80
100
AcDbEntity
  8
0
  6
Continuous
 62
     7
100
AcDbVertex
100
AcDb2dVertex
 10
0.2
 20
0.0
 30
0.0
 42
1.0
  0
SEQEND
  5
377
330
80
100
AcDbEntity
  8
0
  6
Continuous
 62
     7
  0
ENDBLK
  5
84
330
487
100
AcDbEntity
  8
0
100
AcDbBlockEnd
  0
BLOCK
  5
48A
330
489
100
AcDbEntity
  8
0
100
AcDbBlockBegin
  2
KOZU0014
 70
     0
 10
0.0
 20
0.0
 30
0.0
  3
KOZU0014
  1

  0
POLYLINE
  5
87
330
489
100
AcDbEntity
  8
0
  6
Continuous
 62
     7
100
AcDb2dPolyline
 66
     1
 10
0.0
 20
0.0
 30
0.0
 70
     1
 40
0.4000000100000002
 41
0.4000000100000002
  0
VERTEX
  5
378
330
87
100
AcDbEntity
  8
0
  6
Continuous
 62
     7
100
AcDbVertex
100
AcDb2dVertex
 10
-0.2
 20
0.0
 30
0.0
 42
1.0
  0
VERTEX
  5
379
330
87
100
AcDbEntity
  8
0
  6
Continuous
 62
     7
100
AcDbVertex
100
AcDb2dVertex
 10
0.2
 20
0.0
 30
0.0
 42
1.0
  0
SEQEND
  5
37A
330
87
100
AcDbEntity
  8
0
  6
Continuous
 62
     7
  0
ENDBLK
  5
8B
330
489
100
AcDbEntity
  8
0
100
AcDbBlockEnd
  0
BLOCK
  5
48C
330
48B
100
AcDbEntity
  8
0
100
AcDbBlockBegin
  2
KOZU0015
 70
     0
 10
0.0
 20
0.0
 30
0.0
  3
KOZU0015
  1

  0
POLYLINE
  5
8E
330
48B
100
AcDbEntity
  8
0
  6
Continuous
 62
     7
100
AcDb2dPolyline
 66
     1
 10
0.0
 20
0.0
 30
0.0
 70
     1
 40
0.4000000100000002
 41
0.4000000100000002
  0
VERTEX
  5
37B
330
8E
100
AcDbEntity
  8
0
  6
Continuous
 62
     7
100
AcDbVertex
100
AcDb2dVertex
 10
-0.2
 20
0.0
 30
0.0
 42
1.0
  0
VERTEX
  5
37C
330
8E
100
AcDbEntity
  8
0
  6
Continuous
 62
     7
100
AcDbVertex
100
AcDb2dVertex
 10
0.2
 20
0.0
 30
0.0
 42
1.0
  0
SEQEND
  5
37D
330
8E
100
AcDbEntity
  8
0
  6
Continuous
 62
     7
  0
ENDBLK
  5
92
330
48B
100
AcDbEntity
  8
0
100
AcDbBlockEnd
  0
BLOCK
  5
48E
330
48D
100
AcDbEntity
  8
0
100
AcDbBlockBegin
  2
KOZU0016
 70
     0
 10
0.0
 20
0.0
 30
0.0
  3
KOZU0016
  1

  0
POLYLINE
  5
95
330
48D
100
AcDbEntity
  8
0
  6
Continuous
 62
     7
100
AcDb2dPolyline
 66
     1
 10
0.0
 20
0.0
 30
0.0
 70
     1
 40
0.4000000100000002
 41
0.4000000100000002
  0
VERTEX
  5
37E
330
95
100
AcDbEntity
  8
0
  6
Continuous
 62
     7
100
AcDbVertex
100
AcDb2dVertex
 10
-0.2
 20
0.0
 30
0.0
 42
1.0
  0
VERTEX
  5
37F
330
95
100
AcDbEntity
  8
0
  6
Continuous
 62
     7
100
AcDbVertex
100
AcDb2dVertex
 10
0.2
 20
0.0
 30
0.0
 42
1.0
  0
SEQEND
  5
380
330
95
100
AcDbEntity
  8
0
  6
Continuous
 62
     7
  0
ENDBLK
  5
99
330
48D
100
AcDbEntity
  8
0
100
AcDbBlockEnd
  0
BLOCK
  5
490
330
48F
100
AcDbEntity
  8
0
100
AcDbBlockBegin
  2
KOZU0017
 70
     0
 10
0.0
 20
0.0
 30
0.0
  3
KOZU0017
  1

  0
POLYLINE
  5
9C
330
48F
100
AcDbEntity
  8
0
  6
Continuous
 62
     7
100
AcDb2dPolyline
 66
     1
 10
0.0
 20
0.0
 30
0.0
 70
     1
 40
0.4000000100000002
 41
0.4000000100000002
  0
VERTEX
  5
381
330
9C
100
AcDbEntity
  8
0
  6
Continuous
 62
     7
100
AcDbVertex
100
AcDb2dVertex
 10
-0.2
 20
0.0
 30
0.0
 42
1.0
  0
VERTEX
  5
382
330
9C
100
AcDbEntity
  8
0
  6
Continuous
 62
     7
100
AcDbVertex
100
AcDb2dVertex
 10
0.2
 20
0.0
 30
0.0
 42
1.0
  0
SEQEND
  5
383
330
9C
100
AcDbEntity
  8
0
  6
Continuous
 62
     7
  0
ENDBLK
  5
A0
330
48F
100
AcDbEntity
  8
0
100
AcDbBlockEnd
  0
BLOCK
  5
492
330
491
100
AcDbEntity
  8
0
100
AcDbBlockBegin
  2
KOZU0018
 70
     0
 10
0.0
 20
0.0
 30
0.0
  3
KOZU0018
  1

  0
POLYLINE
  5
A3
330
491
100
AcDbEntity
  8
0
  6
Continuous
 62
     7
100
AcDb2dPolyline
 66
     1
 10
0.0
 20
0.0
 30
0.0
 70
     1
 40
0.4000000100000002
 41
0.4000000100000002
  0
VERTEX
  5
384
330
A3
100
AcDbEntity
  8
0
  6
Continuous
 62
     7
100
AcDbVertex
100
AcDb2dVertex
 10
-0.2
 20
0.0
 30
0.0
 42
1.0
  0
VERTEX
  5
385
330
A3
100
AcDbEntity
  8
0
  6
Continuous
 62
     7
100
AcDbVertex
100
AcDb2dVertex
 10
0.2
 20
0.0
 30
0.0
 42
1.0
  0
SEQEND
  5
386
330
A3
100
AcDbEntity
  8
0
  6
Continuous
 62
     7
  0
ENDBLK
  5
A7
330
491
100
AcDbEntity
  8
0
100
AcDbBlockEnd
  0
BLOCK
  5
494
330
493
100
AcDbEntity
  8
0
100
AcDbBlockBegin
  2
KOZU0019
 70
     0
 10
0.0
 20
0.0
 30
0.0
  3
KOZU0019
  1

  0
POLYLINE
  5
AA
330
493
100
AcDbEntity
  8
0
  6
Continuous
 62
     7
100
AcDb2dPolyline
 66
     1
 10
0.0
 20
0.0
 30
0.0
 70
     1
 40
0.4000000100000002
 41
0.4000000100000002
  0
VERTEX
  5
387
330
AA
100
AcDbEntity
  8
0
  6
Continuous
 62
     7
100
AcDbVertex
100
AcDb2dVertex
 10
-0.2
 20
0.0
 30
0.0
 42
1.0
  0
VERTEX
  5
388
330
AA
100
AcDbEntity
  8
0
  6
Continuous
 62
     7
100
AcDbVertex
100
AcDb2dVertex
 10
0.2
 20
0.0
 30
0.0
 42
1.0
  0
SEQEND
  5
389
330
AA
100
AcDbEntity
  8
0
  6
Continuous
 62
     7
  0
ENDBLK
  5
AE
330
493
100
AcDbEntity
  8
0
100
AcDbBlockEnd
  0
BLOCK
  5
496
330
495
100
AcDbEntity
  8
0
100
AcDbBlockBegin
  2
KOZU0020
 70
     0
 10
0.0
 20
0.0
 30
0.0
  3
KOZU0020
  1

  0
POLYLINE
  5
B1
330
495
100
AcDbEntity
  8
0
  6
Continuous
 62
     7
100
AcDb2dPolyline
 66
     1
 10
0.0
 20
0.0
 30
0.0
 70
     1
 40
0.4000000100000002
 41
0.4000000100000002
  0
VERTEX
  5
38A
330
B1
100
AcDbEntity
  8
0
  6
Continuous
 62
     7
100
AcDbVertex
100
AcDb2dVertex
 10
-0.2
 20
0.0
 30
0.0
 42
1.0
  0
VERTEX
  5
38B
330
B1
100
AcDbEntity
  8
0
  6
Continuous
 62
     7
100
AcDbVertex
100
AcDb2dVertex
 10
0.2
 20
0.0
 30
0.0
 42
1.0
  0
SEQEND
  5
38C
330
B1
100
AcDbEntity
  8
0
  6
Continuous
 62
     7
  0
ENDBLK
  5
B5
330
495
100
AcDbEntity
  8
0
100
AcDbBlockEnd
  0
BLOCK
  5
498
330
497
100
AcDbEntity
  8
0
100
AcDbBlockBegin
  2
KOZU0021
 70
     0
 10
0.0
 20
0.0
 30
0.0
  3
KOZU0021
  1

  0
POLYLINE
  5
B8
330
497
100
AcDbEntity
  8
0
  6
Continuous
 62
     7
100
AcDb2dPolyline
 66
     1
 10
0.0
 20
0.0
 30
0.0
 70
     1
 40
0.4000000100000002
 41
0.4000000100000002
  0
VERTEX
  5
38D
330
B8
100
AcDbEntity
  8
0
  6
Continuous
 62
     7
100
AcDbVertex
100
AcDb2dVertex
 10
-0.2
 20
0.0
 30
0.0
 42
1.0
  0
VERTEX
  5
38E
330
B8
100
AcDbEntity
  8
0
  6
Continuous
 62
     7
100
AcDbVertex
100
AcDb2dVertex
 10
0.2
 20
0.0
 30
0.0
 42
1.0
  0
SEQEND
  5
38F
330
B8
100
AcDbEntity
  8
0
  6
Continuous
 62
     7
  0
ENDBLK
  5
BC
330
497
100
AcDbEntity
  8
0
100
AcDbBlockEnd
  0
BLOCK
  5
49A
330
499
100
AcDbEntity
  8
0
100
AcDbBlockBegin
  2
KOZU0022
 70
     0
 10
0.0
 20
0.0
 30
0.0
  3
KOZU0022
  1

  0
POLYLINE
  5
BF
330
499
100
AcDbEntity
  8
0
  6
Continuous
 62
     7
100
AcDb2dPolyline
 66
     1
 10
0.0
 20
0.0
 30
0.0
 70
     1
 40
0.4000000100000002
 41
0.4000000100000002
  0
VERTEX
  5
390
330
BF
100
AcDbEntity
  8
0
  6
Continuous
 62
     7
100
AcDbVertex
100
AcDb2dVertex
 10
-0.2
 20
0.0
 30
0.0
 42
1.0
  0
VERTEX
  5
391
330
BF
100
AcDbEntity
  8
0
  6
Continuous
 62
     7
100
AcDbVertex
100
AcDb2dVertex
 10
0.2
 20
0.0
 30
0.0
 42
1.0
  0
SEQEND
  5
392
330
BF
100
AcDbEntity
  8
0
  6
Continuous
 62
     7
  0
ENDBLK
  5
C3
330
499
100
AcDbEntity
  8
0
100
AcDbBlockEnd
  0
BLOCK
  5
49C
330
49B
100
AcDbEntity
  8
0
100
AcDbBlockBegin
  2
KOZU0023
 70
     0
 10
0.0
 20
0.0
 30
0.0
  3
KOZU0023
  1

  0
POLYLINE
  5
C6
330
49B
100
AcDbEntity
  8
0
  6
Continuous
 62
     7
100
AcDb2dPolyline
 66
     1
 10
0.0
 20
0.0
 30
0.0
 70
     1
 40
0.4000000100000002
 41
0.4000000100000002
  0
VERTEX
  5
393
330
C6
100
AcDbEntity
  8
0
  6
Continuous
 62
     7
100
AcDbVertex
100
AcDb2dVertex
 10
-0.2
 20
0.0
 30
0.0
 42
1.0
  0
VERTEX
  5
394
330
C6
100
AcDbEntity
  8
0
  6
Continuous
 62
     7
100
AcDbVertex
100
AcDb2dVertex
 10
0.2
 20
0.0
 30
0.0
 42
1.0
  0
SEQEND
  5
395
330
C6
100
AcDbEntity
  8
0
  6
Continuous
 62
     7
  0
ENDBLK
  5
CA
330
49B
100
AcDbEntity
  8
0
100
AcDbBlockEnd
  0
BLOCK
  5
49E
330
49D
100
AcDbEntity
  8
0
100
AcDbBlockBegin
  2
KOZU0024
 70
     0
 10
0.0
 20
0.0
 30
0.0
  3
KOZU0024
  1

  0
POLYLINE
  5
CD
330
49D
100
AcDbEntity
  8
0
  6
Continuous
 62
     7
100
AcDb2dPolyline
 66
     1
 10
0.0
 20
0.0
 30
0.0
 70
     1
 40
0.4000000100000002
 41
0.4000000100000002
  0
VERTEX
  5
396
330
CD
100
AcDbEntity
  8
0
  6
Continuous
 62
     7
100
AcDbVertex
100
AcDb2dVertex
 10
-0.2
 20
0.0
 30
0.0
 42
1.0
  0
VERTEX
  5
397
330
CD
100
AcDbEntity
  8
0
  6
Continuous
 62
     7
100
AcDbVertex
100
AcDb2dVertex
 10
0.2
 20
0.0
 30
0.0
 42
1.0
  0
SEQEND
  5
398
330
CD
100
AcDbEntity
  8
0
  6
Continuous
 62
     7
  0
ENDBLK
  5
D1
330
49D
100
AcDbEntity
  8
0
100
AcDbBlockEnd
  0
BLOCK
  5
4A0
330
49F
100
AcDbEntity
  8
0
100
AcDbBlockBegin
  2
KOZU0025
 70
     0
 10
0.0
 20
0.0
 30
0.0
  3
KOZU0025
  1

  0
POLYLINE
  5
D4
330
49F
100
AcDbEntity
  8
0
  6
Continuous
 62
     7
100
AcDb2dPolyline
 66
     1
 10
0.0
 20
0.0
 30
0.0
 70
     1
 40
0.4000000100000002
 41
0.4000000100000002
  0
VERTEX
  5
399
330
D4
100
AcDbEntity
  8
0
  6
Continuous
 62
     7
100
AcDbVertex
100
AcDb2dVertex
 10
-0.2
 20
0.0
 30
0.0
 42
1.0
  0
VERTEX
  5
39A
330
D4
100
AcDbEntity
  8
0
  6
Continuous
 62
     7
100
AcDbVertex
100
AcDb2dVertex
 10
0.2
 20
0.0
 30
0.0
 42
1.0
  0
SEQEND
  5
39B
330
D4
100
AcDbEntity
  8
0
  6
Continuous
 62
     7
  0
ENDBLK
  5
D8
330
49F
100
AcDbEntity
  8
0
100
AcDbBlockEnd
  0
BLOCK
  5
4A2
330
4A1
100
AcDbEntity
  8
0
100
AcDbBlockBegin
  2
KOZU0026
 70
     0
 10
0.0
 20
0.0
 30
0.0
  3
KOZU0026
  1

  0
POLYLINE
  5
DB
330
4A1
100
AcDbEntity
  8
0
  6
Continuous
 62
     7
100
AcDb2dPolyline
 66
     1
 10
0.0
 20
0.0
 30
0.0
 70
     1
 40
0.4000000100000002
 41
0.4000000100000002
  0
VERTEX
  5
39C
330
DB
100
AcDbEntity
  8
0
  6
Continuous
 62
     7
100
AcDbVertex
100
AcDb2dVertex
 10
-0.2
 20
0.0
 30
0.0
 42
1.0
  0
VERTEX
  5
39D
330
DB
100
AcDbEntity
  8
0
  6
Continuous
 62
     7
100
AcDbVertex
100
AcDb2dVertex
 10
0.2
 20
0.0
 30
0.0
 42
1.0
  0
SEQEND
  5
39E
330
DB
100
AcDbEntity
  8
0
  6
Continuous
 62
     7
  0
ENDBLK
  5
DF
330
4A1
100
AcDbEntity
  8
0
100
AcDbBlockEnd
  0
BLOCK
  5
4A4
330
4A3
100
AcDbEntity
  8
0
100
AcDbBlockBegin
  2
KOZU0027
 70
     0
 10
0.0
 20
0.0
 30
0.0
  3
KOZU0027
  1

  0
POLYLINE
  5
E2
330
4A3
100
AcDbEntity
  8
0
  6
Continuous
 62
     7
100
AcDb2dPolyline
 66
     1
 10
0.0
 20
0.0
 30
0.0
 70
     1
 40
0.4000000100000002
 41
0.4000000100000002
  0
VERTEX
  5
39F
330
E2
100
AcDbEntity
  8
0
  6
Continuous
 62
     7
100
AcDbVertex
100
AcDb2dVertex
 10
-0.2
 20
0.0
 30
0.0
 42
1.0
  0
VERTEX
  5
3A0
330
E2
100
AcDbEntity
  8
0
  6
Continuous
 62
     7
100
AcDbVertex
100
AcDb2dVertex
 10
0.2
 20
0.0
 30
0.0
 42
1.0
  0
SEQEND
  5
3A1
330
E2
100
AcDbEntity
  8
0
  6
Continuous
 62
     7
  0
ENDBLK
  5
E6
330
4A3
100
AcDbEntity
  8
0
100
AcDbBlockEnd
  0
BLOCK
  5
4A6
330
4A5
100
AcDbEntity
  8
0
100
AcDbBlockBegin
  2
KOZU0028
 70
     0
 10
0.0
 20
0.0
 30
0.0
  3
KOZU0028
  1

  0
POLYLINE
  5
E9
330
4A5
100
AcDbEntity
  8
0
  6
Continuous
 62
     7
100
AcDb2dPolyline
 66
     1
 10
0.0
 20
0.0
 30
0.0
 70
     1
 40
0.4000000100000002
 41
0.4000000100000002
  0
VERTEX
  5
3A2
330
E9
100
AcDbEntity
  8
0
  6
Continuous
 62
     7
100
AcDbVertex
100
AcDb2dVertex
 10
-0.2
 20
0.0
 30
0.0
 42
1.0
  0
VERTEX
  5
3A3
330
E9
100
AcDbEntity
  8
0
  6
Continuous
 62
     7
100
AcDbVertex
100
AcDb2dVertex
 10
0.2
 20
0.0
 30
0.0
 42
1.0
  0
SEQEND
  5
3A4
330
E9
100
AcDbEntity
  8
0
  6
Continuous
 62
     7
  0
ENDBLK
  5
ED
330
4A5
100
AcDbEntity
  8
0
100
AcDbBlockEnd
  0
BLOCK
  5
4A8
330
4A7
100
AcDbEntity
  8
0
100
AcDbBlockBegin
  2
KOZU0029
 70
     0
 10
0.0
 20
0.0
 30
0.0
  3
KOZU0029
  1

  0
POLYLINE
  5
F0
330
4A7
100
AcDbEntity
  8
0
  6
Continuous
 62
     7
100
AcDb2dPolyline
 66
     1
 10
0.0
 20
0.0
 30
0.0
 70
     1
 40
0.4000000100000002
 41
0.4000000100000002
  0
VERTEX
  5
3A5
330
F0
100
AcDbEntity
  8
0
  6
Continuous
 62
     7
100
AcDbVertex
100
AcDb2dVertex
 10
-0.2
 20
0.0
 30
0.0
 42
1.0
  0
VERTEX
  5
3A6
330
F0
100
AcDbEntity
  8
0
  6
Continuous
 62
     7
100
AcDbVertex
100
AcDb2dVertex
 10
0.2
 20
0.0
 30
0.0
 42
1.0
  0
SEQEND
  5
3A7
330
F0
100
AcDbEntity
  8
0
  6
Continuous
 62
     7
  0
ENDBLK
  5
F4
330
4A7
100
AcDbEntity
  8
0
100
AcDbBlockEnd
  0
BLOCK
  5
4AA
330
4A9
100
AcDbEntity
  8
0
100
AcDbBlockBegin
  2
KOZU0030
 70
     0
 10
0.0
 20
0.0
 30
0.0
  3
KOZU0030
  1

  0
POLYLINE
  5
F7
330
4A9
100
AcDbEntity
  8
0
  6
Continuous
 62
     7
100
AcDb2dPolyline
 66
     1
 10
0.0
 20
0.0
 30
0.0
 70
     1
 40
0.4000000100000002
 41
0.4000000100000002
  0
VERTEX
  5
3A8
330
F7
100
AcDbEntity
  8
0
  6
Continuous
 62
     7
100
AcDbVertex
100
AcDb2dVertex
 10
-0.2
 20
0.0
 30
0.0
 42
1.0
  0
VERTEX
  5
3A9
330
F7
100
AcDbEntity
  8
0
  6
Continuous
 62
     7
100
AcDbVertex
100
AcDb2dVertex
 10
0.2
 20
0.0
 30
0.0
 42
1.0
  0
SEQEND
  5
3AA
330
F7
100
AcDbEntity
  8
0
  6
Continuous
 62
     7
  0
ENDBLK
  5
FB
330
4A9
100
AcDbEntity
  8
0
100
AcDbBlockEnd
  0
BLOCK
  5
4AC
330
4AB
100
AcDbEntity
  8
0
100
AcDbBlockBegin
  2
KOZU0031
 70
     0
 10
0.0
 20
0.0
 30
0.0
  3
KOZU0031
  1

  0
POLYLINE
  5
FE
330
4AB
100
AcDbEntity
  8
0
  6
Continuous
 62
     7
100
AcDb2dPolyline
 66
     1
 10
0.0
 20
0.0
 30
0.0
 70
     1
 40
0.4000000100000002
 41
0.4000000100000002
  0
VERTEX
  5
3AB
330
FE
100
AcDbEntity
  8
0
  6
Continuous
 62
     7
100
AcDbVertex
100
AcDb2dVertex
 10
-0.2
 20
0.0
 30
0.0
 42
1.0
  0
VERTEX
  5
3AC
330
FE
100
AcDbEntity
  8
0
  6
Continuous
 62
     7
100
AcDbVertex
100
AcDb2dVertex
 10
0.2
 20
0.0
 30
0.0
 42
1.0
  0
SEQEND
  5
3AD
330
FE
100
AcDbEntity
  8
0
  6
Continuous
 62
     7
  0
ENDBLK
  5
102
330
4AB
100
AcDbEntity
  8
0
100
AcDbBlockEnd
  0
BLOCK
  5
4AE
330
4AD
100
AcDbEntity
  8
0
100
AcDbBlockBegin
  2
KOZU0032
 70
     0
 10
0.0
 20
0.0
 30
0.0
  3
KOZU0032
  1

  0
POLYLINE
  5
105
330
4AD
100
AcDbEntity
  8
0
  6
Continuous
 62
     7
100
AcDb2dPolyline
 66
     1
 10
0.0
 20
0.0
 30
0.0
 70
     1
 40
0.4000000100000002
 41
0.4000000100000002
  0
VERTEX
  5
3AE
330
105
100
AcDbEntity
  8
0
  6
Continuous
 62
     7
100
AcDbVertex
100
AcDb2dVertex
 10
-0.2
 20
0.0
 30
0.0
 42
1.0
  0
VERTEX
  5
3AF
330
105
100
AcDbEntity
  8
0
  6
Continuous
 62
     7
100
AcDbVertex
100
AcDb2dVertex
 10
0.2
 20
0.0
 30
0.0
 42
1.0
  0
SEQEND
  5
3B0
330
105
100
AcDbEntity
  8
0
  6
Continuous
 62
     7
  0
ENDBLK
  5
109
330
4AD
100
AcDbEntity
  8
0
100
AcDbBlockEnd
  0
BLOCK
  5
4B0
330
4AF
100
AcDbEntity
  8
0
100
AcDbBlockBegin
  2
KOZU0033
 70
     0
 10
0.0
 20
0.0
 30
0.0
  3
KOZU0033
  1

  0
POLYLINE
  5
10C
330
4AF
100
AcDbEntity
  8
0
  6
Continuous
 62
     7
100
AcDb2dPolyline
 66
     1
 10
0.0
 20
0.0
 30
0.0
 70
     1
 40
0.4000000100000002
 41
0.4000000100000002
  0
VERTEX
  5
3B1
330
10C
100
AcDbEntity
  8
0
  6
Continuous
 62
     7
100
AcDbVertex
100
AcDb2dVertex
 10
-0.2
 20
0.0
 30
0.0
 42
1.0
  0
VERTEX
  5
3B2
330
10C
100
AcDbEntity
  8
0
  6
Continuous
 62
     7
100
AcDbVertex
100
AcDb2dVertex
 10
0.2
 20
0.0
 30
0.0
 42
1.0
  0
SEQEND
  5
3B3
330
10C
100
AcDbEntity
  8
0
  6
Continuous
 62
     7
  0
ENDBLK
  5
110
330
4AF
100
AcDbEntity
  8
0
100
AcDbBlockEnd
  0
BLOCK
  5
4B2
330
4B1
100
AcDbEntity
  8
0
100
AcDbBlockBegin
  2
KOZU0034
 70
     0
 10
0.0
 20
0.0
 30
0.0
  3
KOZU0034
  1

  0
POLYLINE
  5
113
330
4B1
100
AcDbEntity
  8
0
  6
Continuous
 62
     7
100
AcDb2dPolyline
 66
     1
 10
0.0
 20
0.0
 30
0.0
 70
     1
 40
0.4000000100000002
 41
0.4000000100000002
  0
VERTEX
  5
3B4
330
113
100
AcDbEntity
  8
0
  6
Continuous
 62
     7
100
AcDbVertex
100
AcDb2dVertex
 10
-0.2
 20
0.0
 30
0.0
 42
1.0
  0
VERTEX
  5
3B5
330
113
100
AcDbEntity
  8
0
  6
Continuous
 62
     7
100
AcDbVertex
100
AcDb2dVertex
 10
0.2
 20
0.0
 30
0.0
 42
1.0
  0
SEQEND
  5
3B6
330
113
100
AcDbEntity
  8
0
  6
Continuous
 62
     7
  0
ENDBLK
  5
117
330
4B1
100
AcDbEntity
  8
0
100
AcDbBlockEnd
  0
BLOCK
  5
4B4
330
4B3
100
AcDbEntity
  8
0
100
AcDbBlockBegin
  2
KOZU0035
 70
     0
 10
0.0
 20
0.0
 30
0.0
  3
KOZU0035
  1

  0
POLYLINE
  5
11A
330
4B3
100
AcDbEntity
  8
0
  6
Continuous
 62
     7
100
AcDb2dPolyline
 66
     1
 10
0.0
 20
0.0
 30
0.0
 70
     1
 40
0.4000000100000002
 41
0.4000000100000002
  0
VERTEX
  5
3B7
330
11A
100
AcDbEntity
  8
0
  6
Continuous
 62
     7
100
AcDbVertex
100
AcDb2dVertex
 10
-0.2
 20
0.0
 30
0.0
 42
1.0
  0
VERTEX
  5
3B8
330
11A
100
AcDbEntity
  8
0
  6
Continuous
 62
     7
100
AcDbVertex
100
AcDb2dVertex
 10
0.2
 20
0.0
 30
0.0
 42
1.0
  0
SEQEND
  5
3B9
330
11A
100
AcDbEntity
  8
0
  6
Continuous
 62
     7
  0
ENDBLK
  5
11E
330
4B3
100
AcDbEntity
  8
0
100
AcDbBlockEnd
  0
BLOCK
  5
4B6
330
4B5
100
AcDbEntity
  8
0
100
AcDbBlockBegin
  2
KOZU0036
 70
     0
 10
0.0
 20
0.0
 30
0.0
  3
KOZU0036
  1

  0
POLYLINE
  5
121
330
4B5
100
AcDbEntity
  8
0
  6
Continuous
 62
     7
100
AcDb2dPolyline
 66
     1
 10
0.0
 20
0.0
 30
0.0
 70
     1
 40
0.4000000100000002
 41
0.4000000100000002
  0
VERTEX
  5
3BA
330
121
100
AcDbEntity
  8
0
  6
Continuous
 62
     7
100
AcDbVertex
100
AcDb2dVertex
 10
-0.2
 20
0.0
 30
0.0
 42
1.0
  0
VERTEX
  5
3BB
330
121
100
AcDbEntity
  8
0
  6
Continuous
 62
     7
100
AcDbVertex
100
AcDb2dVertex
 10
0.2
 20
0.0
 30
0.0
 42
1.0
  0
SEQEND
  5
3BC
330
121
100
AcDbEntity
  8
0
  6
Continuous
 62
     7
  0
ENDBLK
  5
125
330
4B5
100
AcDbEntity
  8
0
100
AcDbBlockEnd
  0
BLOCK
  5
4B8
330
4B7
100
AcDbEntity
  8
0
100
AcDbBlockBegin
  2
KOZU0037
 70
     0
 10
0.0
 20
0.0
 30
0.0
  3
KOZU0037
  1

  0
POLYLINE
  5
128
330
4B7
100
AcDbEntity
  8
0
  6
Continuous
 62
     7
100
AcDb2dPolyline
 66
     1
 10
0.0
 20
0.0
 30
0.0
 70
     1
 40
0.4000000100000002
 41
0.4000000100000002
  0
VERTEX
  5
3BD
330
128
100
AcDbEntity
  8
0
  6
Continuous
 62
     7
100
AcDbVertex
100
AcDb2dVertex
 10
-0.2
 20
0.0
 30
0.0
 42
1.0
  0
VERTEX
  5
3BE
330
128
100
AcDbEntity
  8
0
  6
Continuous
 62
     7
100
AcDbVertex
100
AcDb2dVertex
 10
0.2
 20
0.0
 30
0.0
 42
1.0
  0
SEQEND
  5
3BF
330
128
100
AcDbEntity
  8
0
  6
Continuous
 62
     7
  0
ENDBLK
  5
12C
330
4B7
100
AcDbEntity
  8
0
100
AcDbBlockEnd
  0
BLOCK
  5
4BA
330
4B9
100
AcDbEntity
  8
0
100
AcDbBlockBegin
  2
KOZU0038
 70
     0
 10
0.0
 20
0.0
 30
0.0
  3
KOZU0038
  1

  0
POLYLINE
  5
12F
330
4B9
100
AcDbEntity
  8
0
  6
Continuous
 62
     7
100
AcDb2dPolyline
 66
     1
 10
0.0
 20
0.0
 30
0.0
 70
     1
 40
0.4000000100000002
 41
0.4000000100000002
  0
VERTEX
  5
3C0
330
12F
100
AcDbEntity
  8
0
  6
Continuous
 62
     7
100
AcDbVertex
100
AcDb2dVertex
 10
-0.2
 20
0.0
 30
0.0
 42
1.0
  0
VERTEX
  5
3C1
330
12F
100
AcDbEntity
  8
0
  6
Continuous
 62
     7
100
AcDbVertex
100
AcDb2dVertex
 10
0.2
 20
0.0
 30
0.0
 42
1.0
  0
SEQEND
  5
3C2
330
12F
100
AcDbEntity
  8
0
  6
Continuous
 62
     7
  0
ENDBLK
  5
133
330
4B9
100
AcDbEntity
  8
0
100
AcDbBlockEnd
  0
BLOCK
  5
4BC
330
4BB
100
AcDbEntity
  8
0
100
AcDbBlockBegin
  2
KOZU0039
 70
     0
 10
0.0
 20
0.0
 30
0.0
  3
KOZU0039
  1

  0
POLYLINE
  5
136
330
4BB
100
AcDbEntity
  8
0
  6
Continuous
 62
     7
100
AcDb2dPolyline
 66
     1
 10
0.0
 20
0.0
 30
0.0
 70
     1
 40
0.4000000100000002
 41
0.4000000100000002
  0
VERTEX
  5
3C3
330
136
100
AcDbEntity
  8
0
  6
Continuous
 62
     7
100
AcDbVertex
100
AcDb2dVertex
 10
-0.2
 20
0.0
 30
0.0
 42
1.0
  0
VERTEX
  5
3C4
330
136
100
AcDbEntity
  8
0
  6
Continuous
 62
     7
100
AcDbVertex
100
AcDb2dVertex
 10
0.2
 20
0.0
 30
0.0
 42
1.0
  0
SEQEND
  5
3C5
330
136
100
AcDbEntity
  8
0
  6
Continuous
 62
     7
  0
ENDBLK
  5
13A
330
4BB
100
AcDbEntity
  8
0
100
AcDbBlockEnd
  0
BLOCK
  5
4BE
330
4BD
100
AcDbEntity
  8
0
100
AcDbBlockBegin
  2
KOZU0040
 70
     0
 10
0.0
 20
0.0
 30
0.0
  3
KOZU0040
  1

  0
POLYLINE
  5
13D
330
4BD
100
AcDbEntity
  8
0
  6
Continuous
 62
     7
100
AcDb2dPolyline
 66
     1
 10
0.0
 20
0.0
 30
0.0
 70
     1
 40
0.4000000100000002
 41
0.4000000100000002
  0
VERTEX
  5
3C6
330
13D
100
AcDbEntity
  8
0
  6
Continuous
 62
     7
100
AcDbVertex
100
AcDb2dVertex
 10
-0.2
 20
0.0
 30
0.0
 42
1.0
  0
VERTEX
  5
3C7
330
13D
100
AcDbEntity
  8
0
  6
Continuous
 62
     7
100
AcDbVertex
100
AcDb2dVertex
 10
0.2
 20
0.0
 30
0.0
 42
1.0
  0
SEQEND
  5
3C8
330
13D
100
AcDbEntity
  8
0
  6
Continuous
 62
     7
  0
ENDBLK
  5
141
330
4BD
100
AcDbEntity
  8
0
100
AcDbBlockEnd
  0
BLOCK
  5
4C0
330
4BF
100
AcDbEntity
  8
0
100
AcDbBlockBegin
  2
KOZU0041
 70
     0
 10
0.0
 20
0.0
 30
0.0
  3
KOZU0041
  1

  0
POLYLINE
  5
144
330
4BF
100
AcDbEntity
  8
0
  6
Continuous
 62
     7
100
AcDb2dPolyline
 66
     1
 10
0.0
 20
0.0
 30
0.0
 70
     1
 40
0.4000000100000002
 41
0.4000000100000002
  0
VERTEX
  5
3C9
330
144
100
AcDbEntity
  8
0
  6
Continuous
 62
     7
100
AcDbVertex
100
AcDb2dVertex
 10
-0.2
 20
0.0
 30
0.0
 42
1.0
  0
VERTEX
  5
3CA
330
144
100
AcDbEntity
  8
0
  6
Continuous
 62
     7
100
AcDbVertex
100
AcDb2dVertex
 10
0.2
 20
0.0
 30
0.0
 42
1.0
  0
SEQEND
  5
3CB
330
144
100
AcDbEntity
  8
0
  6
Continuous
 62
     7
  0
ENDBLK
  5
148
330
4BF
100
AcDbEntity
  8
0
100
AcDbBlockEnd
  0
BLOCK
  5
4C2
330
4C1
100
AcDbEntity
  8
0
100
AcDbBlockBegin
  2
KOZU0042
 70
     0
 10
0.0
 20
0.0
 30
0.0
  3
KOZU0042
  1

  0
POLYLINE
  5
14B
330
4C1
100
AcDbEntity
  8
0
  6
Continuous
 62
     7
100
AcDb2dPolyline
 66
     1
 10
0.0
 20
0.0
 30
0.0
 70
     1
 40
0.4000000100000002
 41
0.4000000100000002
  0
VERTEX
  5
3CC
330
14B
100
AcDbEntity
  8
0
  6
Continuous
 62
     7
100
AcDbVertex
100
AcDb2dVertex
 10
-0.2
 20
0.0
 30
0.0
 42
1.0
  0
VERTEX
  5
3CD
330
14B
100
AcDbEntity
  8
0
  6
Continuous
 62
     7
100
AcDbVertex
100
AcDb2dVertex
 10
0.2
 20
0.0
 30
0.0
 42
1.0
  0
SEQEND
  5
3CE
330
14B
100
AcDbEntity
  8
0
  6
Continuous
 62
     7
  0
ENDBLK
  5
14F
330
4C1
100
AcDbEntity
  8
0
100
AcDbBlockEnd
  0
BLOCK
  5
559
330
557
100
AcDbEntity
  8
0
100
AcDbBlockBegin
  2
GENAXEH
 70
     0
 10
0.0
 20
0.0
 30
0.0
  3
GENAXEH
  1

  0
LINE
  5
558
330
557
100
AcDbEntity
  8
0
100
AcDbLine
 10
-1.0
 20
0.0
 30
0.0
 11
1.0
 21
0.0
 31
0.0
  0
ENDBLK
  5
55A
330
557
100
AcDbEntity
  8
0
100
AcDbBlockEnd
  0
ENDSEC
  0
SECTION
  2
ENTITIES
  0
POINT
  5
151
330
45E
100
AcDbEntity
  8
0
  6
Continuous
 62
     3
100
AcDbPoint
 10
565.3958099999997
 20
428.7104799999998
 30
0.0
  0
POINT
  5
152
330
45E
100
AcDbEntity
  8
0
  6
Continuous
 62
     3
100
AcDbPoint
 10
591.1458099999999
 20
401.7104799999998
 30
0.0
  0
POINT
  5
153
330
45E
100
AcDbEntity
  8
0
  6
Continuous
 62
     3
100
AcDbPoint
 10
555.39581
 20
401.7104799999998
 30
0.0
  0
POINT
  5
154
330
45E
100
AcDbEntity
  8
0
  6
Continuous
 62
     3
100
AcDbPoint
 10
565.3958099999997
 20
489.71048
 30
0.0
  0
POINT
  5
155
330
45E
100
AcDbEntity
  8
0
  6
Continuous
 62
     3
100
AcDbPoint
 10
565.3958099999997
 20
428.7104799999998
 30
0.0
  0
POINT
  5
156
330
45E
100
AcDbEntity
  8
0
  6
Continuous
 62
     3
100
AcDbPoint
 10
545.39581
 20
428.7104799999998
 30
0.0
  0
POINT
  5
157
330
45E
100
AcDbEntity
  8
0
  6
Continuous
 62
     3
100
AcDbPoint
 10
562.39581
 20
455.7104799999998
 30
0.0
  0
POINT
  5
158
330
45E
100
AcDbEntity
  8
0
  6
Continuous
 62
     3
100
AcDbPoint
 10
565.3958099999997
 20
428.7104799999998
 30
0.0
  0
POINT
  5
159
330
45E
100
AcDbEntity
  8
0
  6
Continuous
 62
     3
100
AcDbPoint
 10
555.39581
 20
428.7104799999998
 30
0.0
  0
POINT
  5
15A
330
45E
100
AcDbEntity
  8
0
  6
Continuous
 62
     3
100
AcDbPoint
 10
565.3958099999997
 20
489.71048
 30
0.0
  0
POINT
  5
15B
330
45E
100
AcDbEntity
  8
0
  6
Continuous
 62
     3
100
AcDbPoint
 10
562.39581
 20
455.7104799999998
 30
0.0
  0
POINT
  5
15C
330
45E
100
AcDbEntity
  8
0
  6
Continuous
 62
     3
100
AcDbPoint
 10
555.39581
 20
455.7104799999998
 30
0.0
  0
POINT
  5
15D
330
45E
100
AcDbEntity
  8
0
  6
Continuous
 62
     3
100
AcDbPoint
 10
515.1102299999998
 20
435.71048
 30
0.0
  0
POINT
  5
15E
330
45E
100
AcDbEntity
  8
0
  6
Continuous
 62
     3
100
AcDbPoint
 10
515.1102299999998
 20
465.7104799999998
 30
0.0
  0
POINT
  5
15F
330
45E
100
AcDbEntity
  8
0
  6
Continuous
 62
     3
100
AcDbPoint
 10
534.86023
 20
465.7104799999998
 30
0.0
  0
POINT
  5
160
330
45E
100
AcDbEntity
  8
0
  6
Continuous
 62
     3
100
AcDbPoint
 10
519.86023
 20
436.80127
 30
0.0
  0
POINT
  5
161
330
45E
100
AcDbEntity
  8
0
  6
Continuous
 62
     3
100
AcDbPoint
 10
495.8602299999998
 20
436.80127
 30
0.0
  0
POINT
  5
162
330
45E
100
AcDbEntity
  8
0
  6
Continuous
 62
     3
100
AcDbPoint
 10
495.8602299999998
 20
413.7104799999998
 30
0.0
  0
POINT
  5
163
330
45E
100
AcDbEntity
  8
0
  6
Continuous
 62
     3
100
AcDbPoint
 10
511.8189099999998
 20
428.7104799999998
 30
0.0
  0
POINT
  5
164
330
45E
100
AcDbEntity
  8
0
  6
Continuous
 62
     3
100
AcDbPoint
 10
515.1102299999998
 20
435.71048
 30
0.0
  0
POINT
  5
165
330
45E
100
AcDbEntity
  8
0
  6
Continuous
 62
     3
100
AcDbPoint
 10
534.86023
 20
435.71048
 30
0.0
  0
POINT
  5
166
330
45E
100
AcDbEntity
  8
0
  6
Continuous
 62
     3
100
AcDbPoint
 10
511.8189099999998
 20
489.71048
 30
0.0
  0
POINT
  5
167
330
45E
100
AcDbEntity
  8
0
  6
Continuous
 62
     3
100
AcDbPoint
 10
515.1102299999998
 20
465.7104799999998
 30
0.0
  0
POINT
  5
168
330
45E
100
AcDbEntity
  8
0
  6
Continuous
 62
     3
100
AcDbPoint
 10
534.86023
 20
465.7104799999998
 30
0.0
  0
POINT
  5
169
330
45E
100
AcDbEntity
  8
0
  6
Continuous
 62
     3
100
AcDbPoint
 10
628.6458099999999
 20
453.7104799999998
 30
0.0
  0
POINT
  5
16A
330
45E
100
AcDbEntity
  8
0
  6
Continuous
 62
     3
100
AcDbPoint
 10
621.1458099999997
 20
401.7104799999998
 30
0.0
  0
POINT
  5
16B
330
45E
100
AcDbEntity
  8
0
  6
Continuous
 62
     3
100
AcDbPoint
 10
653.6458099999999
 20
401.7104799999998
 30
0.0
  0
POINT
  5
16C
330
45E
100
AcDbEntity
  8
0
  6
Continuous
 62
     3
100
AcDbPoint
 10
628.6458099999999
 20
453.7104799999998
 30
0.0
  0
POINT
  5
16D
330
45E
100
AcDbEntity
  8
0
  6
Continuous
 62
     3
100
AcDbPoint
 10
628.6458099999999
 20
441.7104799999998
 30
0.0
  0
POINT
  5
16E
330
45E
100
AcDbEntity
  8
0
  6
Continuous
 62
     3
100
AcDbPoint
 10
643.64581
 20
441.7104799999998
 30
0.0
  0
POINT
  5
16F
330
45E
100
AcDbEntity
  8
0
  6
Continuous
 62
     3
100
AcDbPoint
 10
601.1458099999997
 20
373.06046
 30
0.0
  0
POINT
  5
170
330
45E
100
AcDbEntity
  8
0
  6
Continuous
 62
     3
100
AcDbPoint
 10
611.14581
 20
373.06042
 30
0.0
  0
POINT
  5
171
330
45E
100
AcDbEntity
  8
0
  6
Continuous
 62
     3
100
AcDbPoint
 10
611.14581
 20
346.7104799999999
 30
0.0
  0
POINT
  5
172
330
45E
100
AcDbEntity
  8
0
  6
Continuous
 62
     3
100
AcDbPoint
 10
591.1458099999999
 20
401.7104799999998
 30
0.0
  0
POINT
  5
173
330
45E
100
AcDbEntity
  8
0
  6
Continuous
 62
     3
100
AcDbPoint
 10
621.1458099999997
 20
401.7104799999998
 30
0.0
  0
POINT
  5
174
330
45E
100
AcDbEntity
  8
0
  6
Continuous
 62
     3
100
AcDbPoint
 10
621.1458099999997
 20
336.7104799999999
 30
0.0
  0
POINT
  5
175
330
45E
100
AcDbEntity
  8
0
  6
Continuous
 62
     3
100
AcDbPoint
 10
621.1458099999997
 20
401.7104799999998
 30
0.0
  0
POINT
  5
176
330
45E
100
AcDbEntity
  8
0
  6
Continuous
 62
     3
100
AcDbPoint
 10
606.14581
 20
361.7104799999999
 30
0.0
  0
POINT
  5
177
330
45E
100
AcDbEntity
  8
0
  6
Continuous
 62
     3
100
AcDbPoint
 10
653.6458099999999
 20
361.7104799999999
 30
0.0
  0
POINT
  5
178
330
45E
100
AcDbEntity
  8
0
  6
Continuous
 62
     3
100
AcDbPoint
 10
628.6458099999999
 20
441.7104799999998
 30
0.0
  0
POINT
  5
179
330
45E
100
AcDbEntity
  8
0
  6
Continuous
 62
     3
100
AcDbPoint
 10
621.1458099999997
 20
401.7104799999998
 30
0.0
  0
POINT
  5
17A
330
45E
100
AcDbEntity
  8
0
  6
Continuous
 62
     3
100
AcDbPoint
 10
643.64581
 20
401.7104799999998
 30
0.0
  0
POINT
  5
17B
330
45E
100
AcDbEntity
  8
0
  6
Continuous
 62
     3
100
AcDbPoint
 10
665.3361799999998
 20
509.0797099999998
 30
0.0
  0
POINT
  5
17C
330
45E
100
AcDbEntity
  8
0
  6
Continuous
 62
     3
100
AcDbPoint
 10
715.3361799999997
 20
504.55234
 30
0.0
  0
POINT
  5
17D
330
45E
100
AcDbEntity
  8
0
  6
Continuous
 62
     3
100
AcDbPoint
 10
715.3361799999997
 20
533.56696
 30
0.0
  0
POINT
  5
17E
330
45E
100
AcDbEntity
  8
0
  6
Continuous
 62
     3
100
AcDbPoint
 10
612.6458099999998
 20
463.7104799999998
 30
0.0
  0
POINT
  5
17F
330
45E
100
AcDbEntity
  8
0
  6
Continuous
 62
     3
100
AcDbPoint
 10
628.6458099999999
 20
453.7104799999998
 30
0.0
  0
POINT
  5
180
330
45E
100
AcDbEntity
  8
0
  6
Continuous
 62
     3
100
AcDbPoint
 10
653.6458099999999
 20
453.7104799999998
 30
0.0
  0
POINT
  5
181
330
45E
100
AcDbEntity
  8
0
  6
Continuous
 62
     3
100
AcDbPoint
 10
583.6458099999997
 20
453.7104799999998
 30
0.0
  0
POINT
  5
182
330
45E
100
AcDbEntity
  8
0
  6
Continuous
 62
     3
100
AcDbPoint
 10
628.6458099999999
 20
453.7104799999998
 30
0.0
  0
POINT
  5
183
330
45E
100
AcDbEntity
  8
0
  6
Continuous
 62
     3
100
AcDbPoint
 10
628.6458099999999
 20
501.7104799999998
 30
0.0
  0
POINT
  5
184
330
45E
100
AcDbEntity
  8
0
  6
Continuous
 62
     3
100
AcDbPoint
 10
565.3958099999997
 20
491.7104799999998
 30
0.0
  0
POINT
  5
185
330
45E
100
AcDbEntity
  8
0
  6
Continuous
 62
     3
100
AcDbPoint
 10
575.39581
 20
491.7104799999998
 30
0.0
  0
POINT
  5
186
330
45E
100
AcDbEntity
  8
0
  6
Continuous
 62
     3
100
AcDbPoint
 10
575.39581
 20
501.7104799999998
 30
0.0
  0
POINT
  5
187
330
45E
100
AcDbEntity
  8
0
  6
Continuous
 62
     3
100
AcDbPoint
 10
599.6458099999999
 20
463.7104799999998
 30
0.0
  0
POINT
  5
188
330
45E
100
AcDbEntity
  8
0
  6
Continuous
 62
     3
100
AcDbPoint
 10
612.6458099999998
 20
463.7104799999998
 30
0.0
  0
POINT
  5
189
330
45E
100
AcDbEntity
  8
0
  6
Continuous
 62
     3
100
AcDbPoint
 10
612.6458099999998
 20
473.71048
 30
0.0
  0
POINT
  5
18A
330
45E
100
AcDbEntity
  8
0
  6
Continuous
 62
     3
100
AcDbPoint
 10
669.3361799999999
 20
509.0797099999998
 30
0.0
  0
POINT
  5
18B
330
45E
100
AcDbEntity
  8
0
  6
Continuous
 62
     3
100
AcDbPoint
 10
665.3361799999998
 20
509.0797099999998
 30
0.0
  0
POINT
  5
18C
330
45E
100
AcDbEntity
  8
0
  6
Continuous
 62
     3
100
AcDbPoint
 10
665.3361799999998
 20
523.07971
 30
0.0
  0
POINT
  5
18D
330
45E
100
AcDbEntity
  8
0
  6
Continuous
 62
     3
100
AcDbPoint
 10
505.0574599999998
 20
432.5156599999998
 30
0.0
  0
POINT
  5
18E
330
45E
100
AcDbEntity
  8
0
  6
Continuous
 62
     3
100
AcDbPoint
 10
510.66302
 20
438.9053
 30
0.0
  0
POINT
  5
18F
330
45E
100
AcDbEntity
  8
0
  6
Continuous
 62
     7
100
AcDbPoint
 10
560.2184399999998
 20
323.45065
 30
0.0
  0
LINE
  5
190
330
45E
100
AcDbEntity
  8
0
  6
Continuous
 62
     7
100
AcDbLine
 10
344.6839299999999
 20
289.13989
 30
0.0
 11
764.6838999999999
 21
289.13989
 31
0.0
  0
LINE
  5
191
330
45E
100
AcDbEntity
  8
0
  6
Continuous
 62
     7
100
AcDbLine
 10
344.6839299999999
 20
586.13989
 30
0.0
 11
344.6839299999999
 21
289.13989
 31
0.0
  0
LINE
  5
192
330
45E
100
AcDbEntity
  8
0
  6
Continuous
 62
     7
100
AcDbLine
 10
745.1838999999998
 20
301.1398899999999
 30
0.0
 11
745.1838999999998
 21
574.13989
 31
0.0
  0
LINE
  5
193
330
45E
100
AcDbEntity
  8
0
  6
Continuous
 62
     7
100
AcDbLine
 10
364.18393
 20
478.13989
 30
0.0
 11
364.18393
 21
301.8898899999999
 31
0.0
  0
LINE
  5
194
330
45E
100
AcDbEntity
  8
0
  6
Continuous
 62
     7
100
AcDbLine
 10
745.1838999999998
 20
574.13989
 30
0.0
 11
474.1839299999998
 21
574.13989
 31
0.0
  0
LINE
  5
195
330
45E
100
AcDbEntity
  8
0
  6
Continuous
 62
     7
100
AcDbLine
 10
364.18393
 20
301.1398899999999
 30
0.0
 11
745.1838999999998
 21
301.1398899999999
 31
0.0
  0
LINE
  5
196
330
45E
100
AcDbEntity
  8
0
  6
Continuous
 62
     7
100
AcDbLine
 10
764.6838999999999
 20
586.13989
 30
0.0
 11
764.6838999999999
 21
289.13989
 31
0.0
  0
LINE
  5
197
330
45E
100
AcDbEntity
  8
0
  6
Continuous
 62
     7
100
AcDbLine
 10
344.6839299999999
 20
586.13989
 30
0.0
 11
764.6838999999999
 21
586.13989
 31
0.0
  0
LINE
  5
198
330
45E
100
AcDbEntity
  8
0
  6
Continuous
 62
     7
100
AcDbLine
 10
364.18393
 20
574.13989
 30
0.0
 11
474.1839299999998
 21
574.13989
 31
0.0
  0
LINE
  5
199
330
45E
100
AcDbEntity
  8
0
  6
Continuous
 62
     7
100
AcDbLine
 10
364.18393
 20
574.13989
 30
0.0
 11
364.18393
 21
478.13989
 31
0.0
  0
LINE
  5
19A
330
45E
100
AcDbEntity
  8
0
  6
Continuous
 62
     7
100
AcDbLine
 10
384.1839299999999
 20
574.13989
 30
0.0
 11
384.1839299999999
 21
478.13989
 31
0.0
  0
LINE
  5
19B
330
45E
100
AcDbEntity
  8
0
  6
Continuous
 62
     7
100
AcDbLine
 10
364.18393
 20
566.13989
 30
0.0
 11
474.1839299999998
 21
566.13989
 31
0.0
  0
LINE
  5
19C
330
45E
100
AcDbEntity
  8
0
  6
Continuous
 62
     7
100
AcDbLine
 10
364.18393
 20
558.13989
 30
0.0
 11
474.1839299999998
 21
558.13989
 31
0.0
  0
LINE
  5
19D
330
45E
100
AcDbEntity
  8
0
  6
Continuous
 62
     7
100
AcDbLine
 10
364.18393
 20
550.13989
 30
0.0
 11
474.1839299999998
 21
550.13989
 31
0.0
  0
LINE
  5
19E
330
45E
100
AcDbEntity
  8
0
  6
Continuous
 62
     7
100
AcDbLine
 10
364.18393
 20
542.13989
 30
0.0
 11
474.1839299999998
 21
542.13989
 31
0.0
  0
LINE
  5
19F
330
45E
100
AcDbEntity
  8
0
  6
Continuous
 62
     7
100
AcDbLine
 10
384.1839299999999
 20
518.13989
 30
0.0
 11
474.1839299999998
 21
518.13989
 31
0.0
  0
LINE
  5
1A0
330
45E
100
AcDbEntity
  8
0
  6
Continuous
 62
     7
100
AcDbLine
 10
384.1839299999999
 20
510.1398899999998
 30
0.0
 11
474.1839299999998
 21
510.1398899999998
 31
0.0
  0
LINE
  5
1A1
330
45E
100
AcDbEntity
  8
0
  6
Continuous
 62
     7
100
AcDbLine
 10
364.18393
 20
502.13989
 30
0.0
 11
474.1839299999998
 21
502.13989
 31
0.0
  0
LINE
  5
1A2
330
45E
100
AcDbEntity
  8
0
  6
Continuous
 62
     7
100
AcDbLine
 10
384.1839299999999
 20
494.13989
 30
0.0
 11
474.1839299999998
 21
494.13989
 31
0.0
  0
LINE
  5
1A3
330
45E
100
AcDbEntity
  8
0
  6
Continuous
 62
     7
100
AcDbLine
 10
384.1839299999999
 20
486.13989
 30
0.0
 11
474.1839299999998
 21
486.13989
 31
0.0
  0
LINE
  5
1A4
330
45E
100
AcDbEntity
  8
0
  6
Continuous
 62
     7
100
AcDbLine
 10
364.18393
 20
478.13989
 30
0.0
 11
474.1839299999998
 21
478.13989
 31
0.0
  0
LINE
  5
1A5
330
45E
100
AcDbEntity
  8
0
  6
Continuous
 62
     7
100
AcDbLine
 10
364.18393
 20
574.13989
 30
0.0
 11
364.18393
 21
478.13989
 31
0.0
  0
LINE
  5
1A6
330
45E
100
AcDbEntity
  8
0
  6
Continuous
 62
     7
100
AcDbLine
 10
364.18393
 20
574.13989
 30
0.0
 11
474.1839299999998
 21
574.13989
 31
0.0
  0
LINE
  5
1A7
330
45E
100
AcDbEntity
  8
0
  6
Continuous
 62
     7
100
AcDbLine
 10
474.1839299999998
 20
574.13989
 30
0.0
 11
474.1839299999998
 21
478.13989
 31
0.0
  0
LINE
  5
1A8
330
45E
100
AcDbEntity
  8
0
  6
Continuous
 62
     7
100
AcDbLine
 10
364.18393
 20
534.13989
 30
0.0
 11
474.1839299999998
 21
534.13989
 31
0.0
  0
LINE
  5
1A9
330
45E
100
AcDbEntity
  8
0
  6
Continuous
 62
     7
100
AcDbLine
 10
364.18393
 20
526.13989
 30
0.0
 11
474.1839299999998
 21
526.13989
 31
0.0
  0
LINE
  5
1AA
330
45E
100
AcDbEntity
  8
0
  6
Continuous
 62
     7
100
AcDbLine
 10
384.1839299999999
 20
518.13989
 30
0.0
 11
474.1839299999998
 21
518.13989
 31
0.0
  0
LINE
  5
1AB
330
45E
100
AcDbEntity
  8
0
  6
Continuous
 62
     3
100
AcDbLine
 10
564.3958099999998
 20
428.7104799999998
 30
0.0
 11
554.39581
 21
428.7104799999998
 31
0.0
  0
LINE
  5
1AC
330
45E
100
AcDbEntity
  8
0
  6
Continuous
 62
     3
100
AcDbLine
 10
590.14581
 20
401.7104799999998
 30
0.0
 11
554.39581
 21
401.7104799999998
 31
0.0
  0
LINE
  5
1AD
330
45E
100
AcDbEntity
  8
0
  6
Continuous
 62
     3
100
AcDbLine
 10
555.39581
 20
427.91049
 30
0.0
 11
555.39581
 21
402.5104699999998
 31
0.0
  0
LINE
  5
1AE
330
45E
100
AcDbEntity
  8
0
  6
Continuous
 62
     7
100
AcDbLine
 10
555.39581
 20
428.31049
 30
0.0
 11
555.39581
 21
427.91049
 31
0.0
  0
LINE
  5
1AF
330
45E
100
AcDbEntity
  8
0
  6
Continuous
 62
     7
100
AcDbLine
 10
555.39581
 20
402.11047
 30
0.0
 11
555.39581
 21
402.5104699999998
 31
0.0
  0
LINE
  5
1B0
330
45E
100
AcDbEntity
  8
0
  6
Continuous
 62
     3
100
AcDbLine
 10
564.3958099999998
 20
489.71048
 30
0.0
 11
544.3958099999998
 21
489.71048
 31
0.0
  0
LINE
  5
1B1
330
45E
100
AcDbEntity
  8
0
  6
Continuous
 62
     3
100
AcDbLine
 10
564.3958099999998
 20
428.7104799999998
 30
0.0
 11
544.3958099999998
 21
428.7104799999998
 31
0.0
  0
LINE
  5
1B2
330
45E
100
AcDbEntity
  8
0
  6
Continuous
 62
     3
100
AcDbLine
 10
545.39581
 20
488.9104899999998
 30
0.0
 11
545.39581
 21
429.51047
 31
0.0
  0
LINE
  5
1B3
330
45E
100
AcDbEntity
  8
0
  6
Continuous
 62
     7
100
AcDbLine
 10
545.39581
 20
489.3104899999998
 30
0.0
 11
545.39581
 21
488.9104899999998
 31
0.0
  0
LINE
  5
1B4
330
45E
100
AcDbEntity
  8
0
  6
Continuous
 62
     7
100
AcDbLine
 10
545.39581
 20
429.1104699999998
 30
0.0
 11
545.39581
 21
429.51047
 31
0.0
  0
LINE
  5
1B5
330
45E
100
AcDbEntity
  8
0
  6
Continuous
 62
     3
100
AcDbLine
 10
561.3958099999998
 20
455.7104799999998
 30
0.0
 11
554.39581
 21
455.7104799999998
 31
0.0
  0
LINE
  5
1B6
330
45E
100
AcDbEntity
  8
0
  6
Continuous
 62
     3
100
AcDbLine
 10
564.3958099999998
 20
428.7104799999998
 30
0.0
 11
554.39581
 21
428.7104799999998
 31
0.0
  0
LINE
  5
1B7
330
45E
100
AcDbEntity
  8
0
  6
Continuous
 62
     3
100
AcDbLine
 10
555.39581
 20
454.9104899999998
 30
0.0
 11
555.39581
 21
429.51047
 31
0.0
  0
LINE
  5
1B8
330
45E
100
AcDbEntity
  8
0
  6
Continuous
 62
     7
100
AcDbLine
 10
555.39581
 20
455.31049
 30
0.0
 11
555.39581
 21
454.9104899999998
 31
0.0
  0
LINE
  5
1B9
330
45E
100
AcDbEntity
  8
0
  6
Continuous
 62
     7
100
AcDbLine
 10
555.39581
 20
429.1104699999998
 30
0.0
 11
555.39581
 21
429.51047
 31
0.0
  0
LINE
  5
1BA
330
45E
100
AcDbEntity
  8
0
  6
Continuous
 62
     3
100
AcDbLine
 10
564.3958099999998
 20
489.71048
 30
0.0
 11
554.39581
 21
489.71048
 31
0.0
  0
LINE
  5
1BB
330
45E
100
AcDbEntity
  8
0
  6
Continuous
 62
     3
100
AcDbLine
 10
561.3958099999998
 20
455.7104799999998
 30
0.0
 11
554.39581
 21
455.7104799999998
 31
0.0
  0
LINE
  5
1BC
330
45E
100
AcDbEntity
  8
0
  6
Continuous
 62
     3
100
AcDbLine
 10
555.39581
 20
488.9104899999998
 30
0.0
 11
555.39581
 21
456.51047
 31
0.0
  0
LINE
  5
1BD
330
45E
100
AcDbEntity
  8
0
  6
Continuous
 62
     7
100
AcDbLine
 10
555.39581
 20
489.3104899999998
 30
0.0
 11
555.39581
 21
488.9104899999998
 31
0.0
  0
LINE
  5
1BE
330
45E
100
AcDbEntity
  8
0
  6
Continuous
 62
     7
100
AcDbLine
 10
555.39581
 20
456.11047
 30
0.0
 11
555.39581
 21
456.51047
 31
0.0
  0
LINE
  5
1BF
330
45E
100
AcDbEntity
  8
0
  6
CENTER
 62
     4
100
AcDbLine
 10
562.39581
 20
455.7104799999998
 30
0.0
 11
618.3958099999999
 21
455.7104799999998
 31
0.0
  0
LINE
  5
1C0
330
45E
100
AcDbEntity
  8
0
  6
Continuous
 62
     3
100
AcDbLine
 10
516.11023
 20
435.71048
 30
0.0
 11
535.86023
 21
435.71048
 31
0.0
  0
LINE
  5
1C1
330
45E
100
AcDbEntity
  8
0
  6
Continuous
 62
     3
100
AcDbLine
 10
516.11023
 20
465.7104799999998
 30
0.0
 11
535.86023
 21
465.7104799999998
 31
0.0
  0
LINE
  5
1C2
330
45E
100
AcDbEntity
  8
0
  6
Continuous
 62
     3
100
AcDbLine
 10
534.86023
 20
436.5104699999998
 30
0.0
 11
534.86023
 21
464.91049
 31
0.0
  0
LINE
  5
1C3
330
45E
100
AcDbEntity
  8
0
  6
Continuous
 62
     7
100
AcDbLine
 10
534.86023
 20
436.11047
 30
0.0
 11
534.86023
 21
436.5104699999998
 31
0.0
  0
LINE
  5
1C4
330
45E
100
AcDbEntity
  8
0
  6
Continuous
 62
     7
100
AcDbLine
 10
534.86023
 20
465.31049
 30
0.0
 11
534.86023
 21
464.91049
 31
0.0
  0
LINE
  5
1C5
330
45E
100
AcDbEntity
  8
0
  6
CENTER
 62
     4
100
AcDbLine
 10
507.86023
 20
492.7104799999998
 30
0.0
 11
507.86023
 21
425.7104799999998
 31
0.0
  0
LINE
  5
1C6
330
45E
100
AcDbEntity
  8
0
  6
Continuous
 62
     3
100
AcDbLine
 10
519.86023
 20
435.8012699999998
 30
0.0
 11
519.86023
 21
412.7104799999998
 31
0.0
  0
LINE
  5
1C7
330
45E
100
AcDbEntity
  8
0
  6
Continuous
 62
     3
100
AcDbLine
 10
495.8602299999998
 20
435.8012699999998
 30
0.0
 11
495.8602299999998
 21
412.7104799999998
 31
0.0
  0
LINE
  5
1C8
330
45E
100
AcDbEntity
  8
0
  6
Continuous
 62
     3
100
AcDbLine
 10
519.06024
 20
413.7104799999998
 30
0.0
 11
496.66025
 21
413.7104799999998
 31
0.0
  0
LINE
  5
1C9
330
45E
100
AcDbEntity
  8
0
  6
Continuous
 62
     7
100
AcDbLine
 10
519.46027
 20
413.7104799999998
 30
0.0
 11
519.06024
 21
413.7104799999998
 31
0.0
  0
LINE
  5
1CA
330
45E
100
AcDbEntity
  8
0
  6
Continuous
 62
     7
100
AcDbLine
 10
496.26025
 20
413.7104799999998
 30
0.0
 11
496.66025
 21
413.7104799999998
 31
0.0
  0
LINE
  5
1CB
330
45E
100
AcDbEntity
  8
0
  6
Continuous
 62
     7
100
AcDbLine
 10
495.8602299999998
 20
440.7104799999998
 30
0.0
 11
519.86023
 21
440.7104799999998
 31
0.0
  0
LINE
  5
1CC
330
45E
100
AcDbEntity
  8
0
  6
Continuous
 62
     3
100
AcDbLine
 10
512.8189099999998
 20
428.7104799999998
 30
0.0
 11
535.86023
 21
428.7104799999998
 31
0.0
  0
LINE
  5
1CD
330
45E
100
AcDbEntity
  8
0
  6
Continuous
 62
     3
100
AcDbLine
 10
516.11023
 20
435.71048
 30
0.0
 11
535.86023
 21
435.71048
 31
0.0
  0
LINE
  5
1CE
330
45E
100
AcDbEntity
  8
0
  6
Continuous
 62
     3
100
AcDbLine
 10
534.86023
 20
429.51047
 30
0.0
 11
534.86023
 21
434.9104899999998
 31
0.0
  0
LINE
  5
1CF
330
45E
100
AcDbEntity
  8
0
  6
Continuous
 62
     7
100
AcDbLine
 10
534.86023
 20
429.1104699999998
 30
0.0
 11
534.86023
 21
429.51047
 31
0.0
  0
LINE
  5
1D0
330
45E
100
AcDbEntity
  8
0
  6
Continuous
 62
     7
100
AcDbLine
 10
534.86023
 20
435.3104899999998
 30
0.0
 11
534.86023
 21
434.9104899999998
 31
0.0
  0
LINE
  5
1D1
330
45E
100
AcDbEntity
  8
0
  6
Continuous
 62
     7
100
AcDbLine
 10
500.8602299999998
 20
443.7104799999998
 30
0.0
 11
514.86023
 21
443.7104799999998
 31
0.0
  0
LINE
  5
1D2
330
45E
100
AcDbEntity
  8
0
  6
CENTER
 62
     4
100
AcDbLine
 10
500.61023
 20
435.71048
 30
0.0
 11
515.1102299999998
 21
435.71048
 31
0.0
  0
LINE
  5
1D3
330
45E
100
AcDbEntity
  8
0
  6
Continuous
 62
     7
100
AcDbLine
 10
498.86023
 20
445.7104799999998
 30
0.0
 11
498.86023
 21
448.71048
 31
0.0
  0
LINE
  5
1D4
330
45E
100
AcDbEntity
  8
0
  6
Continuous
 62
     7
100
AcDbLine
 10
516.8602299999998
 20
445.7104799999998
 30
0.0
 11
516.8602299999998
 21
448.71048
 31
0.0
  0
LINE
  5
1D5
330
45E
100
AcDbEntity
  8
0
  6
Continuous
 62
     3
100
AcDbLine
 10
512.8189099999998
 20
489.71048
 30
0.0
 11
535.86023
 21
489.71048
 31
0.0
  0
LINE
  5
1D6
330
45E
100
AcDbEntity
  8
0
  6
Continuous
 62
     3
100
AcDbLine
 10
516.11023
 20
465.7104799999998
 30
0.0
 11
535.86023
 21
465.7104799999998
 31
0.0
  0
LINE
  5
1D7
330
45E
100
AcDbEntity
  8
0
  6
Continuous
 62
     3
100
AcDbLine
 10
534.86023
 20
488.9104899999998
 30
0.0
 11
534.86023
 21
466.5104699999998
 31
0.0
  0
LINE
  5
1D8
330
45E
100
AcDbEntity
  8
0
  6
Continuous
 62
     7
100
AcDbLine
 10
534.86023
 20
489.3104899999998
 30
0.0
 11
534.86023
 21
488.9104899999998
 31
0.0
  0
LINE
  5
1D9
330
45E
100
AcDbEntity
  8
0
  6
Continuous
 62
     7
100
AcDbLine
 10
534.86023
 20
466.11047
 30
0.0
 11
534.86023
 21
466.5104699999998
 31
0.0
  0
LINE
  5
1DA
330
45E
100
AcDbEntity
  8
0
  6
Continuous
 62
     7
100
AcDbLine
 10
500.3602299999998
 20
457.7104799999998
 30
0.0
 11
500.3602299999998
 21
482.2104799999998
 31
0.0
  0
LINE
  5
1DB
330
45E
100
AcDbEntity
  8
0
  6
DASHED
 62
     7
100
AcDbLine
 10
503.36023
 20
479.3012099999998
 30
0.0
 11
503.36023
 21
471.67661
 31
0.0
  0
LINE
  5
1DC
330
45E
100
AcDbEntity
  8
0
  6
Continuous
 62
     7
100
AcDbLine
 10
512.8602299999998
 20
450.7104799999998
 30
0.0
 11
514.86023
 21
450.7104799999998
 31
0.0
  0
LINE
  5
1DD
330
45E
100
AcDbEntity
  8
0
  6
CENTER
 62
     4
100
AcDbLine
 10
500.61023
 20
465.7104799999998
 30
0.0
 11
515.1102299999998
 21
465.7104799999998
 31
0.0
  0
LINE
  5
1DE
330
45E
100
AcDbEntity
  8
0
  6
Continuous
 62
     7
100
AcDbLine
 10
504.8602299999997
 20
457.7104799999998
 30
0.0
 11
510.86023
 21
457.7104799999998
 31
0.0
  0
LINE
  5
1DF
330
45E
100
AcDbEntity
  8
0
  6
Continuous
 62
     7
100
AcDbLine
 10
504.8602299999997
 20
454.7104799999998
 30
0.0
 11
510.86023
 21
454.7104799999998
 31
0.0
  0
LINE
  5
1E0
330
45E
100
AcDbEntity
  8
0
  6
Continuous
 62
     7
100
AcDbLine
 10
500.8602299999998
 20
450.7104799999998
 30
0.0
 11
502.86023
 21
450.7104799999998
 31
0.0
  0
LINE
  5
1E1
330
45E
100
AcDbEntity
  8
0
  6
Continuous
 62
     7
100
AcDbLine
 10
503.36023
 20
451.2104799999998
 30
0.0
 11
503.36023
 21
453.7104799999998
 31
0.0
  0
LINE
  5
1E2
330
45E
100
AcDbEntity
  8
0
  6
Continuous
 62
     7
100
AcDbLine
 10
504.8602299999997
 20
453.7104799999998
 30
0.0
 11
504.8602299999997
 21
454.7104799999998
 31
0.0
  0
LINE
  5
1E3
330
45E
100
AcDbEntity
  8
0
  6
Continuous
 62
     7
100
AcDbLine
 10
512.3602299999999
 20
453.7104799999998
 30
0.0
 11
512.3602299999999
 21
451.2104799999998
 31
0.0
  0
LINE
  5
1E4
330
45E
100
AcDbEntity
  8
0
  6
Continuous
 62
     7
100
AcDbLine
 10
510.86023
 20
454.7104799999998
 30
0.0
 11
510.86023
 21
453.7104799999998
 31
0.0
  0
LINE
  5
1E5
330
45E
100
AcDbEntity
  8
0
  6
DASHED
 62
     7
100
AcDbLine
 10
504.3602299999998
 20
470.67661
 30
0.0
 11
504.8602299999997
 21
470.67661
 31
0.0
  0
LINE
  5
1E6
330
45E
100
AcDbEntity
  8
0
  6
CENTER
 62
     4
100
AcDbLine
 10
606.14581
 20
466.7104799999998
 30
0.0
 11
606.14581
 21
368.7104799999998
 31
0.0
  0
LINE
  5
1E7
330
45E
100
AcDbEntity
  8
0
  6
Continuous
 62
     3
100
AcDbLine
 10
629.6458099999997
 20
453.7104799999998
 30
0.0
 11
654.6458099999997
 21
453.7104799999998
 31
0.0
  0
LINE
  5
1E8
330
45E
100
AcDbEntity
  8
0
  6
Continuous
 62
     3
100
AcDbLine
 10
622.1458099999997
 20
401.7104799999998
 30
0.0
 11
654.6458099999997
 21
401.7104799999998
 31
0.0
  0
LINE
  5
1E9
330
45E
100
AcDbEntity
  8
0
  6
Continuous
 62
     3
100
AcDbLine
 10
653.6458099999999
 20
452.91049
 30
0.0
 11
653.6458099999999
 21
402.5104699999998
 31
0.0
  0
LINE
  5
1EA
330
45E
100
AcDbEntity
  8
0
  6
Continuous
 62
     7
100
AcDbLine
 10
653.6458099999999
 20
453.31049
 30
0.0
 11
653.6458099999999
 21
452.91049
 31
0.0
  0
LINE
  5
1EB
330
45E
100
AcDbEntity
  8
0
  6
Continuous
 62
     7
100
AcDbLine
 10
653.6458099999999
 20
402.11047
 30
0.0
 11
653.6458099999999
 21
402.5104699999998
 31
0.0
  0
LINE
  5
1EC
330
45E
100
AcDbEntity
  8
0
  6
Continuous
 62
     3
100
AcDbLine
 10
629.6458099999997
 20
453.7104799999998
 30
0.0
 11
644.64581
 21
453.7104799999998
 31
0.0
  0
LINE
  5
1ED
330
45E
100
AcDbEntity
  8
0
  6
Continuous
 62
     3
100
AcDbLine
 10
629.6458099999997
 20
441.7104799999998
 30
0.0
 11
644.64581
 21
441.7104799999998
 31
0.0
  0
LINE
  5
1EE
330
45E
100
AcDbEntity
  8
0
  6
Continuous
 62
     3
100
AcDbLine
 10
643.64581
 20
452.91049
 30
0.0
 11
643.64581
 21
442.51047
 31
0.0
  0
LINE
  5
1EF
330
45E
100
AcDbEntity
  8
0
  6
Continuous
 62
     7
100
AcDbLine
 10
643.64581
 20
453.31049
 30
0.0
 11
643.64581
 21
452.91049
 31
0.0
  0
LINE
  5
1F0
330
45E
100
AcDbEntity
  8
0
  6
Continuous
 62
     7
100
AcDbLine
 10
643.64581
 20
442.1104699999998
 30
0.0
 11
643.64581
 21
442.51047
 31
0.0
  0
LINE
  5
1F1
330
45E
100
AcDbEntity
  8
0
  6
Continuous
 62
     7
100
AcDbLine
 10
575.39581
 20
430.7104799999998
 30
0.0
 11
575.39581
 21
453.7104799999998
 31
0.0
  0
LINE
  5
1F2
330
45E
100
AcDbEntity
  8
0
  6
Continuous
 62
     7
100
AcDbLine
 10
570.39581
 20
453.7104799999998
 30
0.0
 11
570.39581
 21
440.7104799999998
 31
0.0
  0
LINE
  5
1F3
330
45E
100
AcDbEntity
  8
0
  6
Continuous
 62
     3
100
AcDbLine
 10
601.1458099999997
 20
372.0604600000001
 30
0.0
 11
601.1458099999997
 21
345.7104799999998
 31
0.0
  0
LINE
  5
1F4
330
45E
100
AcDbEntity
  8
0
  6
Continuous
 62
     3
100
AcDbLine
 10
611.14581
 20
372.06042
 30
0.0
 11
611.14581
 21
345.7104799999998
 31
0.0
  0
LINE
  5
1F5
330
45E
100
AcDbEntity
  8
0
  6
Continuous
 62
     3
100
AcDbLine
 10
601.9458599999998
 20
346.7104799999999
 30
0.0
 11
610.3458299999998
 21
346.7104799999999
 31
0.0
  0
LINE
  5
1F6
330
45E
100
AcDbEntity
  8
0
  6
Continuous
 62
     3
100
AcDbLine
 10
611.14581
 20
346.7104799999999
 30
0.0
 11
659.4353669981767
 21
346.7104799999999
 31
0.0
  0
LINE
  5
1F7
330
45E
100
AcDbEntity
  8
0
  6
Continuous
 62
     7
100
AcDbLine
 10
601.5458399999999
 20
346.7104799999999
 30
0.0
 11
601.9458599999998
 21
346.7104799999999
 31
0.0
  0
LINE
  5
1F8
330
45E
100
AcDbEntity
  8
0
  6
Continuous
 62
     7
100
AcDbLine
 10
610.7458499999998
 20
346.7104799999999
 30
0.0
 11
610.3458299999998
 21
346.7104799999999
 31
0.0
  0
LINE
  5
1F9
330
45E
100
AcDbEntity
  8
0
  6
Continuous
 62
     3
100
AcDbLine
 10
591.1458099999999
 20
400.7104799999998
 30
0.0
 11
591.1458099999999
 21
335.7104799999999
 31
0.0
  0
LINE
  5
1FA
330
45E
100
AcDbEntity
  8
0
  6
Continuous
 62
     3
100
AcDbLine
 10
621.1458099999997
 20
400.7104799999998
 30
0.0
 11
621.1458099999997
 21
335.7104799999999
 31
0.0
  0
LINE
  5
1FB
330
45E
100
AcDbEntity
  8
0
  6
Continuous
 62
     3
100
AcDbLine
 10
591.9458599999997
 20
336.7104799999999
 30
0.0
 11
620.34583
 21
336.7104799999999
 31
0.0
  0
LINE
  5
1FC
330
45E
100
AcDbEntity
  8
0
  6
Continuous
 62
     7
100
AcDbLine
 10
591.54584
 20
336.7104799999999
 30
0.0
 11
591.9458599999997
 21
336.7104799999999
 31
0.0
  0
LINE
  5
1FD
330
45E
100
AcDbEntity
  8
0
  6
Continuous
 62
     7
100
AcDbLine
 10
620.74585
 20
336.7104799999999
 30
0.0
 11
620.34583
 21
336.7104799999999
 31
0.0
  0
LINE
  5
1FE
330
45E
100
AcDbEntity
  8
0
  6
Continuous
 62
     3
100
AcDbLine
 10
622.1458099999997
 20
401.7104799999998
 30
0.0
 11
654.6458099999997
 21
401.7104799999998
 31
0.0
  0
LINE
  5
1FF
330
45E
100
AcDbEntity
  8
0
  6
Continuous
 62
     3
100
AcDbLine
 10
607.14581
 20
361.7104799999999
 30
0.0
 11
654.6458099999997
 21
361.7104799999999
 31
0.0
  0
LINE
  5
200
330
45E
100
AcDbEntity
  8
0
  6
Continuous
 62
     3
100
AcDbLine
 10
653.6458099999999
 20
400.9104899999998
 30
0.0
 11
653.6458099999999
 21
362.51047
 31
0.0
  0
LINE
  5
201
330
45E
100
AcDbEntity
  8
0
  6
Continuous
 62
     7
100
AcDbLine
 10
653.6458099999999
 20
401.31049
 30
0.0
 11
653.6458099999999
 21
400.9104899999998
 31
0.0
  0
LINE
  5
202
330
45E
100
AcDbEntity
  8
0
  6
Continuous
 62
     7
100
AcDbLine
 10
653.6458099999999
 20
362.11047
 30
0.0
 11
653.6458099999999
 21
362.51047
 31
0.0
  0
LINE
  5
203
330
45E
100
AcDbEntity
  8
0
  6
Continuous
 62
     3
100
AcDbLine
 10
629.6458099999997
 20
441.7104799999998
 30
0.0
 11
644.64581
 21
441.7104799999998
 31
0.0
  0
LINE
  5
204
330
45E
100
AcDbEntity
  8
0
  6
Continuous
 62
     3
100
AcDbLine
 10
622.1458099999997
 20
401.7104799999998
 30
0.0
 11
644.64581
 21
401.7104799999998
 31
0.0
  0
LINE
  5
205
330
45E
100
AcDbEntity
  8
0
  6
Continuous
 62
     3
100
AcDbLine
 10
643.64581
 20
440.9104899999999
 30
0.0
 11
643.64581
 21
402.5104699999998
 31
0.0
  0
LINE
  5
206
330
45E
100
AcDbEntity
  8
0
  6
Continuous
 62
     7
100
AcDbLine
 10
643.64581
 20
441.31049
 30
0.0
 11
643.64581
 21
440.9104899999999
 31
0.0
  0
LINE
  5
207
330
45E
100
AcDbEntity
  8
0
  6
Continuous
 62
     7
100
AcDbLine
 10
643.64581
 20
402.11047
 30
0.0
 11
643.64581
 21
402.5104699999998
 31
0.0
  0
LINE
  5
208
330
45E
100
AcDbEntity
  8
0
  6
PHANTOM
 62
     3
100
AcDbLine
 10
601.1458099999997
 20
401.7104799999998
 30
0.0
 11
601.1458099999997
 21
373.06046
 31
0.0
  0
LINE
  5
209
330
45E
100
AcDbEntity
  8
0
  6
PHANTOM
 62
     3
100
AcDbLine
 10
611.14581
 20
373.06042
 30
0.0
 11
611.14581
 21
401.7104799999998
 31
0.0
  0
LINE
  5
20A
330
45E
100
AcDbEntity
  8
0
  6
PHANTOM
 62
     3
100
AcDbLine
 10
606.64581
 20
372.7104799999998
 30
0.0
 11
606.64581
 21
377.7104799999999
 31
0.0
  0
LINE
  5
20B
330
45E
100
AcDbEntity
  8
0
  6
PHANTOM
 62
     3
100
AcDbLine
 10
605.6458699999998
 20
377.7104799999999
 30
0.0
 11
605.6458699999998
 21
372.7104799999998
 31
0.0
  0
LINE
  5
20C
330
45E
100
AcDbEntity
  8
0
  6
PHANTOM
 62
     3
100
AcDbLine
 10
599.4433599999998
 20
363.40506
 30
0.0
 11
603.8674900000001
 21
362.62497
 31
0.0
  0
LINE
  5
20D
330
45E
100
AcDbEntity
  8
0
  6
PHANTOM
 62
     3
100
AcDbLine
 10
606.64581
 20
372.7104499999999
 30
0.0
 11
608.42413
 21
362.62497
 31
0.0
  0
LINE
  5
20E
330
45E
100
AcDbEntity
  8
0
  6
PHANTOM
 62
     3
100
AcDbLine
 10
605.6458699999998
 20
372.7104799999998
 30
0.0
 11
603.8674900000001
 21
362.62497
 31
0.0
  0
LINE
  5
20F
330
45E
100
AcDbEntity
  8
0
  6
PHANTOM
 62
     3
100
AcDbLine
 10
608.4241900000002
 20
362.62497
 30
0.0
 11
612.8483899999999
 21
363.40506
 31
0.0
  0
LINE
  5
210
330
45E
100
AcDbEntity
  8
0
  6
PHANTOM
 62
     3
100
AcDbLine
 10
605.6458699999998
 20
361.7104499999999
 30
0.0
 11
603.8674900000001
 21
362.62497
 31
0.0
  0
LINE
  5
211
330
45E
100
AcDbEntity
  8
0
  6
PHANTOM
 62
     3
100
AcDbLine
 10
608.4241900000002
 20
362.625
 30
0.0
 11
606.64581
 21
361.7104799999999
 31
0.0
  0
LINE
  5
212
330
45E
100
AcDbEntity
  8
0
  6
PHANTOM
 62
     3
100
AcDbLine
 10
606.64581
 20
361.7104799999999
 30
0.0
 11
605.64581
 21
361.7104799999999
 31
0.0
  0
LINE
  5
213
330
45E
100
AcDbEntity
  8
0
  6
PHANTOM
 62
     3
100
AcDbLine
 10
612.84833
 20
363.40506
 30
0.0
 11
611.14581
 21
373.06042
 31
0.0
  0
LINE
  5
214
330
45E
100
AcDbEntity
  8
0
  6
PHANTOM
 62
     3
100
AcDbLine
 10
601.1458699999998
 20
373.06042
 30
0.0
 11
599.4433599999998
 21
363.40506
 31
0.0
  0
LINE
  5
215
330
45E
100
AcDbEntity
  8
0
  6
PHANTOM
 62
     3
100
AcDbLine
 10
606.64581
 20
377.7104799999999
 30
0.0
 11
605.64581
 21
377.7104799999999
 31
0.0
  0
LINE
  5
216
330
45E
100
AcDbEntity
  8
0
  6
Continuous
 62
     7
100
AcDbLine
 10
565.3958099999997
 20
440.7104799999998
 30
0.0
 11
565.3958099999997
 21
428.7104799999998
 31
0.0
  0
LINE
  5
217
330
45E
100
AcDbEntity
  8
0
  6
Continuous
 62
     7
100
AcDbLine
 10
565.3958099999997
 20
428.7104799999998
 30
0.0
 11
573.3958099999997
 21
428.7104799999998
 31
0.0
  0
LINE
  5
218
330
45E
100
AcDbEntity
  8
0
  6
Continuous
 62
     7
100
AcDbLine
 10
570.39581
 20
440.7104799999998
 30
0.0
 11
565.3958099999997
 21
440.7104799999998
 31
0.0
  0
LINE
  5
219
330
45E
100
AcDbEntity
  8
0
  6
Continuous
 62
     3
100
AcDbLine
 10
665.3361799999998
 20
510.07971
 30
0.0
 11
665.3361799999998
 21
534.5669599999999
 31
0.0
  0
LINE
  5
21A
330
45E
100
AcDbEntity
  8
0
  6
Continuous
 62
     3
100
AcDbLine
 10
715.3361799999997
 20
505.55234
 30
0.0
 11
715.3361799999997
 21
534.5669599999999
 31
0.0
  0
LINE
  5
21B
330
45E
100
AcDbEntity
  8
0
  6
Continuous
 62
     3
100
AcDbLine
 10
666.13617
 20
533.56696
 30
0.0
 11
714.53619
 21
533.56696
 31
0.0
  0
LINE
  5
21C
330
45E
100
AcDbEntity
  8
0
  6
Continuous
 62
     7
100
AcDbLine
 10
665.7362099999998
 20
533.56696
 30
0.0
 11
666.13617
 21
533.56696
 31
0.0
  0
LINE
  5
21D
330
45E
100
AcDbEntity
  8
0
  6
Continuous
 62
     7
100
AcDbLine
 10
714.9362200000001
 20
533.56696
 30
0.0
 11
714.53619
 21
533.56696
 31
0.0
  0
LINE
  5
21E
330
45E
100
AcDbEntity
  8
0
  6
Continuous
 62
     7
100
AcDbLine
 10
672.33618
 20
489.0797099999998
 30
0.0
 11
703.33618
 21
489.0797099999998
 31
0.0
  0
LINE
  5
21F
330
45E
100
AcDbEntity
  8
0
  6
Continuous
 62
     7
100
AcDbLine
 10
672.33618
 20
513.0797099999998
 30
0.0
 11
703.33618
 21
513.0797099999998
 31
0.0
  0
LINE
  5
220
330
45E
100
AcDbEntity
  8
0
  6
Continuous
 62
     7
100
AcDbLine
 10
678.33618
 20
493.0797099999998
 30
0.0
 11
703.33618
 21
493.0797099999998
 31
0.0
  0
LINE
  5
221
330
45E
100
AcDbEntity
  8
0
  6
Continuous
 62
     7
100
AcDbLine
 10
703.33618
 20
509.0797099999998
 30
0.0
 11
678.33618
 21
509.0797099999998
 31
0.0
  0
LINE
  5
222
330
45E
100
AcDbEntity
  8
0
  6
CENTER
 62
     4
100
AcDbLine
 10
706.08618
 20
501.0797099999998
 30
0.0
 11
679.8291
 21
501.0797099999998
 31
0.0
  0
LINE
  5
223
330
45E
100
AcDbEntity
  8
0
  6
Continuous
 62
     3
100
AcDbLine
 10
613.6458099999997
 20
463.7104799999998
 30
0.0
 11
654.6458099999997
 21
463.7104799999998
 31
0.0
  0
LINE
  5
224
330
45E
100
AcDbEntity
  8
0
  6
Continuous
 62
     3
100
AcDbLine
 10
629.6458099999997
 20
453.7104799999998
 30
0.0
 11
654.6458099999997
 21
453.7104799999998
 31
0.0
  0
LINE
  5
225
330
45E
100
AcDbEntity
  8
0
  6
Continuous
 62
     3
100
AcDbLine
 10
653.6458099999999
 20
462.9104899999998
 30
0.0
 11
653.6458099999999
 21
454.51047
 31
0.0
  0
LINE
  5
226
330
45E
100
AcDbEntity
  8
0
  6
Continuous
 62
     7
100
AcDbLine
 10
653.6458099999999
 20
463.31049
 30
0.0
 11
653.6458099999999
 21
462.9104899999998
 31
0.0
  0
LINE
  5
227
330
45E
100
AcDbEntity
  8
0
  6
Continuous
 62
     7
100
AcDbLine
 10
653.6458099999999
 20
454.1104699999998
 30
0.0
 11
653.6458099999999
 21
454.51047
 31
0.0
  0
LINE
  5
228
330
45E
100
AcDbEntity
  8
0
  6
Continuous
 62
     3
100
AcDbLine
 10
583.6458099999997
 20
454.7104799999998
 30
0.0
 11
583.6458099999997
 21
502.71048
 31
0.0
  0
LINE
  5
229
330
45E
100
AcDbEntity
  8
0
  6
Continuous
 62
     3
100
AcDbLine
 10
628.6458099999999
 20
454.7104799999998
 30
0.0
 11
628.6458099999999
 21
502.71048
 31
0.0
  0
LINE
  5
22A
330
45E
100
AcDbEntity
  8
0
  6
Continuous
 62
     3
100
AcDbLine
 10
584.4458599999998
 20
501.7104799999998
 30
0.0
 11
627.8458299999997
 21
501.7104799999998
 31
0.0
  0
LINE
  5
22B
330
45E
100
AcDbEntity
  8
0
  6
Continuous
 62
     7
100
AcDbLine
 10
584.04584
 20
501.7104799999998
 30
0.0
 11
584.4458599999998
 21
501.7104799999998
 31
0.0
  0
LINE
  5
22C
330
45E
100
AcDbEntity
  8
0
  6
Continuous
 62
     7
100
AcDbLine
 10
628.24585
 20
501.7104799999998
 30
0.0
 11
627.8458299999997
 21
501.7104799999998
 31
0.0
  0
LINE
  5
22D
330
45E
100
AcDbEntity
  8
0
  6
Continuous
 62
     3
100
AcDbLine
 10
565.3958099999997
 20
492.7104799999998
 30
0.0
 11
565.3958099999997
 21
502.71048
 31
0.0
  0
LINE
  5
22E
330
45E
100
AcDbEntity
  8
0
  6
Continuous
 62
     3
100
AcDbLine
 10
575.39581
 20
492.7104799999998
 30
0.0
 11
575.39581
 21
502.71048
 31
0.0
  0
LINE
  5
22F
330
45E
100
AcDbEntity
  8
0
  6
Continuous
 62
     3
100
AcDbLine
 10
566.1958599999998
 20
501.7104799999998
 30
0.0
 11
574.5958299999997
 21
501.7104799999998
 31
0.0
  0
LINE
  5
230
330
45E
100
AcDbEntity
  8
0
  6
Continuous
 62
     7
100
AcDbLine
 10
565.79584
 20
501.7104799999998
 30
0.0
 11
566.1958599999998
 21
501.7104799999998
 31
0.0
  0
LINE
  5
231
330
45E
100
AcDbEntity
  8
0
  6
Continuous
 62
     7
100
AcDbLine
 10
574.9958499999998
 20
501.7104799999998
 30
0.0
 11
574.5958299999997
 21
501.7104799999998
 31
0.0
  0
LINE
  5
232
330
45E
100
AcDbEntity
  8
0
  6
PHANTOM
 62
     3
100
AcDbLine
 10
578.5929
 20
464.0791
 30
0.0
 11
601.3369799999998
 21
486.82318
 31
0.0
  0
LINE
  5
233
330
45E
100
AcDbEntity
  8
0
  6
PHANTOM
 62
     3
100
AcDbLine
 10
578.5929
 20
469.7359599999998
 30
0.0
 11
598.50854
 21
489.6516099999998
 31
0.0
  0
LINE
  5
234
330
45E
100
AcDbEntity
  8
0
  6
CENTER
 62
     4
100
AcDbLine
 10
575.3958699999998
 20
463.7105099999998
 30
0.0
 11
603.4583099999998
 21
491.77295
 31
0.0
  0
LINE
  5
235
330
45E
100
AcDbEntity
  8
0
  6
Continuous
 62
     7
100
AcDbLine
 10
570.39581
 20
489.71048
 30
0.0
 11
570.39581
 21
457.7104799999998
 31
0.0
  0
LINE
  5
236
330
45E
100
AcDbEntity
  8
0
  6
Continuous
 62
     7
100
AcDbLine
 10
575.39581
 20
457.7104799999998
 30
0.0
 11
575.39581
 21
487.7104799999998
 31
0.0
  0
LINE
  5
237
330
45E
100
AcDbEntity
  8
0
  6
Continuous
 62
     7
100
AcDbLine
 10
567.39581
 20
453.7104799999998
 30
0.0
 11
570.39581
 21
453.7104799999998
 31
0.0
  0
LINE
  5
238
330
45E
100
AcDbEntity
  8
0
  6
Continuous
 62
     7
100
AcDbLine
 10
567.39581
 20
457.7104799999998
 30
0.0
 11
570.39581
 21
457.7104799999998
 31
0.0
  0
LINE
  5
239
330
45E
100
AcDbEntity
  8
0
  6
Continuous
 62
     7
100
AcDbLine
 10
573.3958099999997
 20
489.71048
 30
0.0
 11
570.39581
 21
489.71048
 31
0.0
  0
LINE
  5
23A
330
45E
100
AcDbEntity
  8
0
  6
Continuous
 62
     3
100
AcDbLine
 10
599.6458099999999
 20
464.71048
 30
0.0
 11
599.6458099999999
 21
474.7104799999998
 31
0.0
  0
LINE
  5
23B
330
45E
100
AcDbEntity
  8
0
  6
Continuous
 62
     3
100
AcDbLine
 10
612.6458099999998
 20
464.71048
 30
0.0
 11
612.6458099999998
 21
474.7104799999998
 31
0.0
  0
LINE
  5
23C
330
45E
100
AcDbEntity
  8
0
  6
Continuous
 62
     3
100
AcDbLine
 10
600.4458599999998
 20
473.71048
 30
0.0
 11
611.84583
 21
473.71048
 31
0.0
  0
LINE
  5
23D
330
45E
100
AcDbEntity
  8
0
  6
Continuous
 62
     7
100
AcDbLine
 10
600.04584
 20
473.71048
 30
0.0
 11
600.4458599999998
 21
473.71048
 31
0.0
  0
LINE
  5
23E
330
45E
100
AcDbEntity
  8
0
  6
Continuous
 62
     7
100
AcDbLine
 10
612.24585
 20
473.71048
 30
0.0
 11
611.84583
 21
473.71048
 31
0.0
  0
LINE
  5
23F
330
45E
100
AcDbEntity
  8
0
  6
Continuous
 62
     7
100
AcDbLine
 10
612.6458099999998
 20
463.2104799999998
 30
0.0
 11
599.6458099999999
 21
463.2104799999998
 31
0.0
  0
LINE
  5
240
330
45E
100
AcDbEntity
  8
0
  6
Continuous
 62
     7
100
AcDbLine
 10
670.33618
 20
494.07971
 30
0.0
 11
670.33618
 21
508.0797099999998
 31
0.0
  0
LINE
  5
241
330
45E
100
AcDbEntity
  8
0
  6
Continuous
 62
     7
100
AcDbLine
 10
675.33618
 20
508.0797099999998
 30
0.0
 11
675.33618
 21
494.07971
 31
0.0
  0
LINE
  5
242
330
45E
100
AcDbEntity
  8
0
  6
Continuous
 62
     7
100
AcDbLine
 10
665.3361799999998
 20
493.0797099999998
 30
0.0
 11
665.3361799999998
 21
509.0797099999998
 31
0.0
  0
LINE
  5
243
330
45E
100
AcDbEntity
  8
0
  6
CENTER
 62
     4
100
AcDbLine
 10
667.33618
 20
516.0797099999999
 30
0.0
 11
667.33618
 21
486.07971
 31
0.0
  0
LINE
  5
244
330
45E
100
AcDbEntity
  8
0
  6
Continuous
 62
     7
100
AcDbLine
 10
678.33618
 20
493.0797099999998
 30
0.0
 11
672.33618
 21
493.0797099999998
 31
0.0
  0
LINE
  5
245
330
45E
100
AcDbEntity
  8
0
  6
Continuous
 62
     7
100
AcDbLine
 10
672.33618
 20
493.0797099999998
 30
0.0
 11
669.3361799999999
 21
493.0797099999998
 31
0.0
  0
LINE
  5
246
330
45E
100
AcDbEntity
  8
0
  6
Continuous
 62
     7
100
AcDbLine
 10
672.33618
 20
489.0797099999998
 30
0.0
 11
669.3361799999999
 21
489.0797099999998
 31
0.0
  0
LINE
  5
247
330
45E
100
AcDbEntity
  8
0
  6
Continuous
 62
     7
100
AcDbLine
 10
675.33618
 20
494.07971
 30
0.0
 11
665.3361799999998
 21
494.07971
 31
0.0
  0
LINE
  5
248
330
45E
100
AcDbEntity
  8
0
  6
Continuous
 62
     7
100
AcDbLine
 10
669.3361799999999
 20
493.0797099999998
 30
0.0
 11
669.3361799999999
 21
494.07971
 31
0.0
  0
LINE
  5
249
330
45E
100
AcDbEntity
  8
0
  6
Continuous
 62
     3
100
AcDbLine
 10
669.3361799999999
 20
510.07971
 30
0.0
 11
669.3361799999999
 21
524.0797099999999
 31
0.0
  0
LINE
  5
24A
330
45E
100
AcDbEntity
  8
0
  6
Continuous
 62
     3
100
AcDbLine
 10
665.3361799999998
 20
510.07971
 30
0.0
 11
665.3361799999998
 21
524.0797099999999
 31
0.0
  0
LINE
  5
24B
330
45E
100
AcDbEntity
  8
0
  6
Continuous
 62
     3
100
AcDbLine
 10
670.1361699999997
 20
523.07971
 30
0.0
 11
670.9362200000001
 21
523.07971
 31
0.0
  0
LINE
  5
24C
330
45E
100
AcDbEntity
  8
0
  6
Continuous
 62
     3
100
AcDbLine
 10
664.53619
 20
523.07971
 30
0.0
 11
659.13617
 21
523.07971
 31
0.0
  0
LINE
  5
24D
330
45E
100
AcDbEntity
  8
0
  6
Continuous
 62
     3
100
AcDbLine
 10
669.3361799999999
 20
523.07971
 30
0.0
 11
665.3361799999998
 21
523.07971
 31
0.0
  0
LINE
  5
24E
330
45E
100
AcDbEntity
  8
0
  6
Continuous
 62
     7
100
AcDbLine
 10
669.7362099999998
 20
523.07971
 30
0.0
 11
670.1361699999997
 21
523.07971
 31
0.0
  0
LINE
  5
24F
330
45E
100
AcDbEntity
  8
0
  6
Continuous
 62
     7
100
AcDbLine
 10
664.9362200000001
 20
523.07971
 30
0.0
 11
664.53619
 21
523.07971
 31
0.0
  0
LINE
  5
250
330
45E
100
AcDbEntity
  8
0
  6
Continuous
 62
     7
100
AcDbLine
 10
672.33618
 20
509.0797099999998
 30
0.0
 11
678.33618
 21
509.0797099999998
 31
0.0
  0
LINE
  5
251
330
45E
100
AcDbEntity
  8
0
  6
Continuous
 62
     7
100
AcDbLine
 10
669.3361799999999
 20
509.0797099999998
 30
0.0
 11
669.3361799999999
 21
508.0797099999998
 31
0.0
  0
LINE
  5
252
330
45E
100
AcDbEntity
  8
0
  6
Continuous
 62
     7
100
AcDbLine
 10
665.3361799999998
 20
508.0797099999998
 30
0.0
 11
675.33618
 21
508.0797099999998
 31
0.0
  0
LINE
  5
253
330
45E
100
AcDbEntity
  8
0
  6
Continuous
 62
     7
100
AcDbLine
 10
672.33618
 20
513.0797099999998
 30
0.0
 11
669.3361799999999
 21
513.0797099999998
 31
0.0
  0
LINE
  5
254
330
45E
100
AcDbEntity
  8
0
  6
Continuous
 62
     7
100
AcDbLine
 10
672.33618
 20
509.0797099999998
 30
0.0
 11
669.3361799999999
 21
509.0797099999998
 31
0.0
  0
LINE
  5
255
330
45E
100
AcDbEntity
  8
0
  6
CENTER
 62
     4
100
AcDbLine
 10
706.08618
 20
501.0797099999998
 30
0.0
 11
706.08618
 21
475.59247
 31
0.0
  0
LINE
  5
256
330
45E
100
AcDbEntity
  8
0
  6
CENTER
 62
     4
100
AcDbLine
 10
706.08618
 20
501.0797099999998
 30
0.0
 11
730.8291
 21
501.0797099999998
 31
0.0
  0
LINE
  5
257
330
45E
100
AcDbEntity
  8
0
  6
CENTER
 62
     4
100
AcDbLine
 10
706.08618
 20
501.0797099999998
 30
0.0
 11
706.08618
 21
526.5669599999998
 31
0.0
  0
LINE
  5
258
330
45E
100
AcDbEntity
  8
0
  6
Continuous
 62
     3
100
AcDbLine
 10
510.1354699999998
 20
438.3039199999998
 30
0.0
 11
505.58505
 21
433.11703
 31
0.0
  0
LINE
  5
259
330
45E
100
AcDbEntity
  8
0
  6
Continuous
 62
     3
100
AcDbLine
 10
505.0574599999998
 20
432.5156599999998
 30
0.0
 11
479.78702
 21
403.7104799999998
 31
0.0
  0
LINE
  5
25A
330
45E
100
AcDbEntity
  8
0
  6
Continuous
 62
     3
100
AcDbLine
 10
479.78702
 20
403.7104799999998
 30
0.0
 11
434.4598605432596
 21
403.7104799999998
 31
0.0
  0
LINE
  5
25B
330
45E
100
AcDbEntity
  8
0
  6
Continuous
 62
     7
100
AcDbLine
 10
510.3992299999998
 20
438.6045799999997
 30
0.0
 11
510.1354699999998
 21
438.3039199999998
 31
0.0
  0
LINE
  5
25C
330
45E
100
AcDbEntity
  8
0
  6
Continuous
 62
     7
100
AcDbLine
 10
505.3212599999998
 20
432.81631
 30
0.0
 11
505.58505
 21
433.11703
 31
0.0
  0
LINE
  5
25D
330
45E
100
AcDbEntity
  8
0
  6
Continuous
 62
     7
100
AcDbLine
 10
621.1458099999997
 20
401.7104799999998
 30
0.0
 11
591.1458099999999
 21
401.7104799999998
 31
0.0
  0
LINE
  5
25E
330
45E
100
AcDbEntity
  8
0
  6
Continuous
 62
     7
100
AcDbLine
 10
591.1458099999999
 20
401.7104799999998
 30
0.0
 11
591.1458099999999
 21
441.7104799999998
 31
0.0
  0
LINE
  5
25F
330
45E
100
AcDbEntity
  8
0
  6
Continuous
 62
     7
100
AcDbLine
 10
621.1458099999997
 20
441.7104799999998
 30
0.0
 11
621.1458099999997
 21
401.7104799999998
 31
0.0
  0
CIRCLE
  5
260
330
45E
100
AcDbEntity
  8
0
  6
Continuous
 62
     7
100
AcDbCircle
 10
416.4228731246673
 20
522.11932
 30
0.0
 40
1.6133618
  0
CIRCLE
  5
261
330
45E
100
AcDbEntity
  8
0
  6
Continuous
 62
     7
100
AcDbCircle
 10
421.5103187563054
 20
514.18799
 30
0.0
 40
1.7520397
  0
ARC
  5
262
330
45E
100
AcDbEntity
  8
0
  6
Continuous
 62
     7
100
AcDbCircle
 10
500.8602299999998
 20
448.71048
 30
0.0
 40
2.0
100
AcDbArc
 50
90.0
 51
180.0
  0
ARC
  5
263
330
45E
100
AcDbEntity
  8
0
  6
Continuous
 62
     7
100
AcDbCircle
 10
514.86023
 20
448.71048
 30
0.0
 40
2.0
100
AcDbArc
 50
0.0
 51
90.0
  0
ARC
  5
264
330
45E
100
AcDbEntity
  8
0
  6
Continuous
 62
     7
100
AcDbCircle
 10
507.86023
 20
440.7104799999998
 30
0.0
 40
12.0
100
AcDbArc
 50
180.0
 51
0.0
  0
CIRCLE
  5
265
330
45E
100
AcDbEntity
  8
0
  6
DASHED
 62
     6
100
AcDbCircle
 10
507.86023
 20
435.71048
 30
0.0
 40
4.25
  0
CIRCLE
  5
266
330
45E
100
AcDbEntity
  8
0
  6
Continuous
 62
     7
100
AcDbCircle
 10
507.86023
 20
435.71048
 30
0.0
 40
2.25
  0
ARC
  5
267
330
45E
100
AcDbEntity
  8
0
  6
Continuous
 62
     7
100
AcDbCircle
 10
500.8602299999998
 20
445.7104799999998
 30
0.0
 40
2.0
100
AcDbArc
 50
180.0
 51
270.0
  0
ARC
  5
268
330
45E
100
AcDbEntity
  8
0
  6
Continuous
 62
     7
100
AcDbCircle
 10
514.86023
 20
445.7104799999998
 30
0.0
 40
2.0
100
AcDbArc
 50
270.0
 51
0.0
  0
ARC
  5
269
330
45E
100
AcDbEntity
  8
0
  6
Continuous
 62
     7
100
AcDbCircle
 10
497.86023
 20
455.7104799999998
 30
0.0
 40
2.0
100
AcDbArc
 50
90.0
 51
270.0
  0
CIRCLE
  5
26A
330
45E
100
AcDbEntity
  8
0
  6
DASHED
 62
     6
100
AcDbCircle
 10
507.86023
 20
465.7104799999998
 30
0.0
 40
4.25
  0
ARC
  5
26B
330
45E
100
AcDbEntity
  8
0
  6
Continuous
 62
     7
100
AcDbCircle
 10
502.86023
 20
451.2104799999998
 30
0.0
 40
0.5
100
AcDbArc
 50
270.0
 51
0.0
  0
ARC
  5
26C
330
45E
100
AcDbEntity
  8
0
  6
Continuous
 62
     7
100
AcDbCircle
 10
512.8602299999998
 20
451.2104799999998
 30
0.0
 40
0.5
100
AcDbArc
 50
180.0
 51
270.0
  0
CIRCLE
  5
26D
330
45E
100
AcDbEntity
  8
0
  6
Continuous
 62
     7
100
AcDbCircle
 10
507.86023
 20
465.7104799999998
 30
0.0
 40
2.25
  0
ARC
  5
26E
330
45E
100
AcDbEntity
  8
0
  6
Continuous
 62
     7
100
AcDbCircle
 10
507.86023
 20
467.81354
 30
0.0
 40
4.146930199999999
100
AcDbArc
 50
43.661791
 51
136.33821
  0
ARC
  5
26F
330
45E
100
AcDbEntity
  8
0
  6
DASHED
 62
     7
100
AcDbCircle
 10
504.3602299999998
 20
471.67661
 30
0.0
 40
1.0
100
AcDbArc
 50
180.0
 51
270.0
  0
ARC
  5
270
330
45E
100
AcDbEntity
  8
0
  6
Continuous
 62
     7
100
AcDbCircle
 10
517.86023
 20
455.7104799999998
 30
0.0
 40
2.0
100
AcDbArc
 50
270.0
 51
90.0
  0
ARC
  5
271
330
45E
100
AcDbEntity
  8
0
  6
Continuous
 62
     7
100
AcDbCircle
 10
507.86023
 20
482.2104799999998
 30
0.0
 40
7.5
100
AcDbArc
 50
0.0
 51
180.0
  0
ARC
  5
272
330
45E
100
AcDbEntity
  8
0
  6
Continuous
 62
     7
100
AcDbCircle
 10
507.86023
 20
479.2104799999998
 30
0.0
 40
7.5
100
AcDbArc
 50
0.0
 51
180.0
  0
ARC
  5
273
330
45E
100
AcDbEntity
  8
0
  6
DASHED
 62
     7
100
AcDbCircle
 10
507.86023
 20
479.25583
 30
0.0
 40
4.500228899999998
100
AcDbArc
 50
359.4222299999998
 51
180.5777699999999
  0
ARC
  5
274
330
45E
100
AcDbEntity
  8
0
  6
Continuous
 62
     7
100
AcDbCircle
 10
507.86023
 20
476.2104799999998
 30
0.0
 40
7.5
100
AcDbArc
 50
82.33373299999998
 51
97.66626700000003
  0
ARC
  5
275
330
45E
100
AcDbEntity
  8
0
  6
Continuous
 62
     7
100
AcDbCircle
 10
573.3958099999997
 20
430.7104799999998
 30
0.0
 40
2.0
100
AcDbArc
 50
270.0
 51
0.0
  0
ARC
  5
276
330
45E
100
AcDbEntity
  8
0
  6
PHANTOM
 62
     3
100
AcDbCircle
 10
567.39581
 20
443.7091399999998
 30
0.0
 40
2.0
100
AcDbArc
 50
180.0
 51
0.0
  0
ARC
  5
277
330
45E
100
AcDbEntity
  8
0
  6
Continuous
 62
     7
100
AcDbCircle
 10
705.3291
 20
501.0797099999998
 30
0.0
 40
22.5
100
AcDbArc
 50
212.2309899999999
 51
147.76901
  0
ARC
  5
278
330
45E
100
AcDbEntity
  8
0
  6
Continuous
 62
     7
100
AcDbCircle
 10
567.39581
 20
455.7104799999998
 30
0.0
 40
2.0
100
AcDbArc
 50
90.0
 51
270.0
  0
ARC
  5
279
330
45E
100
AcDbEntity
  8
0
  6
PHANTOM
 62
     3
100
AcDbCircle
 10
567.39581
 20
489.71048
 30
0.0
 40
2.0
100
AcDbArc
 50
0.0
 51
180.0
  0
ARC
  5
27A
330
45E
100
AcDbEntity
  8
0
  6
Continuous
 62
     7
100
AcDbCircle
 10
573.3958099999997
 20
487.7104799999998
 30
0.0
 40
2.0
100
AcDbArc
 50
0.0
 51
90.0
  0
ARC
  5
27B
330
45E
100
AcDbEntity
  8
0
  6
Continuous
 62
     7
100
AcDbCircle
 10
613.39581
 20
455.7104799999998
 30
0.0
 40
2.0
100
AcDbArc
 50
270.0
 51
90.0
  0
ARC
  5
27C
330
45E
100
AcDbEntity
  8
0
  6
PHANTOM
 62
     3
100
AcDbCircle
 10
599.92273
 20
488.2373999999998
 30
0.0
 40
2.0
100
AcDbArc
 50
314.9993799999998
 51
134.99938
  0
ARC
  5
27D
330
45E
100
AcDbEntity
  8
0
  6
Continuous
 62
     7
100
AcDbCircle
 10
705.3291
 20
501.0797099999998
 30
0.0
 40
22.5
100
AcDbArc
 50
159.1724899999999
 51
200.82751
  0
ARC
  5
27E
330
45E
100
AcDbEntity
  8
0
  6
Continuous
 62
     7
100
AcDbCircle
 10
669.3361799999999
 20
493.0797099999998
 30
0.0
 40
4.0
100
AcDbArc
 50
180.0
 51
270.0
  0
ARC
  5
27F
330
45E
100
AcDbEntity
  8
0
  6
Continuous
 62
     7
100
AcDbCircle
 10
669.3361799999999
 20
509.0797099999998
 30
0.0
 40
4.0
100
AcDbArc
 50
90.0
 51
180.0
  0
ARC
  5
280
330
45E
100
AcDbEntity
  8
0
  6
Continuous
 62
     7
100
AcDbCircle
 10
703.33618
 20
501.0797099999998
 30
0.0
 40
12.0
100
AcDbArc
 50
270.0
 51
90.0
  0
CIRCLE
  5
281
330
45E
100
AcDbEntity
  8
0
  6
Continuous
 62
     7
100
AcDbCircle
 10
706.08618
 20
501.0797099999998
 30
0.0
 40
6.5
  0
ARC
  5
282
330
45E
100
AcDbEntity
  8
0
  6
Continuous
 62
     7
100
AcDbCircle
 10
706.08618
 20
501.0797099999998
 30
0.0
 40
6.5
100
AcDbArc
 50
270.0
 51
90.0
  0
ARC
  5
283
330
45E
100
AcDbEntity
  8
0
  6
Continuous
 62
     7
100
AcDbCircle
 10
703.33618
 20
501.0797099999998
 30
0.0
 40
8.0
100
AcDbArc
 50
270.0
 51
311.77377
  0
ARC
  5
284
330
45E
100
AcDbEntity
  8
0
  6
Continuous
 62
     7
100
AcDbCircle
 10
703.33618
 20
501.0797099999998
 30
0.0
 40
8.0
100
AcDbArc
 50
48.22622599999998
 51
90.0
  0
POLYLINE
  5
285
330
45E
100
AcDbEntity
  8
0
  6
Continuous
 62
     7
100
AcDb2dPolyline
 66
     1
 10
0.0
 20
0.0
 30
0.0
  0
VERTEX
  5
3CF
330
285
100
AcDbEntity
  8
0
  6
Continuous
 62
     7
100
AcDbVertex
100
AcDb2dVertex
 10
495.8602299999998
 20
440.7104799999998
 30
0.0
  0
VERTEX
  5
3D0
330
285
100
AcDbEntity
  8
0
  6
Continuous
 62
     7
100
AcDbVertex
100
AcDb2dVertex
 10
519.86023
 20
440.7104799999998
 30
0.0
  0
VERTEX
  5
3D1
330
285
100
AcDbEntity
  8
0
  6
Continuous
 62
     7
100
AcDbVertex
100
AcDb2dVertex
 10
519.86023
 20
453.7104799999998
 30
0.0
  0
VERTEX
  5
3D2
330
285
100
AcDbEntity
  8
0
  6
Continuous
 62
     7
100
AcDbVertex
100
AcDb2dVertex
 10
510.86023
 20
453.7104799999998
 30
0.0
  0
SEQEND
  5
3D3
330
285
100
AcDbEntity
  8
0
  6
Continuous
 62
     7
  0
POLYLINE
  5
28B
330
45E
100
AcDbEntity
  8
0
  6
Continuous
 62
     7
100
AcDb2dPolyline
 66
     1
 10
0.0
 20
0.0
 30
0.0
  0
VERTEX
  5
3D4
330
28B
100
AcDbEntity
  8
0
  6
Continuous
 62
     7
100
AcDbVertex
100
AcDb2dVertex
 10
504.8602299999997
 20
453.7104799999998
 30
0.0
  0
VERTEX
  5
3D5
330
28B
100
AcDbEntity
  8
0
  6
Continuous
 62
     7
100
AcDbVertex
100
AcDb2dVertex
 10
495.8602299999998
 20
453.7104799999998
 30
0.0
  0
VERTEX
  5
3D6
330
28B
100
AcDbEntity
  8
0
  6
Continuous
 62
     7
100
AcDbVertex
100
AcDb2dVertex
 10
495.8602299999998
 20
440.7104799999998
 30
0.0
  0
SEQEND
  5
3D7
330
28B
100
AcDbEntity
  8
0
  6
Continuous
 62
     7
  0
POLYLINE
  5
290
330
45E
100
AcDbEntity
  8
0
  6
Continuous
 62
     7
100
AcDb2dPolyline
 66
     1
 10
0.0
 20
0.0
 30
0.0
  0
VERTEX
  5
3D8
330
290
100
AcDbEntity
  8
0
  6
Continuous
 62
     7
100
AcDbVertex
100
AcDb2dVertex
 10
510.86023
 20
457.7104799999998
 30
0.0
  0
VERTEX
  5
3D9
330
290
100
AcDbEntity
  8
0
  6
Continuous
 62
     7
100
AcDbVertex
100
AcDb2dVertex
 10
515.36023
 20
457.7104799999998
 30
0.0
  0
VERTEX
  5
3DA
330
290
100
AcDbEntity
  8
0
  6
Continuous
 62
     7
100
AcDbVertex
100
AcDb2dVertex
 10
515.36023
 20
482.2104799999998
 30
0.0
  0
SEQEND
  5
3DB
330
290
100
AcDbEntity
  8
0
  6
Continuous
 62
     7
  0
POLYLINE
  5
295
330
45E
100
AcDbEntity
  8
0
  6
DASHED
 62
     7
100
AcDb2dPolyline
 66
     1
 10
0.0
 20
0.0
 30
0.0
  0
VERTEX
  5
3DC
330
295
100
AcDbEntity
  8
0
  6
DASHED
 62
     7
100
AcDbVertex
100
AcDb2dVertex
 10
510.86023
 20
470.67661
 30
0.0
  0
VERTEX
  5
3DD
330
295
100
AcDbEntity
  8
0
  6
DASHED
 62
     7
100
AcDbVertex
100
AcDb2dVertex
 10
511.36023
 20
470.67661
 30
0.0
  0
SEQEND
  5
3DE
330
295
100
AcDbEntity
  8
0
  6
DASHED
 62
     7
  0
POLYLINE
  5
299
330
45E
100
AcDbEntity
  8
0
  6
DASHED
 62
     7
100
AcDb2dPolyline
 66
     1
 10
0.0
 20
0.0
 30
0.0
  0
VERTEX
  5
3DF
330
299
100
AcDbEntity
  8
0
  6
DASHED
 62
     7
100
AcDbVertex
100
AcDb2dVertex
 10
511.36023
 20
470.67661
 30
0.0
 42
0.096940966
  0
VERTEX
  5
3E0
330
299
100
AcDbEntity
  8
0
  6
DASHED
 62
     7
100
AcDbVertex
100
AcDb2dVertex
 10
511.85812
 20
470.8174999999998
 30
0.0
 42
0.15856198
  0
VERTEX
  5
3E1
330
299
100
AcDbEntity
  8
0
  6
DASHED
 62
     7
100
AcDbVertex
100
AcDb2dVertex
 10
512.21956
 20
471.17915
 30
0.0
 42
0.096787929
  0
VERTEX
  5
3E2
330
299
100
AcDbEntity
  8
0
  6
DASHED
 62
     7
100
AcDbVertex
100
AcDb2dVertex
 10
512.3602299999999
 20
471.67661
 30
0.0
  0
SEQEND
  5
3E3
330
299
100
AcDbEntity
  8
0
  6
DASHED
 62
     7
  0
POLYLINE
  5
29F
330
45E
100
AcDbEntity
  8
0
  6
DASHED
 62
     7
100
AcDb2dPolyline
 66
     1
 10
0.0
 20
0.0
 30
0.0
  0
VERTEX
  5
3E4
330
29F
100
AcDbEntity
  8
0
  6
DASHED
 62
     7
100
AcDbVertex
100
AcDb2dVertex
 10
512.3602299999999
 20
471.67661
 30
0.0
  0
VERTEX
  5
3E5
330
29F
100
AcDbEntity
  8
0
  6
DASHED
 62
     7
100
AcDbVertex
100
AcDb2dVertex
 10
512.3602299999999
 20
479.3012099999998
 30
0.0
  0
SEQEND
  5
3E6
330
29F
100
AcDbEntity
  8
0
  6
DASHED
 62
     7
  0
POLYLINE
  5
2A3
330
45E
100
AcDbEntity
  8
0
  6
Continuous
 62
     7
100
AcDb2dPolyline
 66
     1
 10
0.0
 20
0.0
 30
0.0
  0
VERTEX
  5
3E7
330
2A3
100
AcDbEntity
  8
0
  6
Continuous
 62
     7
100
AcDbVertex
100
AcDb2dVertex
 10
517.86023
 20
457.7104799999998
 30
0.0
  0
VERTEX
  5
3E8
330
2A3
100
AcDbEntity
  8
0
  6
Continuous
 62
     7
100
AcDbVertex
100
AcDb2dVertex
 10
510.86023
 20
457.7104799999998
 30
0.0
  0
VERTEX
  5
3E9
330
2A3
100
AcDbEntity
  8
0
  6
Continuous
 62
     7
100
AcDbVertex
100
AcDb2dVertex
 10
510.86023
 20
453.7104799999998
 30
0.0
  0
SEQEND
  5
3EA
330
2A3
100
AcDbEntity
  8
0
  6
Continuous
 62
     7
  0
POLYLINE
  5
2A8
330
45E
100
AcDbEntity
  8
0
  6
Continuous
 62
     7
100
AcDb2dPolyline
 66
     1
 10
0.0
 20
0.0
 30
0.0
  0
VERTEX
  5
3EB
330
2A8
100
AcDbEntity
  8
0
  6
Continuous
 62
     7
100
AcDbVertex
100
AcDb2dVertex
 10
510.86023
 20
453.7104799999998
 30
0.0
  0
VERTEX
  5
3EC
330
2A8
100
AcDbEntity
  8
0
  6
Continuous
 62
     7
100
AcDbVertex
100
AcDb2dVertex
 10
517.86023
 20
453.7104799999998
 30
0.0
  0
SEQEND
  5
3ED
330
2A8
100
AcDbEntity
  8
0
  6
Continuous
 62
     7
  0
POLYLINE
  5
2AC
330
45E
100
AcDbEntity
  8
0
  6
Continuous
 62
     7
100
AcDb2dPolyline
 66
     1
 10
0.0
 20
0.0
 30
0.0
  0
VERTEX
  5
3EE
330
2AC
100
AcDbEntity
  8
0
  6
Continuous
 62
     7
100
AcDbVertex
100
AcDb2dVertex
 10
497.86023
 20
453.7104799999998
 30
0.0
  0
VERTEX
  5
3EF
330
2AC
100
AcDbEntity
  8
0
  6
Continuous
 62
     7
100
AcDbVertex
100
AcDb2dVertex
 10
504.8602299999997
 20
453.7104799999998
 30
0.0
  0
VERTEX
  5
3F0
330
2AC
100
AcDbEntity
  8
0
  6
Continuous
 62
     7
100
AcDbVertex
100
AcDb2dVertex
 10
504.8602299999997
 20
457.7104799999998
 30
0.0
  0
VERTEX
  5
3F1
330
2AC
100
AcDbEntity
  8
0
  6
Continuous
 62
     7
100
AcDbVertex
100
AcDb2dVertex
 10
497.86023
 20
457.7104799999998
 30
0.0
  0
SEQEND
  5
3F2
330
2AC
100
AcDbEntity
  8
0
  6
Continuous
 62
     7
  0
POLYLINE
  5
2B2
330
45E
100
AcDbEntity
  8
0
  6
Continuous
 62
     7
100
AcDb2dPolyline
 66
     1
 10
0.0
 20
0.0
 30
0.0
  0
VERTEX
  5
3F3
330
2B2
100
AcDbEntity
  8
0
  6
Continuous
 62
     7
100
AcDbVertex
100
AcDb2dVertex
 10
500.5495
 20
457.7104799999998
 30
0.0
  0
VERTEX
  5
3F4
330
2B2
100
AcDbEntity
  8
0
  6
Continuous
 62
     7
100
AcDbVertex
100
AcDb2dVertex
 10
504.8602299999997
 20
457.7104799999998
 30
0.0
  0
SEQEND
  5
3F5
330
2B2
100
AcDbEntity
  8
0
  6
Continuous
 62
     7
  0
POLYLINE
  5
2B6
330
45E
100
AcDbEntity
  8
0
  6
Continuous
 62
     7
100
AcDb2dPolyline
 66
     1
 10
0.0
 20
0.0
 30
0.0
  0
VERTEX
  5
3F6
330
2B6
100
AcDbEntity
  8
0
  6
Continuous
 62
     7
100
AcDbVertex
100
AcDb2dVertex
 10
628.6458099999999
 20
441.7104799999998
 30
0.0
  0
VERTEX
  5
3F7
330
2B6
100
AcDbEntity
  8
0
  6
Continuous
 62
     7
100
AcDbVertex
100
AcDb2dVertex
 10
583.6458099999997
 20
441.7104799999998
 30
0.0
  0
VERTEX
  5
3F8
330
2B6
100
AcDbEntity
  8
0
  6
Continuous
 62
     7
100
AcDbVertex
100
AcDb2dVertex
 10
583.6458099999997
 20
451.7104799999998
 30
0.0
  0
SEQEND
  5
3F9
330
2B6
100
AcDbEntity
  8
0
  6
Continuous
 62
     7
  0
POLYLINE
  5
2BB
330
45E
100
AcDbEntity
  8
0
  6
Continuous
 62
     7
100
AcDb2dPolyline
 66
     1
 10
0.0
 20
0.0
 30
0.0
  0
VERTEX
  5
3FA
330
2BB
100
AcDbEntity
  8
0
  6
Continuous
 62
     7
100
AcDbVertex
100
AcDb2dVertex
 10
583.6458099999997
 20
451.7104799999998
 30
0.0
 42
-0.096815506
  0
VERTEX
  5
3FB
330
2BB
100
AcDbEntity
  8
0
  6
Continuous
 62
     7
100
AcDbVertex
100
AcDb2dVertex
 10
583.9271499999997
 20
452.70535
 30
0.0
 42
-0.15870214
  0
VERTEX
  5
3FC
330
2BB
100
AcDbEntity
  8
0
  6
Continuous
 62
     7
100
AcDbVertex
100
AcDb2dVertex
 10
584.65097
 20
453.4291599999998
 30
0.0
 42
-0.096814584
  0
VERTEX
  5
3FD
330
2BB
100
AcDbEntity
  8
0
  6
Continuous
 62
     7
100
AcDbVertex
100
AcDb2dVertex
 10
585.64581
 20
453.7104799999998
 30
0.0
  0
SEQEND
  5
3FE
330
2BB
100
AcDbEntity
  8
0
  6
Continuous
 62
     7
  0
POLYLINE
  5
2C1
330
45E
100
AcDbEntity
  8
0
  6
Continuous
 62
     7
100
AcDb2dPolyline
 66
     1
 10
0.0
 20
0.0
 30
0.0
  0
VERTEX
  5
3FF
330
2C1
100
AcDbEntity
  8
0
  6
Continuous
 62
     7
100
AcDbVertex
100
AcDb2dVertex
 10
585.64581
 20
453.7104799999998
 30
0.0
  0
VERTEX
  5
400
330
2C1
100
AcDbEntity
  8
0
  6
Continuous
 62
     7
100
AcDbVertex
100
AcDb2dVertex
 10
626.64581
 20
453.7104799999998
 30
0.0
  0
SEQEND
  5
401
330
2C1
100
AcDbEntity
  8
0
  6
Continuous
 62
     7
  0
POLYLINE
  5
2C5
330
45E
100
AcDbEntity
  8
0
  6
Continuous
 62
     7
100
AcDb2dPolyline
 66
     1
 10
0.0
 20
0.0
 30
0.0
  0
VERTEX
  5
402
330
2C5
100
AcDbEntity
  8
0
  6
Continuous
 62
     7
100
AcDbVertex
100
AcDb2dVertex
 10
626.64581
 20
453.7104799999998
 30
0.0
 42
-0.28706384
  0
VERTEX
  5
403
330
2C5
100
AcDbEntity
  8
0
  6
Continuous
 62
     7
100
AcDbVertex
100
AcDb2dVertex
 10
628.4000599999999
 20
452.6022199999998
 30
0.0
 42
-0.076205577
  0
VERTEX
  5
404
330
2C5
100
AcDbEntity
  8
0
  6
Continuous
 62
     7
100
AcDbVertex
100
AcDb2dVertex
 10
628.78387
 20
450.45763
 30
0.0
 42
-0.028299024
  0
VERTEX
  5
405
330
2C5
100
AcDbEntity
  8
0
  6
Continuous
 62
     7
100
AcDbVertex
100
AcDb2dVertex
 10
628.7415099999998
 20
448.27021
 30
0.0
 42
0.010868719
  0
VERTEX
  5
406
330
2C5
100
AcDbEntity
  8
0
  6
Continuous
 62
     7
100
AcDbVertex
100
AcDb2dVertex
 10
628.6239099999997
 20
446.0858499999998
 30
0.0
 42
0.009648348
  0
VERTEX
  5
407
330
2C5
100
AcDbEntity
  8
0
  6
Continuous
 62
     7
100
AcDbVertex
100
AcDb2dVertex
 10
628.62131
 20
443.8982399999998
 30
0.0
 42
-0.0034226239
  0
VERTEX
  5
408
330
2C5
100
AcDbEntity
  8
0
  6
Continuous
 62
     7
100
AcDbVertex
100
AcDb2dVertex
 10
628.6458099999999
 20
441.7104799999998
 30
0.0
  0
SEQEND
  5
409
330
2C5
100
AcDbEntity
  8
0
  6
Continuous
 62
     7
  0
POLYLINE
  5
2CE
330
45E
100
AcDbEntity
  8
0
  6
Continuous
 62
     7
100
AcDb2dPolyline
 66
     1
 10
0.0
 20
0.0
 30
0.0
  0
VERTEX
  5
40A
330
2CE
100
AcDbEntity
  8
0
  6
Continuous
 62
     7
100
AcDbVertex
100
AcDb2dVertex
 10
628.6458099999999
 20
451.7104799999998
 30
0.0
  0
VERTEX
  5
40B
330
2CE
100
AcDbEntity
  8
0
  6
Continuous
 62
     7
100
AcDbVertex
100
AcDb2dVertex
 10
628.6458099999999
 20
441.7104799999998
 30
0.0
  0
SEQEND
  5
40C
330
2CE
100
AcDbEntity
  8
0
  6
Continuous
 62
     7
  0
POLYLINE
  5
2D2
330
45E
100
AcDbEntity
  8
0
  6
PHANTOM
 62
     3
100
AcDb2dPolyline
 66
     1
 10
0.0
 20
0.0
 30
0.0
  0
VERTEX
  5
40D
330
2D2
100
AcDbEntity
  8
0
  6
PHANTOM
 62
     3
100
AcDbVertex
100
AcDb2dVertex
 10
569.3958099999997
 20
489.71048
 30
0.0
  0
VERTEX
  5
40E
330
2D2
100
AcDbEntity
  8
0
  6
PHANTOM
 62
     3
100
AcDbVertex
100
AcDb2dVertex
 10
569.3958099999997
 20
443.7091399999998
 30
0.0
  0
SEQEND
  5
40F
330
2D2
100
AcDbEntity
  8
0
  6
PHANTOM
 62
     3
  0
POLYLINE
  5
2D6
330
45E
100
AcDbEntity
  8
0
  6
PHANTOM
 62
     3
100
AcDb2dPolyline
 66
     1
 10
0.0
 20
0.0
 30
0.0
  0
VERTEX
  5
410
330
2D6
100
AcDbEntity
  8
0
  6
PHANTOM
 62
     3
100
AcDbVertex
100
AcDb2dVertex
 10
565.3958099999997
 20
443.7091399999998
 30
0.0
  0
VERTEX
  5
411
330
2D6
100
AcDbEntity
  8
0
  6
PHANTOM
 62
     3
100
AcDbVertex
100
AcDb2dVertex
 10
565.3958099999997
 20
489.71048
 30
0.0
  0
SEQEND
  5
412
330
2D6
100
AcDbEntity
  8
0
  6
PHANTOM
 62
     3
  0
POLYLINE
  5
2DA
330
45E
100
AcDbEntity
  8
0
  6
Continuous
 62
     7
100
AcDb2dPolyline
 66
     1
 10
0.0
 20
0.0
 30
0.0
  0
VERTEX
  5
413
330
2DA
100
AcDbEntity
  8
0
  6
Continuous
 62
     7
100
AcDbVertex
100
AcDb2dVertex
 10
570.39581
 20
457.7104799999998
 30
0.0
  0
VERTEX
  5
414
330
2DA
100
AcDbEntity
  8
0
  6
Continuous
 62
     7
100
AcDbVertex
100
AcDb2dVertex
 10
613.39581
 20
457.7104799999998
 30
0.0
  0
SEQEND
  5
415
330
2DA
100
AcDbEntity
  8
0
  6
Continuous
 62
     7
  0
POLYLINE
  5
2DE
330
45E
100
AcDbEntity
  8
0
  6
Continuous
 62
     7
100
AcDb2dPolyline
 66
     1
 10
0.0
 20
0.0
 30
0.0
  0
VERTEX
  5
416
330
2DE
100
AcDbEntity
  8
0
  6
Continuous
 62
     7
100
AcDbVertex
100
AcDb2dVertex
 10
615.3958099999997
 20
453.7104799999998
 30
0.0
  0
VERTEX
  5
417
330
2DE
100
AcDbEntity
  8
0
  6
Continuous
 62
     7
100
AcDbVertex
100
AcDb2dVertex
 10
570.39581
 20
453.7104799999998
 30
0.0
  0
SEQEND
  5
418
330
2DE
100
AcDbEntity
  8
0
  6
Continuous
 62
     7
  0
POLYLINE
  5
2E2
330
45E
100
AcDbEntity
  8
0
  6
Continuous
 62
     7
100
AcDb2dPolyline
 66
     1
 10
0.0
 20
0.0
 30
0.0
  0
VERTEX
  5
419
330
2E2
100
AcDbEntity
  8
0
  6
Continuous
 62
     7
100
AcDbVertex
100
AcDb2dVertex
 10
612.6458099999998
 20
461.7104799999999
 30
0.0
  0
VERTEX
  5
41A
330
2E2
100
AcDbEntity
  8
0
  6
Continuous
 62
     7
100
AcDbVertex
100
AcDb2dVertex
 10
599.6458099999999
 20
461.7104799999999
 30
0.0
  0
VERTEX
  5
41B
330
2E2
100
AcDbEntity
  8
0
  6
Continuous
 62
     7
100
AcDbVertex
100
AcDb2dVertex
 10
599.6458099999999
 20
463.2104799999998
 30
0.0
  0
VERTEX
  5
41C
330
2E2
100
AcDbEntity
  8
0
  6
Continuous
 62
     7
100
AcDbVertex
100
AcDb2dVertex
 10
600.1458099999998
 20
463.7104799999998
 30
0.0
  0
VERTEX
  5
41D
330
2E2
100
AcDbEntity
  8
0
  6
Continuous
 62
     7
100
AcDbVertex
100
AcDb2dVertex
 10
612.1458099999999
 20
463.7104799999998
 30
0.0
  0
VERTEX
  5
41E
330
2E2
100
AcDbEntity
  8
0
  6
Continuous
 62
     7
100
AcDbVertex
100
AcDb2dVertex
 10
612.6458099999998
 20
463.2104799999998
 30
0.0
  0
VERTEX
  5
41F
330
2E2
100
AcDbEntity
  8
0
  6
Continuous
 62
     7
100
AcDbVertex
100
AcDb2dVertex
 10
612.6458099999998
 20
461.7104799999999
 30
0.0
  0
SEQEND
  5
420
330
2E2
100
AcDbEntity
  8
0
  6
Continuous
 62
     7
  0
POLYLINE
  5
2EB
330
45E
100
AcDbEntity
  8
0
  6
Continuous
 62
     7
100
AcDb2dPolyline
 66
     1
 10
0.0
 20
0.0
 30
0.0
  0
VERTEX
  5
421
330
2EB
100
AcDbEntity
  8
0
  6
Continuous
 62
     7
100
AcDbVertex
100
AcDb2dVertex
 10
611.3958099999997
 20
453.7104799999998
 30
0.0
  0
VERTEX
  5
422
330
2EB
100
AcDbEntity
  8
0
  6
Continuous
 62
     7
100
AcDbVertex
100
AcDb2dVertex
 10
600.89581
 20
453.7104799999998
 30
0.0
  0
SEQEND
  5
423
330
2EB
100
AcDbEntity
  8
0
  6
Continuous
 62
     7
  0
POLYLINE
  5
2EF
330
45E
100
AcDbEntity
  8
0
  6
Continuous
 62
     7
100
AcDb2dPolyline
 66
     1
 10
0.0
 20
0.0
 30
0.0
  0
VERTEX
  5
424
330
2EF
100
AcDbEntity
  8
0
  6
Continuous
 62
     7
100
AcDbVertex
100
AcDb2dVertex
 10
600.89581
 20
457.7104799999998
 30
0.0
  0
VERTEX
  5
425
330
2EF
100
AcDbEntity
  8
0
  6
Continuous
 62
     7
100
AcDbVertex
100
AcDb2dVertex
 10
600.89581
 20
461.7104799999999
 30
0.0
  0
VERTEX
  5
426
330
2EF
100
AcDbEntity
  8
0
  6
Continuous
 62
     7
100
AcDbVertex
100
AcDb2dVertex
 10
611.3958099999997
 20
461.7104799999999
 30
0.0
  0
VERTEX
  5
427
330
2EF
100
AcDbEntity
  8
0
  6
Continuous
 62
     7
100
AcDbVertex
100
AcDb2dVertex
 10
611.3958099999997
 20
457.7104799999998
 30
0.0
  0
SEQEND
  5
428
330
2EF
100
AcDbEntity
  8
0
  6
Continuous
 62
     7
  0
TEXT
  5
2F9
330
45E
100
AcDbEntity
  8
0
  6
Continuous
 62
     7
100
AcDbText
 10
370.41241
 20
570.1399
 30
0.0
 40
3.2
  1
品　名
 41
0.60999997
100
AcDbText
  0
TEXT
  5
2FA
330
45E
100
AcDbEntity
  8
0
  6
Continuous
 62
     7
100
AcDbText
 10
370.41241
 20
562.1399
 30
0.0
 40
3.2
  1
品　番
 41
0.60999997
100
AcDbText
  0
TEXT
  5
2FB
330
45E
100
AcDbEntity
  8
0
  6
Continuous
 62
     7
100
AcDbText
 10
370.41241
 20
554.1399
 30
0.0
 40
3.2
  1
材　質
 41
0.60999997
100
AcDbText
  0
TEXT
  5
2FC
330
45E
100
AcDbEntity
  8
0
  6
Continuous
 62
     7
100
AcDbText
 10
370.41241
 20
546.1399
 30
0.0
 40
3.2
  1
仕上げ
 41
0.60999997
100
AcDbText
  0
TEXT
  5
2FD
330
45E
100
AcDbEntity
  8
0
  6
Continuous
 62
     7
100
AcDbText
 10
367.21243
 20
522.1398999999999
 30
0.0
 40
3.2
  1
セットビス
 41
0.6099999900000001
100
AcDbText
  0
TEXT
  5
2FE
330
45E
100
AcDbEntity
  8
0
  6
Continuous
 62
     7
100
AcDbText
 10
372.01243
 20
498.1399
 30
0.0
 40
3.2
  1
備考
 41
0.61
100
AcDbText
  0
TEXT
  5
2FF
330
45E
100
AcDbEntity
  8
0
  6
Continuous
 62
     7
100
AcDbText
 10
370.41241
 20
538.1399
 30
0.0
 40
3.2
  1
定　尺
 41
0.60999997
100
AcDbText
  0
TEXT
  5
300
330
45E
100
AcDbEntity
  8
0
  6
Continuous
 62
     7
100
AcDbText
 10
368.81243
 20
530.1398999999999
 30
0.0
 40
3.2
  1
左右勝手
 41
0.60999998
100
AcDbText
  0
TEXT
  5
301
330
45E
100
AcDbEntity
  8
0
  6
Continuous
 62
     7
100
AcDbText
 10
387.61241
 20
568.53993
 30
0.0
 40
3.2
  1
ドアーストップ（フック付）
 41
0.75000003
100
AcDbText
  0
TEXT
  5
302
330
45E
100
AcDbEntity
  8
0
  6
Continuous
 62
     7
100
AcDbText
 10
387.61242
 20
560.53993
 30
0.0
 40
3.2
  1
DCF-56-50
 41
0.75974022
100
AcDbText
  0
TEXT
  5
303
330
45E
100
AcDbEntity
  8
0
  6
Continuous
 62
     7
100
AcDbText
 10
387.61242
 20
552.53993
 30
0.0
 40
3.2
  1
亜鉛ダイキャスト
 41
0.7499999800000002
100
AcDbText
  0
TEXT
  5
304
330
45E
100
AcDbEntity
  8
0
  6
Continuous
 62
     7
100
AcDbText
 10
387.61241
 20
544.53993
 30
0.0
 40
3.2
  1
サーチライトニッケルクロム
 41
0.75000003
100
AcDbText
  0
TEXT
  5
305
330
45E
100
AcDbEntity
  8
0
  6
Continuous
 62
     7
100
AcDbText
 10
387.6124299999998
 20
528.53993
 30
0.0
 40
3.2
  1
無し
 41
0.74999999
100
AcDbText
  0
TEXT
  5
306
330
45E
100
AcDbEntity
  8
0
  6
Continuous
 62
     7
100
AcDbText
 10
387.61242
 20
520.53993
 30
0.0
 40
3.2
  1
Ｍ４×１６サラ小ネジ＋ＳＵＳ２本付
 41
0.72126053
100
AcDbText
  0
TEXT
  5
307
330
45E
100
AcDbEntity
  8
0
  6
Continuous
 62
     7
100
AcDbText
 10
387.61242
 20
512.5398999999998
 30
0.0
 40
3.2
  1
呼４．１×３２サラ木ネジ＋ＳＵＳ２本付
 41
0.7115095500000001
100
AcDbText
  0
TEXT
  5
308
330
45E
100
AcDbEntity
  8
0
  6
Continuous
 62
     7
100
AcDbText
 10
387.61242
 20
496.5398999999998
 30
0.0
 40
3.2
  1
オールアンカーＭ１０×６０付
 41
0.71495181
100
AcDbText
  0
TEXT
  5
309
330
45E
100
AcDbEntity
  8
0
  6
Continuous
 62
     3
100
AcDbText
 10
553.89553
 20
412.54381
 30
0.0
 40
3.2
  1
27
 50
90.00000300000001
100
AcDbText
  0
TEXT
  5
30A
330
45E
100
AcDbEntity
  8
0
  6
Continuous
 62
     3
100
AcDbText
 10
543.89584
 20
456.5438099999998
 30
0.0
 40
3.2
  1
61
 50
90.00000300000001
 41
1.1538462
100
AcDbText
  0
TEXT
  5
30B
330
45E
100
AcDbEntity
  8
0
  6
Continuous
 62
     3
100
AcDbText
 10
553.89553
 20
439.5438099999998
 30
0.0
 40
3.2
  1
27
 50
90.00000300000001
100
AcDbText
  0
TEXT
  5
30C
330
45E
100
AcDbEntity
  8
0
  6
Continuous
 62
     3
100
AcDbText
 10
553.89584
 20
470.0438099999998
 30
0.0
 40
3.2
  1
34
 50
90.00000300000001
100
AcDbText
  0
TEXT
  5
30D
330
45E
100
AcDbEntity
  8
0
  6
Continuous
 62
     3
100
AcDbText
 10
533.3602499999998
 20
448.0438099999998
 30
0.0
 40
3.2
  1
30
 50
90.00000300000001
 41
1.071428599999999
100
AcDbText
  0
TEXT
  5
30E
330
45E
100
AcDbEntity
  8
0
  6
Continuous
 62
     3
100
AcDbText
 10
505.19356
 20
415.2107899999998
 30
0.0
 40
3.2
  1
24
100
AcDbText
  0
TEXT
  5
30F
330
45E
100
AcDbEntity
  8
0
  6
Continuous
 62
     3
100
AcDbText
 10
533.3602499999998
 20
431.14381
 30
0.0
 40
3.2
  1
7
 50
90.00000300000001
100
AcDbText
  0
TEXT
  5
310
330
45E
100
AcDbEntity
  8
0
  6
Continuous
 62
     3
100
AcDbText
 10
533.35995
 20
475.0438099999998
 30
0.0
 40
3.2
  1
24
 50
90.00000300000001
100
AcDbText
  0
TEXT
  5
311
330
45E
100
AcDbEntity
  8
0
  6
Continuous
 62
     3
100
AcDbText
 10
652.14553
 20
425.0438099999998
 30
0.0
 40
3.2
  1
52
 50
90.00000300000001
100
AcDbText
  0
TEXT
  5
312
330
45E
100
AcDbEntity
  8
0
  6
Continuous
 62
     3
100
AcDbText
 10
642.1455299999998
 20
445.0438099999998
 30
0.0
 40
3.2
  1
12
 50
90.00000300000001
 41
1.25
100
AcDbText
  0
TEXT
  5
313
330
45E
100
AcDbEntity
  8
0
  6
Continuous
 62
     3
100
AcDbText
 10
622.869646131885
 20
348.37049
 30
0.0
 40
3.2
  1
（ドリル径%%C１０．５）
 41
0.9151785399999999
100
AcDbText
  0
TEXT
  5
314
330
45E
100
AcDbEntity
  8
0
  6
Continuous
 62
     3
100
AcDbText
 10
601.57515
 20
338.2104899999999
 30
0.0
 40
3.2
  1
%%C３０
 41
0.90021012
100
AcDbText
  0
TEXT
  5
315
330
45E
100
AcDbEntity
  8
0
  6
Continuous
 62
     3
100
AcDbText
 10
652.14584
 20
379.04381
 30
0.0
 40
3.2
  1
40
 50
90.00000300000001
 41
1.071428599999999
100
AcDbText
  0
TEXT
  5
316
330
45E
100
AcDbEntity
  8
0
  6
Continuous
 62
     3
100
AcDbText
 10
642.14584
 20
419.0438099999998
 30
0.0
 40
3.2
  1
40
 50
90.00000300000001
 41
1.071428599999999
100
AcDbText
  0
TEXT
  5
317
330
45E
100
AcDbEntity
  8
0
  6
Continuous
 62
     3
100
AcDbText
 10
687.6695099999998
 20
535.06699
 30
0.0
 40
3.2
  1
50
 41
1.071428599999999
100
AcDbText
  0
TEXT
  5
318
330
45E
100
AcDbEntity
  8
0
  6
Continuous
 62
     3
100
AcDbText
 10
652.14584
 20
456.0438099999998
 30
0.0
 40
3.2
  1
10
 50
90.00000300000001
 41
1.363636399999999
100
AcDbText
  0
TEXT
  5
319
330
45E
100
AcDbEntity
  8
0
  6
Continuous
 62
     3
100
AcDbText
 10
601.57515
 20
503.21049
 30
0.0
 40
3.2
  1
%%C４５
 41
0.90021012
100
AcDbText
  0
TEXT
  5
31A
330
45E
100
AcDbEntity
  8
0
  6
Continuous
 62
     3
100
AcDbText
 10
567.7291499999999
 20
503.21049
 30
0.0
 40
3.2
  1
10
 41
1.363636399999999
100
AcDbText
  0
TEXT
  5
31B
330
45E
100
AcDbEntity
  8
0
  6
Continuous
 62
     3
100
AcDbText
 10
601.57515
 20
475.2104899999998
 30
0.0
 40
3.2
  1
%%C１３
 41
0.90021012
100
AcDbText
  0
TEXT
  5
31C
330
45E
100
AcDbEntity
  8
0
  6
Continuous
 62
     3
100
AcDbText
 10
660.36955
 20
524.57975
 30
0.0
 40
3.2
  1
4
100
AcDbText
  0
TEXT
  5
31D
330
45E
100
AcDbEntity
  8
0
  6
Continuous
 62
     3
100
AcDbText
 10
434.9511047094833
 20
405.21079
 30
0.0
 40
3.2
  1
２－%%C４．５×%%C８．５サラ
 41
0.8991596299999999
100
AcDbText
  0
INSERT
  5
31E
330
45E
100
AcDbEntity
  8
0
  6
Continuous
 62
     7
100
AcDbBlockReference
  2
KOZU0001
 10
555.39581
 20
428.7104799999998
 30
0.0
  0
INSERT
  5
31F
330
45E
100
AcDbEntity
  8
0
  6
Continuous
 62
     7
100
AcDbBlockReference
  2
KOZU0002
 10
555.39581
 20
401.7104799999998
 30
0.0
  0
INSERT
  5
320
330
45E
100
AcDbEntity
  8
0
  6
Continuous
 62
     7
100
AcDbBlockReference
  2
KOZU0003
 10
545.39581
 20
489.71048
 30
0.0
  0
INSERT
  5
321
330
45E
100
AcDbEntity
  8
0
  6
Continuous
 62
     7
100
AcDbBlockReference
  2
KOZU0004
 10
545.39581
 20
428.7104799999998
 30
0.0
  0
INSERT
  5
322
330
45E
100
AcDbEntity
  8
0
  6
Continuous
 62
     7
100
AcDbBlockReference
  2
KOZU0005
 10
555.39581
 20
455.7104799999998
 30
0.0
  0
INSERT
  5
323
330
45E
100
AcDbEntity
  8
0
  6
Continuous
 62
     7
100
AcDbBlockReference
  2
KOZU0006
 10
555.39581
 20
428.7104799999998
 30
0.0
  0
INSERT
  5
324
330
45E
100
AcDbEntity
  8
0
  6
Continuous
 62
     7
100
AcDbBlockReference
  2
KOZU0007
 10
555.39581
 20
489.71048
 30
0.0
  0
INSERT
  5
325
330
45E
100
AcDbEntity
  8
0
  6
Continuous
 62
     7
100
AcDbBlockReference
  2
KOZU0008
 10
555.39581
 20
455.7104799999998
 30
0.0
  0
INSERT
  5
326
330
45E
100
AcDbEntity
  8
0
  6
Continuous
 62
     7
100
AcDbBlockReference
  2
KOZU0009
 10
534.86023
 20
435.71048
 30
0.0
  0
INSERT
  5
327
330
45E
100
AcDbEntity
  8
0
  6
Continuous
 62
     7
100
AcDbBlockReference
  2
KOZU0010
 10
534.86023
 20
465.7104799999998
 30
0.0
  0
INSERT
  5
328
330
45E
100
AcDbEntity
  8
0
  6
Continuous
 62
     7
100
AcDbBlockReference
  2
KOZU0011
 10
519.86023
 20
413.7104799999998
 30
0.0
  0
INSERT
  5
329
330
45E
100
AcDbEntity
  8
0
  6
Continuous
 62
     7
100
AcDbBlockReference
  2
KOZU0012
 10
495.8602299999998
 20
413.7104799999998
 30
0.0
  0
INSERT
  5
32A
330
45E
100
AcDbEntity
  8
0
  6
Continuous
 62
     7
100
AcDbBlockReference
  2
KOZU0013
 10
534.86023
 20
428.7104799999998
 30
0.0
  0
INSERT
  5
32B
330
45E
100
AcDbEntity
  8
0
  6
Continuous
 62
     7
100
AcDbBlockReference
  2
KOZU0014
 10
534.86023
 20
435.71048
 30
0.0
  0
INSERT
  5
32C
330
45E
100
AcDbEntity
  8
0
  6
Continuous
 62
     7
100
AcDbBlockReference
  2
KOZU0015
 10
534.86023
 20
489.71048
 30
0.0
  0
INSERT
  5
32D
330
45E
100
AcDbEntity
  8
0
  6
Continuous
 62
     7
100
AcDbBlockReference
  2
KOZU0016
 10
534.86023
 20
465.7104799999998
 30
0.0
  0
INSERT
  5
32E
330
45E
100
AcDbEntity
  8
0
  6
Continuous
 62
     7
100
AcDbBlockReference
  2
KOZU0017
 10
653.6458099999999
 20
453.7104799999998
 30
0.0
  0
INSERT
  5
32F
330
45E
100
AcDbEntity
  8
0
  6
Continuous
 62
     7
100
AcDbBlockReference
  2
KOZU0018
 10
653.6458099999999
 20
401.7104799999998
 30
0.0
  0
INSERT
  5
330
330
45E
100
AcDbEntity
  8
0
  6
Continuous
 62
     7
100
AcDbBlockReference
  2
KOZU0019
 10
643.64581
 20
453.7104799999998
 30
0.0
  0
INSERT
  5
331
330
45E
100
AcDbEntity
  8
0
  6
Continuous
 62
     7
100
AcDbBlockReference
  2
KOZU0020
 10
643.64581
 20
441.7104799999998
 30
0.0
  0
INSERT
  5
332
330
45E
100
AcDbEntity
  8
0
  6
Continuous
 62
     7
100
AcDbBlockReference
  2
KOZU0021
 10
601.1458099999997
 20
346.7104799999999
 30
0.0
  0
INSERT
  5
333
330
45E
100
AcDbEntity
  8
0
  6
Continuous
 62
     7
100
AcDbBlockReference
  2
KOZU0022
 10
611.14581
 20
346.7104799999999
 30
0.0
  0
INSERT
  5
334
330
45E
100
AcDbEntity
  8
0
  6
Continuous
 62
     7
100
AcDbBlockReference
  2
KOZU0023
 10
591.1458099999999
 20
336.7104799999999
 30
0.0
  0
INSERT
  5
335
330
45E
100
AcDbEntity
  8
0
  6
Continuous
 62
     7
100
AcDbBlockReference
  2
KOZU0024
 10
621.1458099999997
 20
336.7104799999999
 30
0.0
  0
INSERT
  5
336
330
45E
100
AcDbEntity
  8
0
  6
Continuous
 62
     7
100
AcDbBlockReference
  2
KOZU0025
 10
653.6458099999999
 20
401.7104799999998
 30
0.0
  0
INSERT
  5
337
330
45E
100
AcDbEntity
  8
0
  6
Continuous
 62
     7
100
AcDbBlockReference
  2
KOZU0026
 10
653.6458099999999
 20
361.7104799999999
 30
0.0
  0
INSERT
  5
338
330
45E
100
AcDbEntity
  8
0
  6
Continuous
 62
     7
100
AcDbBlockReference
  2
KOZU0027
 10
643.64581
 20
441.7104799999998
 30
0.0
  0
INSERT
  5
339
330
45E
100
AcDbEntity
  8
0
  6
Continuous
 62
     7
100
AcDbBlockReference
  2
KOZU0028
 10
643.64581
 20
401.7104799999998
 30
0.0
  0
INSERT
  5
33A
330
45E
100
AcDbEntity
  8
0
  6
Continuous
 62
     7
100
AcDbBlockReference
  2
KOZU0029
 10
665.3361799999998
 20
533.56696
 30
0.0
  0
INSERT
  5
33B
330
45E
100
AcDbEntity
  8
0
  6
Continuous
 62
     7
100
AcDbBlockReference
  2
KOZU0030
 10
715.3361799999997
 20
533.56696
 30
0.0
  0
INSERT
  5
33C
330
45E
100
AcDbEntity
  8
0
  6
Continuous
 62
     7
100
AcDbBlockReference
  2
KOZU0031
 10
653.6458099999999
 20
463.7104799999998
 30
0.0
  0
INSERT
  5
33D
330
45E
100
AcDbEntity
  8
0
  6
Continuous
 62
     7
100
AcDbBlockReference
  2
KOZU0032
 10
653.6458099999999
 20
453.7104799999998
 30
0.0
  0
INSERT
  5
33E
330
45E
100
AcDbEntity
  8
0
  6
Continuous
 62
     7
100
AcDbBlockReference
  2
KOZU0033
 10
583.6458099999997
 20
501.7104799999998
 30
0.0
  0
INSERT
  5
33F
330
45E
100
AcDbEntity
  8
0
  6
Continuous
 62
     7
100
AcDbBlockReference
  2
KOZU0034
 10
628.6458099999999
 20
501.7104799999998
 30
0.0
  0
INSERT
  5
340
330
45E
100
AcDbEntity
  8
0
  6
Continuous
 62
     7
100
AcDbBlockReference
  2
KOZU0035
 10
565.3958099999997
 20
501.7104799999998
 30
0.0
  0
INSERT
  5
341
330
45E
100
AcDbEntity
  8
0
  6
Continuous
 62
     7
100
AcDbBlockReference
  2
KOZU0036
 10
575.39581
 20
501.7104799999998
 30
0.0
  0
INSERT
  5
342
330
45E
100
AcDbEntity
  8
0
  6
Continuous
 62
     7
100
AcDbBlockReference
  2
KOZU0037
 10
599.6458099999999
 20
473.71048
 30
0.0
  0
INSERT
  5
343
330
45E
100
AcDbEntity
  8
0
  6
Continuous
 62
     7
100
AcDbBlockReference
  2
KOZU0038
 10
612.6458099999998
 20
473.71048
 30
0.0
  0
INSERT
  5
344
330
45E
100
AcDbEntity
  8
0
  6
Continuous
 62
     7
100
AcDbBlockReference
  2
KOZU0039
 10
669.3361799999999
 20
523.07971
 30
0.0
  0
INSERT
  5
345
330
45E
100
AcDbEntity
  8
0
  6
Continuous
 62
     7
100
AcDbBlockReference
  2
KOZU0040
 10
665.3361799999998
 20
523.07971
 30
0.0
  0
INSERT
  5
346
330
45E
100
AcDbEntity
  8
0
  6
Continuous
 62
     7
100
AcDbBlockReference
  2
KOZU0041
 10
510.66302
 20
438.9053
 30
0.0
  0
INSERT
  5
347
330
45E
100
AcDbEntity
  8
0
  6
Continuous
 62
     7
100
AcDbBlockReference
  2
KOZU0042
 10
505.0574599999998
 20
432.5156599999998
 30
0.0
  0
ENDSEC
  0
SECTION
  2
OBJECTS
  0
DICTIONARY
  5
434
330
0
100
AcDbDictionary
281
     1
  3
ACAD_2007HEADERVARS_RT
350
62B
  3
ACAD_COLOR
350
457
  3
ACAD_GROUP
350
435
  3
ACAD_LAYOUT
350
456
  3
ACAD_MATERIAL
350
438
  3
ACAD_MLINESTYLE
350
453
  3
ACAD_PLOTSETTINGS
350
455
  3
ACAD_PLOTSTYLENAME
350
436
  3
ACAD_TABLESTYLE
350
458
  3
ACAD_VISUALSTYLE
350
43C
  3
AcDbVariableDictionary
350
57F
  3
AcmDictionary
350
51D
  3
AMG
350
4C4
  3
AMGSNAPSETTINGS
350
578
  3
DWGPROPS
350
62A
  0
DICTIONARY
  5
62B
102
{ACAD_REACTORS
330
434
102
}
330
434
100
AcDbDictionary
281
     1
  3
DIMARCSYM
350
62C
  0
DICTIONARY
  5
457
102
{ACAD_REACTORS
330
434
102
}
330
434
100
AcDbDictionary
281
     1
  0
DICTIONARY
  5
435
102
{ACAD_REACTORS
330
434
102
}
330
434
100
AcDbDictionary
281
     1
  0
DICTIONARY
  5
456
102
{ACAD_REACTORS
330
434
102
}
330
434
100
AcDbDictionary
281
     1
  3
Model
350
461
  3
レイアウト1
350
45D
  0
DICTIONARY
  5
438
102
{ACAD_REACTORS
330
434
102
}
330
434
100
AcDbDictionary
281
     1
  3
ByBlock
350
43A
  3
ByLayer
350
439
  3
Global
350
43B
  0
DICTIONARY
  5
453
102
{ACAD_REACTORS
330
434
102
}
330
434
100
AcDbDictionary
281
     1
  3
Standard
350
454
  0
DICTIONARY
  5
455
102
{ACAD_REACTORS
330
434
102
}
330
434
100
AcDbDictionary
281
     1
  0
ACDBDICTIONARYWDFLT
  5
436
102
{ACAD_REACTORS
330
434
102
}
330
434
100
AcDbDictionary
281
     1
  3
Normal
350
437
100
AcDbDictionaryWithDefault
340
437
  0
DICTIONARY
  5
458
102
{ACAD_REACTORS
330
434
102
}
330
434
100
AcDbDictionary
281
     1
  3
Standard
350
459
  0
DICTIONARY
  5
43C
102
{ACAD_REACTORS
330
434
102
}
330
434
100
AcDbDictionary
281
     1
  3
2dWireframe
350
442
  3
3D Hidden
350
444
  3
3dWireframe
350
443
  3
Basic
350
441
  3
Brighten
350
448
  3
ColorChange
350
44C
  3
Conceptual
350
445
  3
Dim
350
447
  3
Facepattern
350
44B
  3
Flat
350
43D
  3
FlatWithEdges
350
43E
  3
Gouraud
350
43F
  3
GouraudWithEdges
350
440
  3
Linepattern
350
44A
  3
Realistic
350
446
  3
Thicken
350
449
  0
DICTIONARY
  5
57F
102
{ACAD_REACTORS
330
434
102
}
330
434
100
AcDbDictionary
281
     1
  3
CTABLESTYLE
350
580
  3
DIMASSOC
350
583
  3
INDEXCTL
350
582
  3
SORTENTS
350
581
  0
DICTIONARY
  5
51D
102
{ACAD_REACTORS
330
434
102
}
330
434
100
AcDbDictionary
281
     1
  3
AcmStdDictionary
350
528
  3
AMDTSECTSYM_ARROWCOLOR
350
549
  0
DICTIONARY
  5
4C4
102
{ACAD_REACTORS
330
434
102
}
330
434
100
AcDbDictionary
281
     1
  0
DICTIONARY
  5
578
102
{ACAD_REACTORS
330
434
102
}
330
434
100
AcDbDictionary
281
     1
  0
XRECORD
  5
62A
102
{ACAD_REACTORS
330
434
102
}
330
434
100
AcDbXrecord
280
     1
  1
DWGPROPS COOKIE
  2

  3

  4

  6

  7

  8
Administrator
  9

300
=
301
=
302
=
303
=
304
=
305
=
306
=
307
=
308
=
309
=
 40
0.0053130671296296
 41
2452815.374345209
 42
2454597.577499271
  1

 90
        0
  0
XRECORD
  5
62C
102
{ACAD_REACTORS
330
62B
102
}
330
62B
100
AcDbXrecord
280
     1
 70
     1
  0
LAYOUT
  5
461
102
{ACAD_XDICTIONARY
360
631
102
}
102
{ACAD_REACTORS
330
456
102
}
330
456
100
AcDbPlotSettings
  1

  2
\\CAD-SRV01\FX DocuColor 1250 PLW
  4

  6

 40
0.0
 41
0.0
 42
0.0
 43
0.0
 44
0.0
 45
0.0
 46
0.0
 47
0.0
 48
0.0
 49
0.0
140
0.0
141
0.0
142
1.0
143
1.0
 70
  1712
 72
     0
 73
     0
 74
     0
  7

 75
     0
147
1.0
148
0.0
149
0.0
100
AcDbLayout
  1
Model
 70
     1
 71
     0
 10
0.0
 20
0.0
 11
12.0
 21
9.0
 12
0.0
 22
0.0
 32
0.0
 14
0.0
 24
0.0
 34
0.0
 15
0.0
 25
0.0
 35
0.0
146
0.0
 13
0.0
 23
0.0
 33
0.0
 16
1.0
 26
0.0
 36
0.0
 17
0.0
 27
1.0
 37
0.0
 76
     0
330
45E
331
462
  0
LAYOUT
  5
45D
102
{ACAD_XDICTIONARY
360
62F
102
}
102
{ACAD_REACTORS
330
456
102
}
330
456
100
AcDbPlotSettings
  1

  2
\\CAD-SRV01\FX DocuColor 1250 PLW
  4

  6

 40
0.0
 41
0.0
 42
0.0
 43
0.0
 44
0.0
 45
0.0
 46
0.0
 47
0.0
 48
0.0
 49
0.0
140
0.0
141
0.0
142
1.0
143
1.0
 70
   688
 72
     0
 73
     0
 74
     5
  7

 75
    16
147
1.0
148
0.0
149
0.0
100
AcDbLayout
  1
レイアウト1
 70
     1
 71
     1
 10
344.6839
 20
289.13989
 11
764.6838999999999
 21
586.13989
 12
0.0
 22
0.0
 32
0.0
 14
1.000000000000000E+20
 24
1.000000000000000E+20
 34
1.000000000000000E+20
 15
-1.000000000000000E+20
 25
-1.000000000000000E+20
 35
-1.000000000000000E+20
146
0.0
 13
0.0
 23
0.0
 33
0.0
 16
1.0
 26
0.0
 36
0.0
 17
0.0
 27
1.0
 37
0.0
 76
     0
330
45A
  0
MATERIAL
  5
43A
102
{ACAD_XDICTIONARY
360
587
102
}
102
{ACAD_REACTORS
330
438
102
}
330
438
100
AcDbMaterial
  1
ByBlock
  0
MATERIAL
  5
439
102
{ACAD_XDICTIONARY
360
585
102
}
102
{ACAD_REACTORS
330
438
102
}
330
438
100
AcDbMaterial
  1
ByLayer
  0
MATERIAL
  5
43B
102
{ACAD_XDICTIONARY
360
589
102
}
102
{ACAD_REACTORS
330
438
102
}
330
438
100
AcDbMaterial
  1
Global
  0
MLINESTYLE
  5
454
102
{ACAD_REACTORS
330
453
102
}
330
453
100
AcDbMlineStyle
  2
STANDARD
 70
     0
  3

 62
   256
 51
90.0
 52
90.0
 71
     2
 49
0.5
 62
   256
  6
BYLAYER
 49
-0.5
 62
   256
  6
BYLAYER
  0
ACDBPLACEHOLDER
  5
437
102
{ACAD_REACTORS
330
436
102
}
330
436
  0
TABLESTYLE
  5
459
102
{ACAD_XDICTIONARY
360
62D
102
}
102
{ACAD_REACTORS
330
458
102
}
330
458
100
AcDbTableStyle
  3
Standard
 70
     0
 71
     0
 40
0.06
 41
0.06
280
     0
281
     0
  7
STANDARD
140
0.18
170
     2
 62
     0
 63
     7
283
     0
274
    -2
284
     1
 64
     0
275
    -2
285
     1
 65
     0
276
    -2
286
     1
 66
     0
277
    -2
287
     1
 67
     0
278
    -2
288
     1
 68
     0
279
    -2
289
     1
 69
     0
  7
STANDARD
140
0.25
170
     5
 62
     0
 63
     7
283
     0
274
    -2
284
     1
 64
     0
275
    -2
285
     1
 65
     0
276
    -2
286
     1
 66
     0
277
    -2
287
     1
 67
     0
278
    -2
288
     1
 68
     0
279
    -2
289
     1
 69
     0
  7
STANDARD
140
0.18
170
     5
 62
     0
 63
     7
283
     0
274
    -2
284
     1
 64
     0
275
    -2
285
     1
 65
     0
276
    -2
286
     1
 66
     0
277
    -2
287
     1
 67
     0
278
    -2
288
     1
 68
     0
279
    -2
289
     1
 69
     0
  0
VISUALSTYLE
  5
442
102
{ACAD_REACTORS
330
43C
102
}
330
43C
100
AcDbVisualStyle
  2
2dWireframe
 70
     4
 71
     0
 72
     2
 73
     0
 90
        0
 40
-0.6
 41
-30.0
 62
     5
 63
     7
 74
     1
 91
        4
 64
     7
 65
   257
 75
     1
175
     1
 42
1.0
 92
        0
 66
   257
 43
1.0
 76
     1
 77
     6
 78
     2
 67
     7
 79
     5
170
     0
171
     0
290
     0
174
     0
 93
        1
 44
0.0
173
     0
291
     0
 45
0.0
1001
ACAD
1000
AcDbSavedByObjectVersion
1070
     0
  0
VISUALSTYLE
  5
444
102
{ACAD_REACTORS
330
43C
102
}
330
43C
100
AcDbVisualStyle
  2
3D Hidden
 70
     6
 71
     1
 72
     2
 73
     2
 90
        0
 40
-0.6
 41
-30.0
 62
     5
 63
     7
 74
     2
 91
        2
 64
     7
 65
   257
 75
     2
175
     1
 42
40.0
 92
        0
 66
   257
 43
1.0
 76
     1
 77
     6
 78
     2
 67
     7
 79
     3
170
     0
171
     0
290
     0
174
     0
 93
        1
 44
0.0
173
     0
291
     0
 45
0.0
1001
ACAD
1000
AcDbSavedByObjectVersion
1070
     0
  0
VISUALSTYLE
  5
443
102
{ACAD_REACTORS
330
43C
102
}
330
43C
100
AcDbVisualStyle
  2
3dWireframe
 70
     5
 71
     0
 72
     2
 73
     0
 90
        0
 40
-0.6
 41
-30.0
 62
     5
 63
     7
 74
     1
 91
        4
 64
     7
 65
   257
 75
     1
175
     1
 42
1.0
 92
        0
 66
   257
 43
1.0
 76
     1
 77
     6
 78
     2
 67
     7
 79
     5
170
     0
171
     0
290
     0
174
     0
 93
        1
 44
0.0
173
     0
291
     0
 45
0.0
1001
ACAD
1000
AcDbSavedByObjectVersion
1070
     0
  0
VISUALSTYLE
  5
441
102
{ACAD_REACTORS
330
43C
102
}
330
43C
100
AcDbVisualStyle
  2
Basic
 70
     7
 71
     1
 72
     0
 73
     1
 90
        0
 40
-0.6
 41
-30.0
 62
     5
 63
     7
 74
     0
 91
        4
 64
     7
 65
   257
 75
     1
175
     1
 42
1.0
 92
        8
 66
     7
 43
1.0
 76
     1
 77
     6
 78
     2
 67
     7
 79
     5
170
     0
171
     0
290
     0
174
     0
 93
        1
 44
0.0
173
     0
291
     1
 45
0.0
1001
ACAD
1000
AcDbSavedByObjectVersion
1070
     0
  0
VISUALSTYLE
  5
448
102
{ACAD_REACTORS
330
43C
102
}
330
43C
100
AcDbVisualStyle
  2
Brighten
 70
    12
 71
     2
 72
     2
 73
     0
 90
        0
 40
-0.6
 41
-30.0
 62
     5
 63
     7
 74
     1
 91
        4
 64
     7
 65
   257
 75
     1
175
     1
 42
1.0
 92
        8
 66
     7
 43
1.0
 76
     1
 77
     6
 78
     2
 67
     7
 79
     5
170
     0
171
     0
290
     0
174
     0
 93
        1
 44
50.0
173
     0
291
     1
 45
0.0
1001
ACAD
1000
AcDbSavedByObjectVersion
1070
     0
  0
VISUALSTYLE
  5
44C
102
{ACAD_REACTORS
330
43C
102
}
330
43C
100
AcDbVisualStyle
  2
ColorChange
 70
    16
 71
     2
 72
     2
 73
     3
 90
        0
 40
-0.6
 41
-30.0
 62
     5
 63
     8
 74
     1
 91
        4
 64
     7
 65
   257
 75
     1
175
     1
 42
1.0
 92
        8
 66
     8
 43
1.0
 76
     1
 77
     6
 78
     2
 67
     7
 79
     5
170
     0
171
     0
290
     0
174
     0
 93
        1
 44
0.0
173
     0
291
     1
 45
0.0
1001
ACAD
1000
AcDbSavedByObjectVersion
1070
     0
  0
VISUALSTYLE
  5
445
102
{ACAD_REACTORS
330
43C
102
}
330
43C
100
AcDbVisualStyle
  2
Conceptual
 70
     9
 71
     3
 72
     2
 73
     0
 90
        0
 40
-0.6
 41
-30.0
 62
     5
 63
     7
 74
     2
 91
        2
 64
     7
 65
   257
 75
     1
175
     1
 42
40.0
 92
        8
 66
     7
 43
1.0
 76
     1
 77
     6
 78
     2
 67
     7
 79
     3
170
     0
171
     0
290
     0
174
     0
 93
        1
 44
0.0
173
     0
291
     0
 45
0.0
1001
ACAD
1000
AcDbSavedByObjectVersion
1070
     0
  0
VISUALSTYLE
  5
447
102
{ACAD_REACTORS
330
43C
102
}
330
43C
100
AcDbVisualStyle
  2
Dim
 70
    11
 71
     2
 72
     2
 73
     0
 90
        0
 40
-0.6
 41
-30.0
 62
     5
 63
     7
 74
     1
 91
        4
 64
     7
 65
   257
 75
     1
175
     1
 42
1.0
 92
        8
 66
     7
 43
1.0
 76
     1
 77
     6
 78
     2
 67
     7
 79
     5
170
     0
171
     0
290
     0
174
     0
 93
        1
 44
-50.0
173
     0
291
     1
 45
0.0
1001
ACAD
1000
AcDbSavedByObjectVersion
1070
     0
  0
VISUALSTYLE
  5
44B
102
{ACAD_REACTORS
330
43C
102
}
330
43C
100
AcDbVisualStyle
  2
Facepattern
 70
    15
 71
     2
 72
     2
 73
     0
 90
        0
 40
-0.6
 41
-30.0
 62
     5
 63
     7
 74
     1
 91
        4
 64
     7
 65
   257
 75
     1
175
     1
 42
1.0
 92
        8
 66
     7
 43
1.0
 76
     1
 77
     6
 78
     2
 67
     7
 79
     5
170
     0
171
     0
290
     0
174
     0
 93
        1
 44
0.0
173
     0
291
     1
 45
0.0
1001
ACAD
1000
AcDbSavedByObjectVersion
1070
     0
  0
VISUALSTYLE
  5
43D
102
{ACAD_REACTORS
330
43C
102
}
330
43C
100
AcDbVisualStyle
  2
Flat
 70
     0
 71
     2
 72
     1
 73
     1
 90
        2
 40
-0.6
 41
30.0
 62
     5
 63
     7
 74
     0
 91
        4
 64
     7
 65
   257
 75
     1
175
     1
 42
1.0
 92
        8
 66
     7
 43
1.0
 76
     1
 77
     6
 78
     2
 67
     7
 79
     5
170
     0
171
     0
290
     0
174
     0
 93
       13
 44
0.0
173
     0
291
     1
 45
0.0
1001
ACAD
1000
AcDbSavedByObjectVersion
1070
     0
  0
VISUALSTYLE
  5
43E
102
{ACAD_REACTORS
330
43C
102
}
330
43C
100
AcDbVisualStyle
  2
FlatWithEdges
 70
     1
 71
     2
 72
     1
 73
     1
 90
        2
 40
-0.6
 41
30.0
 62
     5
 63
     7
 74
     1
 91
        4
 64
     7
 65
   257
 75
     1
175
     1
 42
1.0
 92
        0
 66
   257
 43
1.0
 76
     1
 77
     6
 78
     2
 67
     7
 79
     5
170
     0
171
     0
290
     0
174
     0
 93
       13
 44
0.0
173
     0
291
     1
 45
0.0
1001
ACAD
1000
AcDbSavedByObjectVersion
1070
     0
  0
VISUALSTYLE
  5
43F
102
{ACAD_REACTORS
330
43C
102
}
330
43C
100
AcDbVisualStyle
  2
Gouraud
 70
     2
 71
     2
 72
     2
 73
     1
 90
        2
 40
-0.6
 41
30.0
 62
     5
 63
     7
 74
     0
 91
        4
 64
     7
 65
   257
 75
     1
175
     1
 42
1.0
 92
        0
 66
     7
 43
1.0
 76
     1
 77
     6
 78
     2
 67
     7
 79
     5
170
     0
171
     0
290
     0
174
     0
 93
       13
 44
0.0
173
     0
291
     1
 45
0.0
1001
ACAD
1000
AcDbSavedByObjectVersion
1070
     0
  0
VISUALSTYLE
  5
440
102
{ACAD_REACTORS
330
43C
102
}
330
43C
100
AcDbVisualStyle
  2
GouraudWithEdges
 70
     3
 71
     2
 72
     2
 73
     1
 90
        2
 40
-0.6
 41
30.0
 62
     5
 63
     7
 74
     1
 91
        4
 64
     7
 65
   257
 75
     1
175
     1
 42
1.0
 92
        0
 66
   257
 43
1.0
 76
     1
 77
     6
 78
     2
 67
     7
 79
     5
170
     0
171
     0
290
     0
174
     0
 93
       13
 44
0.0
173
     0
291
     1
 45
0.0
1001
ACAD
1000
AcDbSavedByObjectVersion
1070
     0
  0
VISUALSTYLE
  5
44A
102
{ACAD_REACTORS
330
43C
102
}
330
43C
100
AcDbVisualStyle
  2
Linepattern
 70
    14
 71
     2
 72
     2
 73
     0
 90
        0
 40
-0.6
 41
-30.0
 62
     5
 63
     7
 74
     1
 91
        4
 64
     7
 65
   257
 75
     7
175
     7
 42
1.0
 92
        8
 66
     7
 43
1.0
 76
     1
 77
     6
 78
     2
 67
     7
 79
     5
170
     0
171
     0
290
     0
174
     0
 93
        1
 44
0.0
173
     0
291
     1
 45
0.0
1001
ACAD
1000
AcDbSavedByObjectVersion
1070
     0
  0
VISUALSTYLE
  5
446
102
{ACAD_REACTORS
330
43C
102
}
330
43C
100
AcDbVisualStyle
  2
Realistic
 70
     8
 71
     2
 72
     2
 73
     0
 90
        0
 40
-0.6
 41
-30.0
 62
     5
 63
     7
 74
     1
 91
        0
 64
     7
 65
   257
 75
     1
175
     1
 42
1.0
 92
        8
 66
     8
 43
1.0
 76
     1
 77
     6
 78
     2
 67
     7
 79
     5
170
     0
171
     0
290
     0
174
     0
 93
       13
 44
0.0
173
     0
291
     0
 45
0.0
1001
ACAD
1000
AcDbSavedByObjectVersion
1070
     0
  0
VISUALSTYLE
  5
449
102
{ACAD_REACTORS
330
43C
102
}
330
43C
100
AcDbVisualStyle
  2
Thicken
 70
    13
 71
     2
 72
     2
 73
     0
 90
        0
 40
-0.6
 41
-30.0
 62
     5
 63
     7
 74
     1
 91
        4
 64
     7
 65
   257
 75
     1
175
     1
 42
1.0
 92
       12
 66
     7
 43
1.0
 76
     1
 77
     6
 78
     2
 67
     7
 79
     5
170
     0
171
     0
290
     0
174
     0
 93
        1
 44
0.0
173
     0
291
     1
 45
0.0
1001
ACAD
1000
AcDbSavedByObjectVersion
1070
     0
  0
DICTIONARYVAR
  5
580
102
{ACAD_REACTORS
330
57F
102
}
330
57F
100
DictionaryVariables
280
     0
  1
STANDARD
  0
DICTIONARYVAR
  5
583
102
{ACAD_REACTORS
330
57F
102
}
330
57F
100
DictionaryVariables
280
     0
  1
1
  0
DICTIONARYVAR
  5
582
102
{ACAD_REACTORS
330
57F
102
}
330
57F
100
DictionaryVariables
280
     0
  1
0
  0
DICTIONARYVAR
  5
581
102
{ACAD_REACTORS
330
57F
102
}
330
57F
100
DictionaryVariables
280
     0
  1
127
  0
DICTIONARY
  5
528
102
{ACAD_REACTORS
330
51D
102
}
330
51D
100
AcDbDictionary
281
     1
  0
XRECORD
  5
549
102
{ACAD_REACTORS
330
51D
102
}
330
51D
100
AcDbXrecord
280
     1
 90
-1023410169
  0
DICTIONARY
  5
631
330
461
100
AcDbDictionary
280
     1
281
     1
  3
ACAD_XREC_ROUNDTRIP
360
632
  0
DICTIONARY
  5
62F
330
45D
100
AcDbDictionary
280
     1
281
     1
  3
ACAD_XREC_ROUNDTRIP
360
630
  0
DICTIONARY
  5
587
330
43A
100
AcDbDictionary
280
     1
281
     1
  3
ACAD_XREC_ROUNDTRIP
360
588
  0
DICTIONARY
  5
585
330
439
100
AcDbDictionary
280
     1
281
     1
  3
ACAD_XREC_ROUNDTRIP
360
586
  0
DICTIONARY
  5
589
330
43B
100
AcDbDictionary
280
     1
281
     1
  3
ACAD_XREC_ROUNDTRIP
360
58A
  0
DICTIONARY
  5
62D
330
459
100
AcDbDictionary
280
     1
281
     1
  3
ACAD_XREC_ROUNDTRIP
360
62E
  0
XRECORD
  5
632
102
{ACAD_REACTORS
330
631
102
}
330
631
100
AcDbXrecord
280
     1
102
SHADEPLOT
 70
     0
102
SHADEPLOTRESLEVEL
 70
     2
102
SHADEPLOTCUSTOMDPI
 70
   300
  0
XRECORD
  5
630
102
{ACAD_REACTORS
330
62F
102
}
330
62F
100
AcDbXrecord
280
     1
102
SHADEPLOT
 70
     0
102
SHADEPLOTRESLEVEL
 70
     2
102
SHADEPLOTCUSTOMDPI
 70
   300
  0
XRECORD
  5
588
102
{ACAD_REACTORS
330
587
102
}
330
587
100
AcDbXrecord
280
     1
102
MATERIAL
148
0.0
149
0.0
149
0.0
 93
        0
 94
       63
282
     0
 72
     1
 77
     1
171
     1
175
     1
179
     1
273
     0
  0
XRECORD
  5
586
102
{ACAD_REACTORS
330
585
102
}
330
585
100
AcDbXrecord
280
     1
102
MATERIAL
148
0.0
149
0.0
149
0.0
 93
        0
 94
       63
282
     0
 72
     1
 77
     1
171
     1
175
     1
179
     1
273
     0
  0
XRECORD
  5
58A
102
{ACAD_REACTORS
330
589
102
}
330
589
100
AcDbXrecord
280
     1
102
MATERIAL
148
0.0
149
0.0
149
0.0
 93
        0
 94
       63
282
     0
 72
     1
 77
     1
171
     1
175
     1
179
     1
273
     0
  0
XRECORD
  5
62E
102
{ACAD_REACTORS
330
62D
102
}
330
62D
100
AcDbXrecord
280
     1
102
ACAD_ROUNDTRIP_PRE2007_TABLESTYLE
 90
      512
 91
        0
  1

 92
      512
 93
        0
  2

 94
      512
 95
        0
  3

  0
ENDSEC
  0
EOF
