  0
SECTION
  2
HEADER
  9
$ACADVER
  1
AC1015
  9
$ACADMAINTVER
 70
    20
  9
$DWGCODEPAGE
  3
ANSI_932
  9
$INSBASE
 10
0.0
 20
0.0
 30
0.0
  9
$EXTMIN
 10
344.6563337163757
 20
289.1216108075177
 30
-0.0000000349181948
  9
$EXTMAX
 10
764.707986655951
 20
586.1445145385203
 30
0.0000000814935746
  9
$LIMMIN
 10
344.6839
 20
289.13989
  9
$LIMMAX
 10
764.6838999999999
 20
586.13989
  9
$ORTHOMODE
 70
     0
  9
$REGENMODE
 70
     1
  9
$FILLMODE
 70
     1
  9
$QTEXTMODE
 70
     0
  9
$MIRRTEXT
 70
     1
  9
$LTSCALE
 40
1.0
  9
$ATTMODE
 70
     1
  9
$TEXTSIZE
 40
0.2
  9
$TRACEWID
 40
0.05
  9
$TEXTSTYLE
  7
STANDARD
  9
$CLAYER
  8
0
  9
$CELTYPE
  6
CONTINUOUS
  9
$CECOLOR
 62
   256
  9
$CELTSCALE
 40
1.0
  9
$DISPSILH
 70
     0
  9
$DIMSCALE
 40
1.0
  9
$DIMASZ
 40
1.0
  9
$DIMEXO
 40
2.54
  9
$DIMDLI
 40
0.38
  9
$DIMRND
 40
0.0
  9
$DIMDLE
 40
0.0
  9
$DIMEXE
 40
2.54
  9
$DIMTP
 40
0.0
  9
$DIMTM
 40
0.0
  9
$DIMTXT
 40
3.2
  9
$DIMCEN
 40
0.09
  9
$DIMTSZ
 40
0.0
  9
$DIMTOL
 70
     0
  9
$DIMLIM
 70
     0
  9
$DIMTIH
 70
     0
  9
$DIMTOH
 70
     0
  9
$DIMSE1
 70
     0
  9
$DIMSE2
 70
     0
  9
$DIMTAD
 70
     1
  9
$DIMZIN
 70
     0
  9
$DIMBLK
  1

  9
$DIMASO
 70
     1
  9
$DIMSHO
 70
     0
  9
$DIMPOST
  1

  9
$DIMAPOST
  1

  9
$DIMALT
 70
     0
  9
$DIMALTD
 70
     2
  9
$DIMALTF
 40
25.4
  9
$DIMLFAC
 40
1.0
  9
$DIMTOFL
 70
     0
  9
$DIMTVP
 40
1.0
  9
$DIMTIX
 70
     0
  9
$DIMSOXD
 70
     0
  9
$DIMSAH
 70
     1
  9
$DIMBLK1
  1

  9
$DIMBLK2
  1

  9
$DIMSTYLE
  2
STANDARD
  9
$DIMCLRD
 70
     0
  9
$DIMCLRE
 70
     0
  9
$DIMCLRT
 70
     0
  9
$DIMTFAC
 40
1.0
  9
$DIMGAP
 40
1.6
  9
$DIMJUST
 70
     0
  9
$DIMSD1
 70
     0
  9
$DIMSD2
 70
     0
  9
$DIMTOLJ
 70
     1
  9
$DIMTZIN
 70
     0
  9
$DIMALTZ
 70
     0
  9
$DIMALTTZ
 70
     0
  9
$DIMUPT
 70
     0
  9
$DIMDEC
 70
     4
  9
$DIMTDEC
 70
     4
  9
$DIMALTU
 70
     2
  9
$DIMALTTD
 70
     2
  9
$DIMTXSTY
  7
STANDARD
  9
$DIMAUNIT
 70
     0
  9
$DIMADEC
 70
     0
  9
$DIMALTRND
 40
0.0
  9
$DIMAZIN
 70
     0
  9
$DIMDSEP
 70
    46
  9
$DIMATFIT
 70
     3
  9
$DIMFRAC
 70
     0
  9
$DIMLDRBLK
  1

  9
$DIMLUNIT
 70
     2
  9
$DIMLWD
 70
    -2
  9
$DIMLWE
 70
    -2
  9
$DIMTMOVE
 70
     0
  9
$LUNITS
 70
     2
  9
$LUPREC
 70
     4
  9
$SKETCHINC
 40
0.1
  9
$FILLETRAD
 40
0.0
  9
$AUNITS
 70
     0
  9
$AUPREC
 70
     0
  9
$MENU
  1
.
  9
$ELEVATION
 40
0.0
  9
$PELEVATION
 40
0.0
  9
$THICKNESS
 40
0.0
  9
$LIMCHECK
 70
     0
  9
$CHAMFERA
 40
0.0
  9
$CHAMFERB
 40
0.0
  9
$CHAMFERC
 40
0.0
  9
$CHAMFERD
 40
0.0
  9
$SKPOLY
 70
     0
  9
$TDCREATE
 40
2452815.368521435
  9
$TDUCREATE
 40
2452814.993521435
  9
$TDUPDATE
 40
2454597.577865116
  9
$TDUUPDATE
 40
2454597.202865116
  9
$TDINDWG
 40
0.0095935532
  9
$TDUSRTIMER
 40
0.0095930093
  9
$USRTIMER
 70
     1
  9
$ANGBASE
 50
0.0
  9
$ANGDIR
 70
     0
  9
$PDMODE
 70
     0
  9
$PDSIZE
 40
0.0
  9
$PLINEWID
 40
0.0
  9
$SPLFRAME
 70
     0
  9
$SPLINETYPE
 70
     6
  9
$SPLINESEGS
 70
     8
  9
$HANDSEED
  5
631
  9
$SURFTAB1
 70
     6
  9
$SURFTAB2
 70
     6
  9
$SURFTYPE
 70
     6
  9
$SURFU
 70
     6
  9
$SURFV
 70
     6
  9
$UCSBASE
  2

  9
$UCSNAME
  2

  9
$UCSORG
 10
0.0
 20
0.0
 30
0.0
  9
$UCSXDIR
 10
1.0
 20
0.0
 30
0.0
  9
$UCSYDIR
 10
0.0
 20
1.0
 30
0.0
  9
$UCSORTHOREF
  2

  9
$UCSORTHOVIEW
 70
     0
  9
$UCSORGTOP
 10
0.0
 20
0.0
 30
0.0
  9
$UCSORGBOTTOM
 10
0.0
 20
0.0
 30
0.0
  9
$UCSORGLEFT
 10
0.0
 20
0.0
 30
0.0
  9
$UCSORGRIGHT
 10
0.0
 20
0.0
 30
0.0
  9
$UCSORGFRONT
 10
0.0
 20
0.0
 30
0.0
  9
$UCSORGBACK
 10
0.0
 20
0.0
 30
0.0
  9
$PUCSBASE
  2

  9
$PUCSNAME
  2

  9
$PUCSORG
 10
0.0
 20
0.0
 30
0.0
  9
$PUCSXDIR
 10
1.0
 20
0.0
 30
0.0
  9
$PUCSYDIR
 10
0.0
 20
1.0
 30
0.0
  9
$PUCSORTHOREF
  2

  9
$PUCSORTHOVIEW
 70
     0
  9
$PUCSORGTOP
 10
0.0
 20
0.0
 30
0.0
  9
$PUCSORGBOTTOM
 10
0.0
 20
0.0
 30
0.0
  9
$PUCSORGLEFT
 10
0.0
 20
0.0
 30
0.0
  9
$PUCSORGRIGHT
 10
0.0
 20
0.0
 30
0.0
  9
$PUCSORGFRONT
 10
0.0
 20
0.0
 30
0.0
  9
$PUCSORGBACK
 10
0.0
 20
0.0
 30
0.0
  9
$USERI1
 70
     0
  9
$USERI2
 70
     0
  9
$USERI3
 70
     0
  9
$USERI4
 70
     0
  9
$USERI5
 70
     0
  9
$USERR1
 40
0.0
  9
$USERR2
 40
0.0
  9
$USERR3
 40
0.0
  9
$USERR4
 40
0.0
  9
$USERR5
 40
0.0
  9
$WORLDVIEW
 70
     1
  9
$SHADEDGE
 70
     3
  9
$SHADEDIF
 70
    70
  9
$TILEMODE
 70
     1
  9
$MAXACTVP
 70
    64
  9
$PINSBASE
 10
0.0
 20
0.0
 30
0.0
  9
$PLIMCHECK
 70
     0
  9
$PEXTMIN
 10
1.000000000000000E+20
 20
1.000000000000000E+20
 30
1.000000000000000E+20
  9
$PEXTMAX
 10
-1.000000000000000E+20
 20
-1.000000000000000E+20
 30
-1.000000000000000E+20
  9
$PLIMMIN
 10
344.6839
 20
289.13989
  9
$PLIMMAX
 10
764.6838999999999
 20
586.13989
  9
$UNITMODE
 70
     0
  9
$VISRETAIN
 70
     1
  9
$PLINEGEN
 70
     0
  9
$PSLTSCALE
 70
     1
  9
$TREEDEPTH
 70
  3020
  9
$CMLSTYLE
  2
Standard
  9
$CMLJUST
 70
     0
  9
$CMLSCALE
 40
1.0
  9
$PROXYGRAPHICS
 70
     1
  9
$MEASUREMENT
 70
     0
  9
$CELWEIGHT
370
    -1
  9
$ENDCAPS
280
     0
  9
$JOINSTYLE
280
     0
  9
$LWDISPLAY
290
     0
  9
$INSUNITS
 70
     0
  9
$HYPERLINKBASE
  1

  9
$STYLESHEET
  1

  9
$XEDIT
290
     1
  9
$CEPSNTYPE
380
     0
  9
$PSTYLEMODE
290
     1
  9
$FINGERPRINTGUID
  2
{51008DFB-324A-480A-AB4C-1DCC7CCB9142}
  9
$VERSIONGUID
  2
{51F9A061-EAEC-4B42-9FB1-980384CC0353}
  9
$EXTNAMES
290
     1
  9
$PSVPSCALE
 40
0.0
  9
$OLESTARTUP
290
     0
  0
ENDSEC
  0
SECTION
  2
CLASSES
  0
CLASS
  1
ACDBDICTIONARYWDFLT
  2
AcDbDictionaryWithDefault
  3
ObjectDBX Classes
 90
        0
280
     0
281
     0
  0
CLASS
  1
MATERIAL
  2
AcDbMaterial
  3
ObjectDBX Classes
 90
     1153
280
     0
281
     0
  0
CLASS
  1
VISUALSTYLE
  2
AcDbVisualStyle
  3
ObjectDBX Classes
 90
     4095
280
     0
281
     0
  0
CLASS
  1
TABLESTYLE
  2
AcDbTableStyle
  3
ObjectDBX Classes
 90
     4095
280
     0
281
     0
  0
CLASS
  1
AMGSETTINGSOBJ
  2
AmgSettingsObj
  3
"AcadM|Product Description: AutoCAD Mechanical|Company: Autodesk"
 90
        0
280
     0
281
     0
  0
CLASS
  1
ACME_DOCUMENT
  2
AcMeDbDoc
  3
AcMeServices
 90
        0
280
     0
281
     0
  0
CLASS
  1
ACMESCOPE
  2
AcMeScope
  3
AcMeServices
 90
        0
280
     0
281
     0
  0
CLASS
  1
ACMECOMMANDHISTORY
  2
AcMeCommandHistory
  3
AcMeServices
 90
        0
280
     0
281
     0
  0
CLASS
  1
ACIMSYSVARMAN
  2
AcImSysVarManager
  3
AcMeServices
 90
        0
280
     0
281
     0
  0
CLASS
  1
ACIMINTSYSVAR
  2
AcImIntSysVar
  3
AcMeServices
 90
        0
280
     0
281
     0
  0
CLASS
  1
ACMEDRAWINGMAN
  2
AcMeDrawingMan
  3
AcMeServices
 90
        0
280
     0
281
     0
  0
CLASS
  1
ACMEVIEW
  2
AcMeView
  3
AcMeServices
 90
        0
280
     0
281
     0
  0
CLASS
  1
ACDBENTITYCACHE
  2
AcMeEntityCache
  3
AcMeServices
 90
        0
280
     0
281
     0
  0
CLASS
  1
GSMANAGER
  2
AcMeGSManager
  3
AcMeServices
 90
        0
280
     0
281
     0
  0
CLASS
  1
AMDTINTERNALREACTOR
  2
AmdtInternalReactor
  3
AcMeServices
 90
        0
280
     0
281
     0
  0
CLASS
  1
ACMESTATEMGR
  2
AcMeStateMgr
  3
AcMeServices
 90
        0
280
     0
281
     0
  0
CLASS
  1
ACGREFMASTER
  2
AcGrefMaster
  3
AcAttribServices
 90
        0
280
     0
281
     0
  0
CLASS
  1
AM_DRAWING_MGR
  2
AcDmDwgMgr
  3
AcMechDwgViewMgmt
 90
        0
280
     0
281
     0
  0
CLASS
  1
AM_DWG_DOCUMENT
  2
AcDmDwgDocument
  3
AcMechDwgViewMgmt
 90
        0
280
     0
281
     0
  0
CLASS
  1
AM_DWG_SHEET
  2
AcDmSheet
  3
AcMechDwgViewMgmt
 90
        0
280
     0
281
     0
  0
CLASS
  1
AM_VIEWDIMPARMAP
  2
AcDmViewDimParMap
  3
AcMechDwgViewMgmt
 90
        0
280
     0
281
     0
  0
CLASS
  1
ACIMREALSYSVAR
  2
AcImRealSysVar
  3
AcMeServices
 90
        0
280
     0
281
     0
  0
CLASS
  1
AM_DWGMGR_NAME
  2
AcDmDwgMgrName
  3
AcMechDwgViewMgmt
 90
        0
280
     0
281
     0
  0
CLASS
  1
ACME_DATABASE
  2
AcMeDbDatabase
  3
AcMeServices
 90
        0
280
     0
281
     0
  0
CLASS
  1
ACRFINSADJUSTERMGR
  2
AcRfInsAdjusterMgr
  3
AcMeServices
 90
        0
280
     0
281
     0
  0
CLASS
  1
ACGREFACADMASTER
  2
AcGrefacadMaster
  3
AcGrefServices
 90
        0
280
     0
281
     0
  0
CLASS
  1
AMDTMENUSTATEMGR
  2
AmdtMenuStateMgr
  3
McadcomServices
 90
        0
280
     0
281
     0
  0
CLASS
  1
AMDTMCOMMENUSTATE
  2
AmdtMcomMenuState
  3
McadcomServices
 90
        0
280
     0
281
     0
  0
CLASS
  1
AMIMASTER
  2
AmiMaster
  3
AmiServices
 90
        0
280
     0
281
     0
  0
CLASS
  1
MAPIAMMOUDLE
  2
MApiAmModule
  3
MApiAmServices
 90
        0
280
     0
281
     0
  0
CLASS
  1
ACIMSTRSYSVAR
  2
AcImStrSysVar
  3
AcMeServices
 90
        0
280
     0
281
     0
  0
CLASS
  1
AMDTADMENUSTATE
  2
AmdtAdMenuState
  3
DesignerServices
 90
        0
280
     0
281
     0
  0
CLASS
  1
ADAPPL
  2
AcAdAppl
  3
DesignerServices
 90
        0
280
     0
281
     0
  0
CLASS
  1
DEPMGR
  2
AcAdDepMgr
  3
DesignerServices
 90
        0
280
     0
281
     0
  0
CLASS
  1
PARAMMGR
  2
AcAdParamMgr
  3
DesignerServices
 90
        0
280
     0
281
     0
  0
CLASS
  1
PARAMSCOPE
  2
AcAdParamScope
  3
DesignerServices
 90
        0
280
     0
281
     0
  0
CLASS
  1
NAMEDAPPL
  2
AcAdNamedAppl
  3
DesignerServices
 90
        0
280
     0
281
     0
  0
CLASS
  1
AMDTDMMENUSTATE
  2
AmdtDmMenuState
  3
AcMechDwgViewMgmt
 90
        0
280
     0
281
     0
  0
CLASS
  1
AMDTAMMENUSTATE
  2
AmdtAmMenuState
  3
DesignerAssemblies
 90
        0
280
     0
281
     0
  0
CLASS
  1
ACAMPROJECT
  2
AcAmProject
  3
DesignerAssemblies
 90
        0
280
     0
281
     0
  0
CLASS
  1
ACAMGRCOMPDEF
  2
AcAmGrCompDef
  3
DesignerAssemblies
 90
        0
280
     0
281
     0
  0
CLASS
  1
ACCMCONTEXT
  2
AcCmContext
  3
DesignerAssemblies
 90
        0
280
     0
281
     0
  0
CLASS
  1
ACAMCOMPDEF
  2
AcAmCompDef
  3
DesignerAssemblies
 90
        0
280
     0
281
     0
  0
CLASS
  1
ACAMCOMPDEFMGR
  2
AcAmCompDefMgr
  3
DesignerAssemblies
 90
        0
280
     0
281
     0
  0
CLASS
  1
AMCONTEXTMGR
  2
AcAmContextMgr
  3
DesignerAssemblies
 90
        0
280
     0
281
     0
  0
CLASS
  1
ACAMCONTEXTMODELER
  2
AcAmContextModeler
  3
DesignerAssemblies
 90
        0
280
     0
281
     0
  0
CLASS
  1
ACMDATADICTIONARY
  2
AcmDataDictionary
  3
"AcmSymBB|Product Description: AutoCAD Mechanical|Company: Autodesk"
 90
        0
280
     0
281
     0
  0
CLASS
  1
CATALOGSTATE
  2
AcAmCatalogState
  3
DesignerAssemblies
 90
        0
280
     0
281
     0
  0
CLASS
  1
ACAMGRCOMPDEFSET
  2
AcAmGrCompDefSet
  3
DesignerAssemblies
 90
        0
280
     0
281
     0
  0
CLASS
  1
AMDTBROWSERDBTAB
  2
AmdtBrowserDbTab
  3
McadcomServices
 90
        0
280
     0
281
     0
  0
CLASS
  1
CBROWSERAPPOBJECT
  2
CBrowserAppObject
  3
McadcomServices
 90
        0
280
     0
281
     0
  0
CLASS
  1
DM_PLACEHOLDER
  2
AcDmSelsetPlaceholder
  3
AcMechDwgViewMgmt
 90
        0
280
     0
281
     0
  0
CLASS
  1
ACMSTANDARDANSI
  2
AcmStandardANSI
  3
"Amdt_StdImp|Product Description: AutoCAD Mechanical|Company: Autodesk"
 90
        0
280
     0
281
     0
  0
CLASS
  1
AMGOBJPROPCFG
  2
AmgObjPropCfg
  3
"AmgLay|Product Description: AutoCAD Mechanical|Company: Autodesk"
 90
        1
280
     0
281
     0
  0
CLASS
  1
ACMSURFSTANDARDANSI
  2
AcmSurfTextStdANSI
  3
"Amdt_StdImp|Product Description: AutoCAD Mechanical|Company: Autodesk"
 90
        0
280
     0
281
     0
  0
CLASS
  1
ACMFCFSTANDARDANSI
  2
AcmFCFStdANSI
  3
"Amdt_StdImp|Product Description: AutoCAD Mechanical|Company: Autodesk"
 90
        0
280
     0
281
     0
  0
CLASS
  1
ACMWELDSTANDARDANSI
  2
AcmWeldingStdANSI
  3
"Amdt_StdImp|Product Description: AutoCAD Mechanical|Company: Autodesk"
 90
        0
280
     0
281
     0
  0
CLASS
  1
ACMIDSTANDARDANSI
  2
AcmIdStdANSI
  3
"Amdt_StdImp|Product Description: AutoCAD Mechanical|Company: Autodesk"
 90
        0
280
     0
281
     0
  0
CLASS
  1
ACMDATUMSTANDARDANSI
  2
AcmDatumStdANSI
  3
"Amdt_StdImp|Product Description: AutoCAD Mechanical|Company: Autodesk"
 90
        0
280
     0
281
     0
  0
CLASS
  1
ACMBOMSTANDARDANSI
  2
AcmBOMStdANSI
  3
"Amdt_StdImp|Product Description: AutoCAD Mechanical|Company: Autodesk"
 90
        0
280
     0
281
     0
  0
CLASS
  1
ACMDETAILSTANDARDANSI
  2
AmdtDetailSymStdANSI
  3
"Amdt_StdImp|Product Description: AutoCAD Mechanical|Company: Autodesk"
 90
        0
280
     0
281
     0
  0
CLASS
  1
ACMSECTIONSTANDARDANSI
  2
AmdtSectionSymStdANSI
  3
"Amdt_StdImp|Product Description: AutoCAD Mechanical|Company: Autodesk"
 90
        0
280
     0
281
     0
  0
CLASS
  1
ACMCENTERLINESTANDARDANSI
  2
AmdtCenterLineStdANSI
  3
"Amdt_StdImp|Product Description: AutoCAD Mechanical|Company: Autodesk"
 90
        0
280
     0
281
     0
  0
CLASS
  1
ACMTHREADLINESTANDARDANSI
  2
AmdtThreadLineStdANSI
  3
"Amdt_StdImp|Product Description: AutoCAD Mechanical|Company: Autodesk"
 90
        0
280
     0
281
     0
  0
CLASS
  1
ACMNOTESTANDARDANSI
  2
AmdtNoteStdANSI
  3
"Amdt_StdImp|Product Description: AutoCAD Mechanical|Company: Autodesk"
 90
        0
280
     0
281
     0
  0
CLASS
  1
ACMTAPERSTANDARDANSI
  2
AcmTaperStdANSI
  3
"Amdt_StdImp|Product Description: AutoCAD Mechanical|Company: Autodesk"
 90
        0
280
     0
281
     0
  0
CLASS
  1
AMDTNOTETEMPLATEDB
  2
AmdtNoteTemplateDB
  3
AMDT_STDIMP_MODULE_NAME
 90
        0
280
     0
281
     0
  0
CLASS
  1
ACAMGLAYSTD
  2
AcAmgLayStd
  3
"AmgLay|Product Description: AutoCAD Mechanical|Company: Autodesk"
 90
        0
280
     0
281
     0
  0
CLASS
  1
ACAMGDIMSTD
  2
AcAmgDimStd
  3
"AmgDim|Product Description: AutoCAD Mechanical|Company: Autodesk"
 90
        0
280
     0
281
     0
  0
CLASS
  1
ACAMGHOLECHARTSTDANSI
  2
AcAmgHoleChartStdANSI
  3
ACMSYMBB_MODULE_NAME
 90
        0
280
     0
281
     0
  0
CLASS
  1
ACAMGTITLESTD
  2
AcAmgTitleStd
  3
"AmgTitle|Product Description: AutoCAD Mechanical|Company: Autodesk"
 90
        0
280
     0
281
     0
  0
CLASS
  1
ACAMGFILTERDAT
  2
AcAmgFilterDat
  3
"AcadM|Product Description: AutoCAD Mechanical|Company: Autodesk"
 90
    32768
280
     0
281
     0
  0
CLASS
  1
DICTIONARYVAR
  2
AcDbDictionaryVar
  3
ObjectDBX Classes
 90
        0
280
     0
281
     0
  0
CLASS
  1
CAMSSTRUCTBTNSTATE
  2
StructBtnState
  3
L"DesignerAssemblies"
 90
        0
280
     0
281
     0
  0
CLASS
  1
ACDBPLACEHOLDER
  2
AcDbPlaceHolder
  3
ObjectDBX Classes
 90
        0
280
     0
281
     0
  0
CLASS
  1
LAYOUT
  2
AcDbLayout
  3
ObjectDBX Classes
 90
        0
280
     0
281
     0
  0
ENDSEC
  0
SECTION
  2
TABLES
  0
TABLE
  2
VPORT
  5
43B
330
0
100
AcDbSymbolTable
 70
     1
  0
VPORT
  5
46D
330
43B
100
AcDbSymbolTableRecord
100
AcDbViewportTableRecord
  2
*ACTIVE
 70
     0
 10
0.0
 20
0.0
 11
1.0
 21
1.0
 12
554.6821601861632
 22
437.633062673019
 13
0.0
 23
0.0
 14
1.0
 24
1.0
 15
0.0
 25
0.0
 16
0.0
 26
0.0
 36
1.0
 17
0.0
 27
0.0
 37
0.0
 40
306.9651018203422
 41
1.375
 42
50.0
 43
0.0
 44
0.0
 50
0.0
 51
0.0
 71
     0
 72
   100
 73
     1
 74
     1
 75
     0
 76
     0
 77
     0
 78
     0
281
     0
 65
     0
110
0.0
120
0.0
130
0.0
111
1.0
121
0.0
131
0.0
112
0.0
122
1.0
132
0.0
 79
     0
146
0.0
  0
ENDTAB
  0
TABLE
  2
LTYPE
  5
438
330
0
100
AcDbSymbolTable
 70
    19
  0
LTYPE
  5
45B
330
438
100
AcDbSymbolTableRecord
100
AcDbLinetypeTableRecord
  2
ByBlock
 70
     0
  3

 72
    65
 73
     0
 40
0.0
  0
LTYPE
  5
45C
330
438
100
AcDbSymbolTableRecord
100
AcDbLinetypeTableRecord
  2
ByLayer
 70
     0
  3

 72
    65
 73
     0
 40
0.0
  0
LTYPE
  5
45D
330
438
100
AcDbSymbolTableRecord
100
AcDbLinetypeTableRecord
  2
CONTINUOUS
 70
     0
  3
Solid line
 72
    65
 73
     0
 40
0.0
  0
LTYPE
  5
46E
330
438
100
AcDbSymbolTableRecord
100
AcDbLinetypeTableRecord
  2
DASHED
 70
     0
  3
__ __ __ __ __ __ __ __ __ __ __ __ __ __ __
 72
    65
 73
     2
 40
3.5
 49
2.0
 74
     0
 49
-1.5
 74
     0
  0
LTYPE
  5
46F
330
438
100
AcDbSymbolTableRecord
100
AcDbLinetypeTableRecord
  2
CENTER
 70
     0
  3
____ _ ____ _ ____ _ ____ _ ____ _ ____ _ ____
 72
    65
 73
     4
 40
17.5
 49
13.0
 74
     0
 49
-1.5
 74
     0
 49
1.5
 74
     0
 49
-1.5
 74
     0
  0
LTYPE
  5
470
330
438
100
AcDbSymbolTableRecord
100
AcDbLinetypeTableRecord
  2
PHANTOM
 70
     0
  3
_____ _ _ _____ _ _ _____ _ _ _____ _ _ ____  
 72
    65
 73
     6
 40
15.5
 49
8.0
 74
     0
 49
-1.5
 74
     0
 49
1.5
 74
     0
 49
-1.5
 74
     0
 49
1.5
 74
     0
 49
-1.5
 74
     0
  0
LTYPE
  5
471
330
438
100
AcDbSymbolTableRecord
100
AcDbLinetypeTableRecord
  2
DOT
 70
     0
  3
. . . . . . . . . . . . . . . . . . . . . . . .
 72
    65
 73
     2
 40
0.25
 49
0.0
 74
     0
 49
-0.25
 74
     0
  0
LTYPE
  5
472
330
438
100
AcDbSymbolTableRecord
100
AcDbLinetypeTableRecord
  2
HIDDEN
 70
     0
  3
__ __ __ __ __ __ __ __ __ __ __ __ __ __ __
 72
    65
 73
     2
 40
3.5
 49
2.0
 74
     0
 49
-1.5
 74
     0
  0
LTYPE
  5
501
330
438
100
AcDbSymbolTableRecord
100
AcDbLinetypeTableRecord
  2
PHANTOM2
 70
     0
  3
Phantom (.5x) ___ _ _ ___ _ _ ___ _ _ ___ _ _
 72
    65
 73
     6
 40
1.25
 49
0.625
 74
     0
 49
-0.125
 74
     0
 49
0.125
 74
     0
 49
-0.125
 74
     0
 49
0.125
 74
     0
 49
-0.125
 74
     0
  0
LTYPE
  5
536
330
438
100
AcDbSymbolTableRecord
100
AcDbLinetypeTableRecord
  2
AM_ISO02W050
 70
     0
  3
__ __ __ __ __ __ __ __ __ __ __ __ __ __ __
 72
    65
 73
     2
 40
7.5
 49
6.0
 74
     0
 49
-1.5
 74
     0
  0
LTYPE
  5
537
330
438
100
AcDbSymbolTableRecord
100
AcDbLinetypeTableRecord
  2
AM_ISO08W050
 70
     0
  3
____ . ____ . ____ . ____ . ____ . ____ . ____
 72
    65
 73
     4
 40
18.0
 49
12.0
 74
     0
 49
-1.5
 74
     0
 49
3.0
 74
     0
 49
-1.5
 74
     0
  0
LTYPE
  5
538
330
438
100
AcDbSymbolTableRecord
100
AcDbLinetypeTableRecord
  2
AM_ISO09W050
 70
     0
  3
_____ . . _____ . . _____ . . ____ .. ____
 72
    65
 73
     6
 40
22.5
 49
12.0
 74
     0
 49
-1.5
 74
     0
 49
3.0
 74
     0
 49
-1.5
 74
     0
 49
3.0
 74
     0
 49
-1.5
 74
     0
  0
LTYPE
  5
539
330
438
100
AcDbSymbolTableRecord
100
AcDbLinetypeTableRecord
  2
Amconstr
 70
     0
  3
_______________________
 72
    65
 73
     2
 40
9999.0
 49
9999.0
 74
     0
 49
0.0
 74
     0
  0
LTYPE
  5
53A
330
438
100
AcDbSymbolTableRecord
100
AcDbLinetypeTableRecord
  2
AM_ISO08W050x2
 70
     0
  3
__ . __ . __ . __ . __ . __
 72
    65
 73
     4
 40
9.0
 49
6.0
 74
     0
 49
-0.75
 74
     0
 49
1.5
 74
     0
 49
-0.75
 74
     0
  0
LTYPE
  5
53B
330
438
100
AcDbSymbolTableRecord
100
AcDbLinetypeTableRecord
  2
AM_ISO02W050x2
 70
     0
  3
 _ _ _ _ _ _ _ _ _ _ _ _
 72
    65
 73
     2
 40
3.75
 49
3.0
 74
     0
 49
-0.75
 74
     0
  0
LTYPE
  5
53E
330
438
100
AcDbSymbolTableRecord
100
AcDbLinetypeTableRecord
  2
Amzigzag
 70
     0
  3
/\/-/\/-/\/-/\/-/\/-/\/
 72
    65
 73
     2
 40
11.0001
 49
0.0001
 74
     4
 75
   136
340
53D
 46
0.04
 50
0.0
 44
0.0
 45
0.0
 49
-11.0
 74
     0
  0
LTYPE
  5
53F
330
438
100
AcDbSymbolTableRecord
100
AcDbLinetypeTableRecord
  2
CENTER2
 70
     0
  3
Center (.5x) ___ _ ___ _ ___ _ ___ _ ___ _ ___
 72
    65
 73
     4
 40
1.125
 49
0.75
 74
     0
 49
-0.125
 74
     0
 49
0.125
 74
     0
 49
-0.125
 74
     0
  0
LTYPE
  5
540
330
438
100
AcDbSymbolTableRecord
100
AcDbLinetypeTableRecord
  2
HIDDEN2
 70
     0
  3
Hidden (.5x) _ _ _ _ _ _ _ _ _ _ _ _ _ _ _ _ _
 72
    65
 73
     2
 40
0.1875
 49
0.125
 74
     0
 49
-0.0625
 74
     0
  0
LTYPE
  5
541
330
438
100
AcDbSymbolTableRecord
100
AcDbLinetypeTableRecord
  2
Amzigzag2
 70
     0
  3
/\/-/\/-/\/-/\/-/\/-/\/
 72
    65
 73
     2
 40
0.4401
 49
0.0001
 74
     4
 75
   136
340
53D
 46
0.0016
 50
0.0
 44
0.0
 45
0.0
 49
-0.4400000000000002
 74
     0
  0
LTYPE
  5
550
330
438
100
AcDbSymbolTableRecord
100
AcDbLinetypeTableRecord
  2
ACANSTGB
 70
     0
  3
__ . . __ . .
 72
    65
 73
     6
 40
0.35433070866
 49
0.15748031496
 74
     0
 49
-0.03937007874
 74
     0
 49
0.03937007874
 74
     0
 49
-0.03937007874
 74
     0
 49
0.03937007874
 74
     0
 49
-0.03937007874
 74
     0
  0
LTYPE
  5
551
330
438
100
AcDbSymbolTableRecord
100
AcDbLinetypeTableRecord
  2
ACANSTGL
 70
     0
  3
_ _ _ _ _
 72
    65
 73
     2
 40
0.11811023622
 49
0.07874015748
 74
     0
 49
-0.03937007874
 74
     0
  0
ENDTAB
  0
TABLE
  2
LAYER
  5
435
330
0
100
AcDbSymbolTable
 70
     1
  0
LAYER
  5
458
330
435
100
AcDbSymbolTableRecord
100
AcDbLayerTableRecord
  2
0
 70
     0
 62
     7
  6
CONTINUOUS
370
    -3
390
442
  0
ENDTAB
  0
TABLE
  2
STYLE
  5
436
330
0
100
AcDbSymbolTable
 70
     4
  0
STYLE
  5
459
330
436
100
AcDbSymbolTableRecord
100
AcDbTextStyleTableRecord
  2
STANDARD
 70
     0
 40
0.0
 41
1.0
 50
0.0
 71
     0
 42
0.2
  3
txt
  4
BIGFONT
  0
STYLE
  5
53D
330
436
100
AcDbSymbolTableRecord
100
AcDbTextStyleTableRecord
  2

 70
     1
 40
0.0
 41
1.0
 50
0.0
 71
     0
 42
0.2
  3
genltshp.shx
  4

  0
STYLE
  5
542
330
436
100
AcDbSymbolTableRecord
100
AcDbTextStyleTableRecord
  2
ACANSTS
 70
     0
 40
1.0
 41
1.0
 50
0.0
 71
     0
 42
0.2
  3
romans.shx
  4
extfont.shx
  0
STYLE
  5
54F
330
436
100
AcDbSymbolTableRecord
100
AcDbTextStyleTableRecord
  2
ACANSGDT
 70
     0
 40
0.0
 41
1.0
 50
0.0
 71
     0
 42
0.2
  3
amgdt.shx
  4

  0
ENDTAB
  0
TABLE
  2
VIEW
  5
439
330
0
100
AcDbSymbolTable
 70
     0
  0
ENDTAB
  0
TABLE
  2
UCS
  5
43A
330
0
100
AcDbSymbolTable
 70
     0
  0
ENDTAB
  0
TABLE
  2
APPID
  5
43C
330
0
100
AcDbSymbolTable
 70
     9
  0
APPID
  5
45A
330
43C
100
AcDbSymbolTableRecord
100
AcDbRegAppTableRecord
  2
ACAD
 70
     0
  0
APPID
  5
4D4
330
43C
100
AcDbSymbolTableRecord
100
AcDbRegAppTableRecord
  2
MCAD_NO_VIS
 70
     0
  0
APPID
  5
4D5
330
43C
100
AcDbSymbolTableRecord
100
AcDbRegAppTableRecord
  2
ACAD_TEMP_GRAPHIC
 70
     0
  0
APPID
  5
503
330
43C
100
AcDbSymbolTableRecord
100
AcDbRegAppTableRecord
  2
AD_DRAW
 70
     0
  0
APPID
  5
506
330
43C
100
AcDbSymbolTableRecord
100
AcDbRegAppTableRecord
  2
ACATTRIBSERVICES
 70
     0
  0
APPID
  5
527
330
43C
100
AcDbSymbolTableRecord
100
AcDbRegAppTableRecord
  2
DESIGNERASSEMBLIES
 70
     0
  0
APPID
  5
52D
330
43C
100
AcDbSymbolTableRecord
100
AcDbRegAppTableRecord
  2
ACADM_DIM_EDIT
 70
     0
  0
APPID
  5
52E
330
43C
100
AcDbSymbolTableRecord
100
AcDbRegAppTableRecord
  2
AMDT_DM_ADJ
 70
     0
  0
APPID
  5
58C
330
43C
100
AcDbSymbolTableRecord
100
AcDbRegAppTableRecord
  2
ACAD_DSTYLE_DIMARC_LENGTH_SYMBOL
 70
     0
  0
ENDTAB
  0
TABLE
  2
DIMSTYLE
  5
43D
330
0
100
AcDbSymbolTable
 70
     7
100
AcDbDimStyleTable
 71
     0
  0
DIMSTYLE
105
473
330
43D
100
AcDbSymbolTableRecord
100
AcDbDimStyleTableRecord
  2
STANDARD
 70
     0
279
     2
340
459
  0
DIMSTYLE
105
55D
330
43D
100
AcDbSymbolTableRecord
100
AcDbDimStyleTableRecord
  2
AM_ANSI
 70
     0
  4
mm
 41
0.1
 42
0.05
 43
0.5
 44
0.1
 47
0.1
 48
0.1
 78
     7
 79
     2
140
0.12
141
0.0
146
0.71
147
0.06
176
   256
177
   256
178
     2
274
     4
284
     7
340
459
371
    -1
372
    -1
1001
ACAD_DSTYLE_DIMARC_LENGTH_SYMBOL
1070
   379
1070
     1
  0
DIMSTYLE
105
55E
330
43D
100
AcDbSymbolTableRecord
100
AcDbDimStyleTableRecord
  2
AM_ANSI$3
 70
     0
  4
mm
 41
0.1
 42
0.05
 43
0.5
 44
0.1
 47
0.1
 48
0.1
 78
     7
 79
     2
140
0.12
141
0.0
146
0.71
147
0.06
176
   256
177
   256
178
     2
274
     4
284
     7
288
     1
289
     0
340
459
371
    -1
372
    -1
1001
ACAD_DSTYLE_DIMARC_LENGTH_SYMBOL
1070
   379
1070
     1
  0
DIMSTYLE
105
55F
330
43D
100
AcDbSymbolTableRecord
100
AcDbDimStyleTableRecord
  2
AM_ANSI$4
 70
     0
  4
mm
 41
0.1
 42
0.05
 43
0.5
 44
0.1
 47
0.1
 48
0.1
 78
     7
 79
     2
140
0.12
141
0.0
146
0.71
147
0.06
176
   256
177
   256
178
     2
274
     4
284
     7
288
     1
289
     0
340
459
371
    -1
372
    -1
1001
ACAD_DSTYLE_DIMARC_LENGTH_SYMBOL
1070
   379
1070
     1
  0
DIMSTYLE
105
560
330
43D
100
AcDbSymbolTableRecord
100
AcDbDimStyleTableRecord
  2
AM_ANSI$7
 70
     0
  4
mm
 41
0.1
 42
0.05
 43
0.5
 44
0.1
 47
0.1
 48
0.1
 78
     7
 79
     2
140
0.24
141
0.0
146
0.71
147
0.06
176
   256
177
   256
178
     2
274
     4
284
     7
340
459
371
    -1
372
    -1
1001
ACAD_DSTYLE_DIMARC_LENGTH_SYMBOL
1070
   379
1070
     1
  0
DIMSTYLE
105
561
330
43D
100
AcDbSymbolTableRecord
100
AcDbDimStyleTableRecord
  2
AM_ANSI$SF
 70
     0
  4
mm
 41
0.1
 42
0.05
 43
0.5
 44
0.1
 47
0.1
 48
0.1
 75
     1
 76
     1
 78
     7
 79
     2
140
0.12
141
0.0
146
0.71
147
0.06
176
   256
177
   256
178
     2
274
     4
284
     7
340
459
371
    -1
372
    -1
1001
ACAD_DSTYLE_DIMARC_LENGTH_SYMBOL
1070
   379
1070
     1
  0
DIMSTYLE
105
566
330
43D
100
AcDbSymbolTableRecord
100
AcDbDimStyleTableRecord
  2
AM_ANSI$SH
 70
     0
  4
mm
 41
0.1
 42
0.05
 43
0.5
 44
0.1
 47
0.1
 48
0.1
 75
     1
 76
     1
 78
     7
 79
     2
140
0.12
141
0.0
146
0.71
147
0.06
173
     1
176
   256
177
   256
178
     2
274
     4
284
     7
340
459
343
562
371
    -1
372
    -1
1001
ACAD_DSTYLE_DIMARC_LENGTH_SYMBOL
1070
   379
1070
     1
  0
ENDTAB
  0
TABLE
  2
BLOCK_RECORD
  5
434
330
0
100
AcDbSymbolTable
 70
    44
  0
BLOCK_RECORD
  5
469
330
434
100
AcDbSymbolTableRecord
100
AcDbBlockTableRecord
  2
*Model_Space
340
46C
  0
BLOCK_RECORD
  5
465
330
434
100
AcDbSymbolTableRecord
100
AcDbBlockTableRecord
  2
*Paper_Space
340
468
  0
BLOCK_RECORD
  5
47A
330
434
100
AcDbSymbolTableRecord
100
AcDbBlockTableRecord
  2
KOZU0001
340
0
102
{BLKREFS
331
323
102
}
  0
BLOCK_RECORD
  5
47C
330
434
100
AcDbSymbolTableRecord
100
AcDbBlockTableRecord
  2
KOZU0002
340
0
102
{BLKREFS
331
324
102
}
  0
BLOCK_RECORD
  5
47E
330
434
100
AcDbSymbolTableRecord
100
AcDbBlockTableRecord
  2
KOZU0003
340
0
102
{BLKREFS
331
325
102
}
  0
BLOCK_RECORD
  5
480
330
434
100
AcDbSymbolTableRecord
100
AcDbBlockTableRecord
  2
KOZU0004
340
0
102
{BLKREFS
331
326
102
}
  0
BLOCK_RECORD
  5
482
330
434
100
AcDbSymbolTableRecord
100
AcDbBlockTableRecord
  2
KOZU0005
340
0
102
{BLKREFS
331
327
102
}
  0
BLOCK_RECORD
  5
484
330
434
100
AcDbSymbolTableRecord
100
AcDbBlockTableRecord
  2
KOZU0006
340
0
102
{BLKREFS
331
328
102
}
  0
BLOCK_RECORD
  5
486
330
434
100
AcDbSymbolTableRecord
100
AcDbBlockTableRecord
  2
KOZU0007
340
0
102
{BLKREFS
331
329
102
}
  0
BLOCK_RECORD
  5
488
330
434
100
AcDbSymbolTableRecord
100
AcDbBlockTableRecord
  2
KOZU0008
340
0
102
{BLKREFS
331
32A
102
}
  0
BLOCK_RECORD
  5
48A
330
434
100
AcDbSymbolTableRecord
100
AcDbBlockTableRecord
  2
KOZU0009
340
0
102
{BLKREFS
331
32B
102
}
  0
BLOCK_RECORD
  5
48C
330
434
100
AcDbSymbolTableRecord
100
AcDbBlockTableRecord
  2
KOZU0010
340
0
102
{BLKREFS
331
32C
102
}
  0
BLOCK_RECORD
  5
48E
330
434
100
AcDbSymbolTableRecord
100
AcDbBlockTableRecord
  2
KOZU0011
340
0
102
{BLKREFS
331
32D
102
}
  0
BLOCK_RECORD
  5
490
330
434
100
AcDbSymbolTableRecord
100
AcDbBlockTableRecord
  2
KOZU0012
340
0
102
{BLKREFS
331
32E
102
}
  0
BLOCK_RECORD
  5
492
330
434
100
AcDbSymbolTableRecord
100
AcDbBlockTableRecord
  2
KOZU0013
340
0
102
{BLKREFS
331
32F
102
}
  0
BLOCK_RECORD
  5
494
330
434
100
AcDbSymbolTableRecord
100
AcDbBlockTableRecord
  2
KOZU0014
340
0
102
{BLKREFS
331
330
102
}
  0
BLOCK_RECORD
  5
496
330
434
100
AcDbSymbolTableRecord
100
AcDbBlockTableRecord
  2
KOZU0015
340
0
102
{BLKREFS
331
331
102
}
  0
BLOCK_RECORD
  5
498
330
434
100
AcDbSymbolTableRecord
100
AcDbBlockTableRecord
  2
KOZU0016
340
0
102
{BLKREFS
331
332
102
}
  0
BLOCK_RECORD
  5
49A
330
434
100
AcDbSymbolTableRecord
100
AcDbBlockTableRecord
  2
KOZU0017
340
0
102
{BLKREFS
331
333
102
}
  0
BLOCK_RECORD
  5
49C
330
434
100
AcDbSymbolTableRecord
100
AcDbBlockTableRecord
  2
KOZU0018
340
0
102
{BLKREFS
331
334
102
}
  0
BLOCK_RECORD
  5
49E
330
434
100
AcDbSymbolTableRecord
100
AcDbBlockTableRecord
  2
KOZU0019
340
0
102
{BLKREFS
331
335
102
}
  0
BLOCK_RECORD
  5
4A0
330
434
100
AcDbSymbolTableRecord
100
AcDbBlockTableRecord
  2
KOZU0020
340
0
102
{BLKREFS
331
336
102
}
  0
BLOCK_RECORD
  5
4A2
330
434
100
AcDbSymbolTableRecord
100
AcDbBlockTableRecord
  2
KOZU0021
340
0
102
{BLKREFS
331
337
102
}
  0
BLOCK_RECORD
  5
4A4
330
434
100
AcDbSymbolTableRecord
100
AcDbBlockTableRecord
  2
KOZU0022
340
0
102
{BLKREFS
331
338
102
}
  0
BLOCK_RECORD
  5
4A6
330
434
100
AcDbSymbolTableRecord
100
AcDbBlockTableRecord
  2
KOZU0023
340
0
102
{BLKREFS
331
339
102
}
  0
BLOCK_RECORD
  5
4A8
330
434
100
AcDbSymbolTableRecord
100
AcDbBlockTableRecord
  2
KOZU0024
340
0
102
{BLKREFS
331
33A
102
}
  0
BLOCK_RECORD
  5
4AA
330
434
100
AcDbSymbolTableRecord
100
AcDbBlockTableRecord
  2
KOZU0025
340
0
102
{BLKREFS
331
33B
102
}
  0
BLOCK_RECORD
  5
4AC
330
434
100
AcDbSymbolTableRecord
100
AcDbBlockTableRecord
  2
KOZU0026
340
0
102
{BLKREFS
331
33C
102
}
  0
BLOCK_RECORD
  5
4AE
330
434
100
AcDbSymbolTableRecord
100
AcDbBlockTableRecord
  2
KOZU0027
340
0
102
{BLKREFS
331
33D
102
}
  0
BLOCK_RECORD
  5
4B0
330
434
100
AcDbSymbolTableRecord
100
AcDbBlockTableRecord
  2
KOZU0028
340
0
102
{BLKREFS
331
33E
102
}
  0
BLOCK_RECORD
  5
4B2
330
434
100
AcDbSymbolTableRecord
100
AcDbBlockTableRecord
  2
KOZU0029
340
0
102
{BLKREFS
331
33F
102
}
  0
BLOCK_RECORD
  5
4B4
330
434
100
AcDbSymbolTableRecord
100
AcDbBlockTableRecord
  2
KOZU0030
340
0
102
{BLKREFS
331
340
102
}
  0
BLOCK_RECORD
  5
4B6
330
434
100
AcDbSymbolTableRecord
100
AcDbBlockTableRecord
  2
KOZU0031
340
0
102
{BLKREFS
331
341
102
}
  0
BLOCK_RECORD
  5
4B8
330
434
100
AcDbSymbolTableRecord
100
AcDbBlockTableRecord
  2
KOZU0032
340
0
102
{BLKREFS
331
342
102
}
  0
BLOCK_RECORD
  5
4BA
330
434
100
AcDbSymbolTableRecord
100
AcDbBlockTableRecord
  2
KOZU0033
340
0
102
{BLKREFS
331
343
102
}
  0
BLOCK_RECORD
  5
4BC
330
434
100
AcDbSymbolTableRecord
100
AcDbBlockTableRecord
  2
KOZU0034
340
0
102
{BLKREFS
331
344
102
}
  0
BLOCK_RECORD
  5
4BE
330
434
100
AcDbSymbolTableRecord
100
AcDbBlockTableRecord
  2
KOZU0035
340
0
102
{BLKREFS
331
345
102
}
  0
BLOCK_RECORD
  5
4C0
330
434
100
AcDbSymbolTableRecord
100
AcDbBlockTableRecord
  2
KOZU0036
340
0
102
{BLKREFS
331
346
102
}
  0
BLOCK_RECORD
  5
4C2
330
434
100
AcDbSymbolTableRecord
100
AcDbBlockTableRecord
  2
KOZU0037
340
0
102
{BLKREFS
331
347
102
}
  0
BLOCK_RECORD
  5
4C4
330
434
100
AcDbSymbolTableRecord
100
AcDbBlockTableRecord
  2
KOZU0038
340
0
102
{BLKREFS
331
348
102
}
  0
BLOCK_RECORD
  5
4C6
330
434
100
AcDbSymbolTableRecord
100
AcDbBlockTableRecord
  2
KOZU0039
340
0
102
{BLKREFS
331
349
102
}
  0
BLOCK_RECORD
  5
4C8
330
434
100
AcDbSymbolTableRecord
100
AcDbBlockTableRecord
  2
KOZU0040
340
0
102
{BLKREFS
331
34A
102
}
  0
BLOCK_RECORD
  5
4CA
330
434
100
AcDbSymbolTableRecord
100
AcDbBlockTableRecord
  2
KOZU0041
340
0
102
{BLKREFS
331
34B
102
}
  0
BLOCK_RECORD
  5
4CC
330
434
100
AcDbSymbolTableRecord
100
AcDbBlockTableRecord
  2
KOZU0042
340
0
102
{BLKREFS
331
34C
102
}
  0
BLOCK_RECORD
  5
562
330
434
100
AcDbSymbolTableRecord
100
AcDbBlockTableRecord
  2
GENAXEH
340
0
  0
ENDTAB
  0
ENDSEC
  0
SECTION
  2
BLOCKS
  0
BLOCK
  5
46A
330
469
100
AcDbEntity
  8
0
100
AcDbBlockBegin
  2
*Model_Space
 70
     0
 10
0.0
 20
0.0
 30
0.0
  3
*Model_Space
  1

  0
ENDBLK
  5
46B
330
469
100
AcDbEntity
  8
0
100
AcDbBlockEnd
  0
BLOCK
  5
466
330
465
100
AcDbEntity
 67
     1
  8
0
100
AcDbBlockBegin
  2
*Paper_Space
 70
     0
 10
0.0
 20
0.0
 30
0.0
  3
*Paper_Space
  1

  0
ENDBLK
  5
467
330
465
100
AcDbEntity
 67
     1
  8
0
100
AcDbBlockEnd
  0
BLOCK
  5
47B
330
47A
100
AcDbEntity
  8
0
100
AcDbBlockBegin
  2
KOZU0001
 70
     0
 10
0.0
 20
0.0
 30
0.0
  3
KOZU0001
  1

  0
POLYLINE
  5
2C
330
47A
100
AcDbEntity
  8
0
  6
Continuous
 62
     7
100
AcDb2dPolyline
 66
     1
 10
0.0
 20
0.0
 30
0.0
 70
     1
 40
0.4000000100000002
 41
0.4000000100000002
  0
VERTEX
  5
356
330
2C
100
AcDbEntity
  8
0
  6
Continuous
 62
     7
100
AcDbVertex
100
AcDb2dVertex
 10
-0.2
 20
0.0
 30
0.0
 42
1.0
  0
VERTEX
  5
357
330
2C
100
AcDbEntity
  8
0
  6
Continuous
 62
     7
100
AcDbVertex
100
AcDb2dVertex
 10
0.2
 20
0.0
 30
0.0
 42
1.0
  0
SEQEND
  5
358
330
2C
100
AcDbEntity
  8
0
  6
Continuous
 62
     7
  0
ENDBLK
  5
30
330
47A
100
AcDbEntity
  8
0
100
AcDbBlockEnd
  0
BLOCK
  5
47D
330
47C
100
AcDbEntity
  8
0
100
AcDbBlockBegin
  2
KOZU0002
 70
     0
 10
0.0
 20
0.0
 30
0.0
  3
KOZU0002
  1

  0
POLYLINE
  5
33
330
47C
100
AcDbEntity
  8
0
  6
Continuous
 62
     7
100
AcDb2dPolyline
 66
     1
 10
0.0
 20
0.0
 30
0.0
 70
     1
 40
0.4000000100000002
 41
0.4000000100000002
  0
VERTEX
  5
359
330
33
100
AcDbEntity
  8
0
  6
Continuous
 62
     7
100
AcDbVertex
100
AcDb2dVertex
 10
-0.2
 20
0.0
 30
0.0
 42
1.0
  0
VERTEX
  5
35A
330
33
100
AcDbEntity
  8
0
  6
Continuous
 62
     7
100
AcDbVertex
100
AcDb2dVertex
 10
0.2
 20
0.0
 30
0.0
 42
1.0
  0
SEQEND
  5
35B
330
33
100
AcDbEntity
  8
0
  6
Continuous
 62
     7
  0
ENDBLK
  5
37
330
47C
100
AcDbEntity
  8
0
100
AcDbBlockEnd
  0
BLOCK
  5
47F
330
47E
100
AcDbEntity
  8
0
100
AcDbBlockBegin
  2
KOZU0003
 70
     0
 10
0.0
 20
0.0
 30
0.0
  3
KOZU0003
  1

  0
POLYLINE
  5
3A
330
47E
100
AcDbEntity
  8
0
  6
Continuous
 62
     7
100
AcDb2dPolyline
 66
     1
 10
0.0
 20
0.0
 30
0.0
 70
     1
 40
0.4000000100000002
 41
0.4000000100000002
  0
VERTEX
  5
35C
330
3A
100
AcDbEntity
  8
0
  6
Continuous
 62
     7
100
AcDbVertex
100
AcDb2dVertex
 10
-0.2
 20
0.0
 30
0.0
 42
1.0
  0
VERTEX
  5
35D
330
3A
100
AcDbEntity
  8
0
  6
Continuous
 62
     7
100
AcDbVertex
100
AcDb2dVertex
 10
0.2
 20
0.0
 30
0.0
 42
1.0
  0
SEQEND
  5
35E
330
3A
100
AcDbEntity
  8
0
  6
Continuous
 62
     7
  0
ENDBLK
  5
3E
330
47E
100
AcDbEntity
  8
0
100
AcDbBlockEnd
  0
BLOCK
  5
481
330
480
100
AcDbEntity
  8
0
100
AcDbBlockBegin
  2
KOZU0004
 70
     0
 10
0.0
 20
0.0
 30
0.0
  3
KOZU0004
  1

  0
POLYLINE
  5
41
330
480
100
AcDbEntity
  8
0
  6
Continuous
 62
     7
100
AcDb2dPolyline
 66
     1
 10
0.0
 20
0.0
 30
0.0
 70
     1
 40
0.4000000100000002
 41
0.4000000100000002
  0
VERTEX
  5
35F
330
41
100
AcDbEntity
  8
0
  6
Continuous
 62
     7
100
AcDbVertex
100
AcDb2dVertex
 10
-0.2
 20
0.0
 30
0.0
 42
1.0
  0
VERTEX
  5
360
330
41
100
AcDbEntity
  8
0
  6
Continuous
 62
     7
100
AcDbVertex
100
AcDb2dVertex
 10
0.2
 20
0.0
 30
0.0
 42
1.0
  0
SEQEND
  5
361
330
41
100
AcDbEntity
  8
0
  6
Continuous
 62
     7
  0
ENDBLK
  5
45
330
480
100
AcDbEntity
  8
0
100
AcDbBlockEnd
  0
BLOCK
  5
483
330
482
100
AcDbEntity
  8
0
100
AcDbBlockBegin
  2
KOZU0005
 70
     0
 10
0.0
 20
0.0
 30
0.0
  3
KOZU0005
  1

  0
POLYLINE
  5
48
330
482
100
AcDbEntity
  8
0
  6
Continuous
 62
     7
100
AcDb2dPolyline
 66
     1
 10
0.0
 20
0.0
 30
0.0
 70
     1
 40
0.4000000100000002
 41
0.4000000100000002
  0
VERTEX
  5
362
330
48
100
AcDbEntity
  8
0
  6
Continuous
 62
     7
100
AcDbVertex
100
AcDb2dVertex
 10
-0.2
 20
0.0
 30
0.0
 42
1.0
  0
VERTEX
  5
363
330
48
100
AcDbEntity
  8
0
  6
Continuous
 62
     7
100
AcDbVertex
100
AcDb2dVertex
 10
0.2
 20
0.0
 30
0.0
 42
1.0
  0
SEQEND
  5
364
330
48
100
AcDbEntity
  8
0
  6
Continuous
 62
     7
  0
ENDBLK
  5
4C
330
482
100
AcDbEntity
  8
0
100
AcDbBlockEnd
  0
BLOCK
  5
485
330
484
100
AcDbEntity
  8
0
100
AcDbBlockBegin
  2
KOZU0006
 70
     0
 10
0.0
 20
0.0
 30
0.0
  3
KOZU0006
  1

  0
POLYLINE
  5
4F
330
484
100
AcDbEntity
  8
0
  6
Continuous
 62
     7
100
AcDb2dPolyline
 66
     1
 10
0.0
 20
0.0
 30
0.0
 70
     1
 40
0.4000000100000002
 41
0.4000000100000002
  0
VERTEX
  5
365
330
4F
100
AcDbEntity
  8
0
  6
Continuous
 62
     7
100
AcDbVertex
100
AcDb2dVertex
 10
-0.2
 20
0.0
 30
0.0
 42
1.0
  0
VERTEX
  5
366
330
4F
100
AcDbEntity
  8
0
  6
Continuous
 62
     7
100
AcDbVertex
100
AcDb2dVertex
 10
0.2
 20
0.0
 30
0.0
 42
1.0
  0
SEQEND
  5
367
330
4F
100
AcDbEntity
  8
0
  6
Continuous
 62
     7
  0
ENDBLK
  5
53
330
484
100
AcDbEntity
  8
0
100
AcDbBlockEnd
  0
BLOCK
  5
487
330
486
100
AcDbEntity
  8
0
100
AcDbBlockBegin
  2
KOZU0007
 70
     0
 10
0.0
 20
0.0
 30
0.0
  3
KOZU0007
  1

  0
POLYLINE
  5
56
330
486
100
AcDbEntity
  8
0
  6
Continuous
 62
     7
100
AcDb2dPolyline
 66
     1
 10
0.0
 20
0.0
 30
0.0
 70
     1
 40
0.4000000100000002
 41
0.4000000100000002
  0
VERTEX
  5
368
330
56
100
AcDbEntity
  8
0
  6
Continuous
 62
     7
100
AcDbVertex
100
AcDb2dVertex
 10
-0.2
 20
0.0
 30
0.0
 42
1.0
  0
VERTEX
  5
369
330
56
100
AcDbEntity
  8
0
  6
Continuous
 62
     7
100
AcDbVertex
100
AcDb2dVertex
 10
0.2
 20
0.0
 30
0.0
 42
1.0
  0
SEQEND
  5
36A
330
56
100
AcDbEntity
  8
0
  6
Continuous
 62
     7
  0
ENDBLK
  5
5A
330
486
100
AcDbEntity
  8
0
100
AcDbBlockEnd
  0
BLOCK
  5
489
330
488
100
AcDbEntity
  8
0
100
AcDbBlockBegin
  2
KOZU0008
 70
     0
 10
0.0
 20
0.0
 30
0.0
  3
KOZU0008
  1

  0
POLYLINE
  5
5D
330
488
100
AcDbEntity
  8
0
  6
Continuous
 62
     7
100
AcDb2dPolyline
 66
     1
 10
0.0
 20
0.0
 30
0.0
 70
     1
 40
0.4000000100000002
 41
0.4000000100000002
  0
VERTEX
  5
36B
330
5D
100
AcDbEntity
  8
0
  6
Continuous
 62
     7
100
AcDbVertex
100
AcDb2dVertex
 10
-0.2
 20
0.0
 30
0.0
 42
1.0
  0
VERTEX
  5
36C
330
5D
100
AcDbEntity
  8
0
  6
Continuous
 62
     7
100
AcDbVertex
100
AcDb2dVertex
 10
0.2
 20
0.0
 30
0.0
 42
1.0
  0
SEQEND
  5
36D
330
5D
100
AcDbEntity
  8
0
  6
Continuous
 62
     7
  0
ENDBLK
  5
61
330
488
100
AcDbEntity
  8
0
100
AcDbBlockEnd
  0
BLOCK
  5
48B
330
48A
100
AcDbEntity
  8
0
100
AcDbBlockBegin
  2
KOZU0009
 70
     0
 10
0.0
 20
0.0
 30
0.0
  3
KOZU0009
  1

  0
POLYLINE
  5
64
330
48A
100
AcDbEntity
  8
0
  6
Continuous
 62
     7
100
AcDb2dPolyline
 66
     1
 10
0.0
 20
0.0
 30
0.0
 70
     1
 40
0.4000000100000002
 41
0.4000000100000002
  0
VERTEX
  5
36E
330
64
100
AcDbEntity
  8
0
  6
Continuous
 62
     7
100
AcDbVertex
100
AcDb2dVertex
 10
-0.2
 20
0.0
 30
0.0
 42
1.0
  0
VERTEX
  5
36F
330
64
100
AcDbEntity
  8
0
  6
Continuous
 62
     7
100
AcDbVertex
100
AcDb2dVertex
 10
0.2
 20
0.0
 30
0.0
 42
1.0
  0
SEQEND
  5
370
330
64
100
AcDbEntity
  8
0
  6
Continuous
 62
     7
  0
ENDBLK
  5
68
330
48A
100
AcDbEntity
  8
0
100
AcDbBlockEnd
  0
BLOCK
  5
48D
330
48C
100
AcDbEntity
  8
0
100
AcDbBlockBegin
  2
KOZU0010
 70
     0
 10
0.0
 20
0.0
 30
0.0
  3
KOZU0010
  1

  0
POLYLINE
  5
6B
330
48C
100
AcDbEntity
  8
0
  6
Continuous
 62
     7
100
AcDb2dPolyline
 66
     1
 10
0.0
 20
0.0
 30
0.0
 70
     1
 40
0.4000000100000002
 41
0.4000000100000002
  0
VERTEX
  5
371
330
6B
100
AcDbEntity
  8
0
  6
Continuous
 62
     7
100
AcDbVertex
100
AcDb2dVertex
 10
-0.2
 20
0.0
 30
0.0
 42
1.0
  0
VERTEX
  5
372
330
6B
100
AcDbEntity
  8
0
  6
Continuous
 62
     7
100
AcDbVertex
100
AcDb2dVertex
 10
0.2
 20
0.0
 30
0.0
 42
1.0
  0
SEQEND
  5
373
330
6B
100
AcDbEntity
  8
0
  6
Continuous
 62
     7
  0
ENDBLK
  5
6F
330
48C
100
AcDbEntity
  8
0
100
AcDbBlockEnd
  0
BLOCK
  5
48F
330
48E
100
AcDbEntity
  8
0
100
AcDbBlockBegin
  2
KOZU0011
 70
     0
 10
0.0
 20
0.0
 30
0.0
  3
KOZU0011
  1

  0
POLYLINE
  5
72
330
48E
100
AcDbEntity
  8
0
  6
Continuous
 62
     7
100
AcDb2dPolyline
 66
     1
 10
0.0
 20
0.0
 30
0.0
 70
     1
 40
0.4000000100000002
 41
0.4000000100000002
  0
VERTEX
  5
374
330
72
100
AcDbEntity
  8
0
  6
Continuous
 62
     7
100
AcDbVertex
100
AcDb2dVertex
 10
-0.2
 20
0.0
 30
0.0
 42
1.0
  0
VERTEX
  5
375
330
72
100
AcDbEntity
  8
0
  6
Continuous
 62
     7
100
AcDbVertex
100
AcDb2dVertex
 10
0.2
 20
0.0
 30
0.0
 42
1.0
  0
SEQEND
  5
376
330
72
100
AcDbEntity
  8
0
  6
Continuous
 62
     7
  0
ENDBLK
  5
76
330
48E
100
AcDbEntity
  8
0
100
AcDbBlockEnd
  0
BLOCK
  5
491
330
490
100
AcDbEntity
  8
0
100
AcDbBlockBegin
  2
KOZU0012
 70
     0
 10
0.0
 20
0.0
 30
0.0
  3
KOZU0012
  1

  0
POLYLINE
  5
79
330
490
100
AcDbEntity
  8
0
  6
Continuous
 62
     7
100
AcDb2dPolyline
 66
     1
 10
0.0
 20
0.0
 30
0.0
 70
     1
 40
0.4000000100000002
 41
0.4000000100000002
  0
VERTEX
  5
377
330
79
100
AcDbEntity
  8
0
  6
Continuous
 62
     7
100
AcDbVertex
100
AcDb2dVertex
 10
-0.2
 20
0.0
 30
0.0
 42
1.0
  0
VERTEX
  5
378
330
79
100
AcDbEntity
  8
0
  6
Continuous
 62
     7
100
AcDbVertex
100
AcDb2dVertex
 10
0.2
 20
0.0
 30
0.0
 42
1.0
  0
SEQEND
  5
379
330
79
100
AcDbEntity
  8
0
  6
Continuous
 62
     7
  0
ENDBLK
  5
7D
330
490
100
AcDbEntity
  8
0
100
AcDbBlockEnd
  0
BLOCK
  5
493
330
492
100
AcDbEntity
  8
0
100
AcDbBlockBegin
  2
KOZU0013
 70
     0
 10
0.0
 20
0.0
 30
0.0
  3
KOZU0013
  1

  0
POLYLINE
  5
80
330
492
100
AcDbEntity
  8
0
  6
Continuous
 62
     7
100
AcDb2dPolyline
 66
     1
 10
0.0
 20
0.0
 30
0.0
 70
     1
 40
0.4000000100000002
 41
0.4000000100000002
  0
VERTEX
  5
37A
330
80
100
AcDbEntity
  8
0
  6
Continuous
 62
     7
100
AcDbVertex
100
AcDb2dVertex
 10
-0.2
 20
0.0
 30
0.0
 42
1.0
  0
VERTEX
  5
37B
330
80
100
AcDbEntity
  8
0
  6
Continuous
 62
     7
100
AcDbVertex
100
AcDb2dVertex
 10
0.2
 20
0.0
 30
0.0
 42
1.0
  0
SEQEND
  5
37C
330
80
100
AcDbEntity
  8
0
  6
Continuous
 62
     7
  0
ENDBLK
  5
84
330
492
100
AcDbEntity
  8
0
100
AcDbBlockEnd
  0
BLOCK
  5
495
330
494
100
AcDbEntity
  8
0
100
AcDbBlockBegin
  2
KOZU0014
 70
     0
 10
0.0
 20
0.0
 30
0.0
  3
KOZU0014
  1

  0
POLYLINE
  5
87
330
494
100
AcDbEntity
  8
0
  6
Continuous
 62
     7
100
AcDb2dPolyline
 66
     1
 10
0.0
 20
0.0
 30
0.0
 70
     1
 40
0.4000000100000002
 41
0.4000000100000002
  0
VERTEX
  5
37D
330
87
100
AcDbEntity
  8
0
  6
Continuous
 62
     7
100
AcDbVertex
100
AcDb2dVertex
 10
-0.2
 20
0.0
 30
0.0
 42
1.0
  0
VERTEX
  5
37E
330
87
100
AcDbEntity
  8
0
  6
Continuous
 62
     7
100
AcDbVertex
100
AcDb2dVertex
 10
0.2
 20
0.0
 30
0.0
 42
1.0
  0
SEQEND
  5
37F
330
87
100
AcDbEntity
  8
0
  6
Continuous
 62
     7
  0
ENDBLK
  5
8B
330
494
100
AcDbEntity
  8
0
100
AcDbBlockEnd
  0
BLOCK
  5
497
330
496
100
AcDbEntity
  8
0
100
AcDbBlockBegin
  2
KOZU0015
 70
     0
 10
0.0
 20
0.0
 30
0.0
  3
KOZU0015
  1

  0
POLYLINE
  5
8E
330
496
100
AcDbEntity
  8
0
  6
Continuous
 62
     7
100
AcDb2dPolyline
 66
     1
 10
0.0
 20
0.0
 30
0.0
 70
     1
 40
0.4000000100000002
 41
0.4000000100000002
  0
VERTEX
  5
380
330
8E
100
AcDbEntity
  8
0
  6
Continuous
 62
     7
100
AcDbVertex
100
AcDb2dVertex
 10
-0.2
 20
0.0
 30
0.0
 42
1.0
  0
VERTEX
  5
381
330
8E
100
AcDbEntity
  8
0
  6
Continuous
 62
     7
100
AcDbVertex
100
AcDb2dVertex
 10
0.2
 20
0.0
 30
0.0
 42
1.0
  0
SEQEND
  5
382
330
8E
100
AcDbEntity
  8
0
  6
Continuous
 62
     7
  0
ENDBLK
  5
92
330
496
100
AcDbEntity
  8
0
100
AcDbBlockEnd
  0
BLOCK
  5
499
330
498
100
AcDbEntity
  8
0
100
AcDbBlockBegin
  2
KOZU0016
 70
     0
 10
0.0
 20
0.0
 30
0.0
  3
KOZU0016
  1

  0
POLYLINE
  5
95
330
498
100
AcDbEntity
  8
0
  6
Continuous
 62
     7
100
AcDb2dPolyline
 66
     1
 10
0.0
 20
0.0
 30
0.0
 70
     1
 40
0.4000000100000002
 41
0.4000000100000002
  0
VERTEX
  5
383
330
95
100
AcDbEntity
  8
0
  6
Continuous
 62
     7
100
AcDbVertex
100
AcDb2dVertex
 10
-0.2
 20
0.0
 30
0.0
 42
1.0
  0
VERTEX
  5
384
330
95
100
AcDbEntity
  8
0
  6
Continuous
 62
     7
100
AcDbVertex
100
AcDb2dVertex
 10
0.2
 20
0.0
 30
0.0
 42
1.0
  0
SEQEND
  5
385
330
95
100
AcDbEntity
  8
0
  6
Continuous
 62
     7
  0
ENDBLK
  5
99
330
498
100
AcDbEntity
  8
0
100
AcDbBlockEnd
  0
BLOCK
  5
49B
330
49A
100
AcDbEntity
  8
0
100
AcDbBlockBegin
  2
KOZU0017
 70
     0
 10
0.0
 20
0.0
 30
0.0
  3
KOZU0017
  1

  0
POLYLINE
  5
9C
330
49A
100
AcDbEntity
  8
0
  6
Continuous
 62
     7
100
AcDb2dPolyline
 66
     1
 10
0.0
 20
0.0
 30
0.0
 70
     1
 40
0.4000000100000002
 41
0.4000000100000002
  0
VERTEX
  5
386
330
9C
100
AcDbEntity
  8
0
  6
Continuous
 62
     7
100
AcDbVertex
100
AcDb2dVertex
 10
-0.2
 20
0.0
 30
0.0
 42
1.0
  0
VERTEX
  5
387
330
9C
100
AcDbEntity
  8
0
  6
Continuous
 62
     7
100
AcDbVertex
100
AcDb2dVertex
 10
0.2
 20
0.0
 30
0.0
 42
1.0
  0
SEQEND
  5
388
330
9C
100
AcDbEntity
  8
0
  6
Continuous
 62
     7
  0
ENDBLK
  5
A0
330
49A
100
AcDbEntity
  8
0
100
AcDbBlockEnd
  0
BLOCK
  5
49D
330
49C
100
AcDbEntity
  8
0
100
AcDbBlockBegin
  2
KOZU0018
 70
     0
 10
0.0
 20
0.0
 30
0.0
  3
KOZU0018
  1

  0
POLYLINE
  5
A3
330
49C
100
AcDbEntity
  8
0
  6
Continuous
 62
     7
100
AcDb2dPolyline
 66
     1
 10
0.0
 20
0.0
 30
0.0
 70
     1
 40
0.4000000100000002
 41
0.4000000100000002
  0
VERTEX
  5
389
330
A3
100
AcDbEntity
  8
0
  6
Continuous
 62
     7
100
AcDbVertex
100
AcDb2dVertex
 10
-0.2
 20
0.0
 30
0.0
 42
1.0
  0
VERTEX
  5
38A
330
A3
100
AcDbEntity
  8
0
  6
Continuous
 62
     7
100
AcDbVertex
100
AcDb2dVertex
 10
0.2
 20
0.0
 30
0.0
 42
1.0
  0
SEQEND
  5
38B
330
A3
100
AcDbEntity
  8
0
  6
Continuous
 62
     7
  0
ENDBLK
  5
A7
330
49C
100
AcDbEntity
  8
0
100
AcDbBlockEnd
  0
BLOCK
  5
49F
330
49E
100
AcDbEntity
  8
0
100
AcDbBlockBegin
  2
KOZU0019
 70
     0
 10
0.0
 20
0.0
 30
0.0
  3
KOZU0019
  1

  0
POLYLINE
  5
AA
330
49E
100
AcDbEntity
  8
0
  6
Continuous
 62
     7
100
AcDb2dPolyline
 66
     1
 10
0.0
 20
0.0
 30
0.0
 70
     1
 40
0.4000000100000002
 41
0.4000000100000002
  0
VERTEX
  5
38C
330
AA
100
AcDbEntity
  8
0
  6
Continuous
 62
     7
100
AcDbVertex
100
AcDb2dVertex
 10
-0.2
 20
0.0
 30
0.0
 42
1.0
  0
VERTEX
  5
38D
330
AA
100
AcDbEntity
  8
0
  6
Continuous
 62
     7
100
AcDbVertex
100
AcDb2dVertex
 10
0.2
 20
0.0
 30
0.0
 42
1.0
  0
SEQEND
  5
38E
330
AA
100
AcDbEntity
  8
0
  6
Continuous
 62
     7
  0
ENDBLK
  5
AE
330
49E
100
AcDbEntity
  8
0
100
AcDbBlockEnd
  0
BLOCK
  5
4A1
330
4A0
100
AcDbEntity
  8
0
100
AcDbBlockBegin
  2
KOZU0020
 70
     0
 10
0.0
 20
0.0
 30
0.0
  3
KOZU0020
  1

  0
POLYLINE
  5
B1
330
4A0
100
AcDbEntity
  8
0
  6
Continuous
 62
     7
100
AcDb2dPolyline
 66
     1
 10
0.0
 20
0.0
 30
0.0
 70
     1
 40
0.4000000100000002
 41
0.4000000100000002
  0
VERTEX
  5
38F
330
B1
100
AcDbEntity
  8
0
  6
Continuous
 62
     7
100
AcDbVertex
100
AcDb2dVertex
 10
-0.2
 20
0.0
 30
0.0
 42
1.0
  0
VERTEX
  5
390
330
B1
100
AcDbEntity
  8
0
  6
Continuous
 62
     7
100
AcDbVertex
100
AcDb2dVertex
 10
0.2
 20
0.0
 30
0.0
 42
1.0
  0
SEQEND
  5
391
330
B1
100
AcDbEntity
  8
0
  6
Continuous
 62
     7
  0
ENDBLK
  5
B5
330
4A0
100
AcDbEntity
  8
0
100
AcDbBlockEnd
  0
BLOCK
  5
4A3
330
4A2
100
AcDbEntity
  8
0
100
AcDbBlockBegin
  2
KOZU0021
 70
     0
 10
0.0
 20
0.0
 30
0.0
  3
KOZU0021
  1

  0
POLYLINE
  5
B8
330
4A2
100
AcDbEntity
  8
0
  6
Continuous
 62
     7
100
AcDb2dPolyline
 66
     1
 10
0.0
 20
0.0
 30
0.0
 70
     1
 40
0.4000000100000002
 41
0.4000000100000002
  0
VERTEX
  5
392
330
B8
100
AcDbEntity
  8
0
  6
Continuous
 62
     7
100
AcDbVertex
100
AcDb2dVertex
 10
-0.2
 20
0.0
 30
0.0
 42
1.0
  0
VERTEX
  5
393
330
B8
100
AcDbEntity
  8
0
  6
Continuous
 62
     7
100
AcDbVertex
100
AcDb2dVertex
 10
0.2
 20
0.0
 30
0.0
 42
1.0
  0
SEQEND
  5
394
330
B8
100
AcDbEntity
  8
0
  6
Continuous
 62
     7
  0
ENDBLK
  5
BC
330
4A2
100
AcDbEntity
  8
0
100
AcDbBlockEnd
  0
BLOCK
  5
4A5
330
4A4
100
AcDbEntity
  8
0
100
AcDbBlockBegin
  2
KOZU0022
 70
     0
 10
0.0
 20
0.0
 30
0.0
  3
KOZU0022
  1

  0
POLYLINE
  5
BF
330
4A4
100
AcDbEntity
  8
0
  6
Continuous
 62
     7
100
AcDb2dPolyline
 66
     1
 10
0.0
 20
0.0
 30
0.0
 70
     1
 40
0.4000000100000002
 41
0.4000000100000002
  0
VERTEX
  5
395
330
BF
100
AcDbEntity
  8
0
  6
Continuous
 62
     7
100
AcDbVertex
100
AcDb2dVertex
 10
-0.2
 20
0.0
 30
0.0
 42
1.0
  0
VERTEX
  5
396
330
BF
100
AcDbEntity
  8
0
  6
Continuous
 62
     7
100
AcDbVertex
100
AcDb2dVertex
 10
0.2
 20
0.0
 30
0.0
 42
1.0
  0
SEQEND
  5
397
330
BF
100
AcDbEntity
  8
0
  6
Continuous
 62
     7
  0
ENDBLK
  5
C3
330
4A4
100
AcDbEntity
  8
0
100
AcDbBlockEnd
  0
BLOCK
  5
4A7
330
4A6
100
AcDbEntity
  8
0
100
AcDbBlockBegin
  2
KOZU0023
 70
     0
 10
0.0
 20
0.0
 30
0.0
  3
KOZU0023
  1

  0
POLYLINE
  5
C6
330
4A6
100
AcDbEntity
  8
0
  6
Continuous
 62
     7
100
AcDb2dPolyline
 66
     1
 10
0.0
 20
0.0
 30
0.0
 70
     1
 40
0.4000000100000002
 41
0.4000000100000002
  0
VERTEX
  5
398
330
C6
100
AcDbEntity
  8
0
  6
Continuous
 62
     7
100
AcDbVertex
100
AcDb2dVertex
 10
-0.2
 20
0.0
 30
0.0
 42
1.0
  0
VERTEX
  5
399
330
C6
100
AcDbEntity
  8
0
  6
Continuous
 62
     7
100
AcDbVertex
100
AcDb2dVertex
 10
0.2
 20
0.0
 30
0.0
 42
1.0
  0
SEQEND
  5
39A
330
C6
100
AcDbEntity
  8
0
  6
Continuous
 62
     7
  0
ENDBLK
  5
CA
330
4A6
100
AcDbEntity
  8
0
100
AcDbBlockEnd
  0
BLOCK
  5
4A9
330
4A8
100
AcDbEntity
  8
0
100
AcDbBlockBegin
  2
KOZU0024
 70
     0
 10
0.0
 20
0.0
 30
0.0
  3
KOZU0024
  1

  0
POLYLINE
  5
CD
330
4A8
100
AcDbEntity
  8
0
  6
Continuous
 62
     7
100
AcDb2dPolyline
 66
     1
 10
0.0
 20
0.0
 30
0.0
 70
     1
 40
0.4000000100000002
 41
0.4000000100000002
  0
VERTEX
  5
39B
330
CD
100
AcDbEntity
  8
0
  6
Continuous
 62
     7
100
AcDbVertex
100
AcDb2dVertex
 10
-0.2
 20
0.0
 30
0.0
 42
1.0
  0
VERTEX
  5
39C
330
CD
100
AcDbEntity
  8
0
  6
Continuous
 62
     7
100
AcDbVertex
100
AcDb2dVertex
 10
0.2
 20
0.0
 30
0.0
 42
1.0
  0
SEQEND
  5
39D
330
CD
100
AcDbEntity
  8
0
  6
Continuous
 62
     7
  0
ENDBLK
  5
D1
330
4A8
100
AcDbEntity
  8
0
100
AcDbBlockEnd
  0
BLOCK
  5
4AB
330
4AA
100
AcDbEntity
  8
0
100
AcDbBlockBegin
  2
KOZU0025
 70
     0
 10
0.0
 20
0.0
 30
0.0
  3
KOZU0025
  1

  0
POLYLINE
  5
D4
330
4AA
100
AcDbEntity
  8
0
  6
Continuous
 62
     7
100
AcDb2dPolyline
 66
     1
 10
0.0
 20
0.0
 30
0.0
 70
     1
 40
0.4000000100000002
 41
0.4000000100000002
  0
VERTEX
  5
39E
330
D4
100
AcDbEntity
  8
0
  6
Continuous
 62
     7
100
AcDbVertex
100
AcDb2dVertex
 10
-0.2
 20
0.0
 30
0.0
 42
1.0
  0
VERTEX
  5
39F
330
D4
100
AcDbEntity
  8
0
  6
Continuous
 62
     7
100
AcDbVertex
100
AcDb2dVertex
 10
0.2
 20
0.0
 30
0.0
 42
1.0
  0
SEQEND
  5
3A0
330
D4
100
AcDbEntity
  8
0
  6
Continuous
 62
     7
  0
ENDBLK
  5
D8
330
4AA
100
AcDbEntity
  8
0
100
AcDbBlockEnd
  0
BLOCK
  5
4AD
330
4AC
100
AcDbEntity
  8
0
100
AcDbBlockBegin
  2
KOZU0026
 70
     0
 10
0.0
 20
0.0
 30
0.0
  3
KOZU0026
  1

  0
POLYLINE
  5
DB
330
4AC
100
AcDbEntity
  8
0
  6
Continuous
 62
     7
100
AcDb2dPolyline
 66
     1
 10
0.0
 20
0.0
 30
0.0
 70
     1
 40
0.4000000100000002
 41
0.4000000100000002
  0
VERTEX
  5
3A1
330
DB
100
AcDbEntity
  8
0
  6
Continuous
 62
     7
100
AcDbVertex
100
AcDb2dVertex
 10
-0.2
 20
0.0
 30
0.0
 42
1.0
  0
VERTEX
  5
3A2
330
DB
100
AcDbEntity
  8
0
  6
Continuous
 62
     7
100
AcDbVertex
100
AcDb2dVertex
 10
0.2
 20
0.0
 30
0.0
 42
1.0
  0
SEQEND
  5
3A3
330
DB
100
AcDbEntity
  8
0
  6
Continuous
 62
     7
  0
ENDBLK
  5
DF
330
4AC
100
AcDbEntity
  8
0
100
AcDbBlockEnd
  0
BLOCK
  5
4AF
330
4AE
100
AcDbEntity
  8
0
100
AcDbBlockBegin
  2
KOZU0027
 70
     0
 10
0.0
 20
0.0
 30
0.0
  3
KOZU0027
  1

  0
POLYLINE
  5
E2
330
4AE
100
AcDbEntity
  8
0
  6
Continuous
 62
     7
100
AcDb2dPolyline
 66
     1
 10
0.0
 20
0.0
 30
0.0
 70
     1
 40
0.4000000100000002
 41
0.4000000100000002
  0
VERTEX
  5
3A4
330
E2
100
AcDbEntity
  8
0
  6
Continuous
 62
     7
100
AcDbVertex
100
AcDb2dVertex
 10
-0.2
 20
0.0
 30
0.0
 42
1.0
  0
VERTEX
  5
3A5
330
E2
100
AcDbEntity
  8
0
  6
Continuous
 62
     7
100
AcDbVertex
100
AcDb2dVertex
 10
0.2
 20
0.0
 30
0.0
 42
1.0
  0
SEQEND
  5
3A6
330
E2
100
AcDbEntity
  8
0
  6
Continuous
 62
     7
  0
ENDBLK
  5
E6
330
4AE
100
AcDbEntity
  8
0
100
AcDbBlockEnd
  0
BLOCK
  5
4B1
330
4B0
100
AcDbEntity
  8
0
100
AcDbBlockBegin
  2
KOZU0028
 70
     0
 10
0.0
 20
0.0
 30
0.0
  3
KOZU0028
  1

  0
POLYLINE
  5
E9
330
4B0
100
AcDbEntity
  8
0
  6
Continuous
 62
     7
100
AcDb2dPolyline
 66
     1
 10
0.0
 20
0.0
 30
0.0
 70
     1
 40
0.4000000100000002
 41
0.4000000100000002
  0
VERTEX
  5
3A7
330
E9
100
AcDbEntity
  8
0
  6
Continuous
 62
     7
100
AcDbVertex
100
AcDb2dVertex
 10
-0.2
 20
0.0
 30
0.0
 42
1.0
  0
VERTEX
  5
3A8
330
E9
100
AcDbEntity
  8
0
  6
Continuous
 62
     7
100
AcDbVertex
100
AcDb2dVertex
 10
0.2
 20
0.0
 30
0.0
 42
1.0
  0
SEQEND
  5
3A9
330
E9
100
AcDbEntity
  8
0
  6
Continuous
 62
     7
  0
ENDBLK
  5
ED
330
4B0
100
AcDbEntity
  8
0
100
AcDbBlockEnd
  0
BLOCK
  5
4B3
330
4B2
100
AcDbEntity
  8
0
100
AcDbBlockBegin
  2
KOZU0029
 70
     0
 10
0.0
 20
0.0
 30
0.0
  3
KOZU0029
  1

  0
POLYLINE
  5
F0
330
4B2
100
AcDbEntity
  8
0
  6
Continuous
 62
     7
100
AcDb2dPolyline
 66
     1
 10
0.0
 20
0.0
 30
0.0
 70
     1
 40
0.4000000100000002
 41
0.4000000100000002
  0
VERTEX
  5
3AA
330
F0
100
AcDbEntity
  8
0
  6
Continuous
 62
     7
100
AcDbVertex
100
AcDb2dVertex
 10
-0.2
 20
0.0
 30
0.0
 42
1.0
  0
VERTEX
  5
3AB
330
F0
100
AcDbEntity
  8
0
  6
Continuous
 62
     7
100
AcDbVertex
100
AcDb2dVertex
 10
0.2
 20
0.0
 30
0.0
 42
1.0
  0
SEQEND
  5
3AC
330
F0
100
AcDbEntity
  8
0
  6
Continuous
 62
     7
  0
ENDBLK
  5
F4
330
4B2
100
AcDbEntity
  8
0
100
AcDbBlockEnd
  0
BLOCK
  5
4B5
330
4B4
100
AcDbEntity
  8
0
100
AcDbBlockBegin
  2
KOZU0030
 70
     0
 10
0.0
 20
0.0
 30
0.0
  3
KOZU0030
  1

  0
POLYLINE
  5
F7
330
4B4
100
AcDbEntity
  8
0
  6
Continuous
 62
     7
100
AcDb2dPolyline
 66
     1
 10
0.0
 20
0.0
 30
0.0
 70
     1
 40
0.4000000100000002
 41
0.4000000100000002
  0
VERTEX
  5
3AD
330
F7
100
AcDbEntity
  8
0
  6
Continuous
 62
     7
100
AcDbVertex
100
AcDb2dVertex
 10
-0.2
 20
0.0
 30
0.0
 42
1.0
  0
VERTEX
  5
3AE
330
F7
100
AcDbEntity
  8
0
  6
Continuous
 62
     7
100
AcDbVertex
100
AcDb2dVertex
 10
0.2
 20
0.0
 30
0.0
 42
1.0
  0
SEQEND
  5
3AF
330
F7
100
AcDbEntity
  8
0
  6
Continuous
 62
     7
  0
ENDBLK
  5
FB
330
4B4
100
AcDbEntity
  8
0
100
AcDbBlockEnd
  0
BLOCK
  5
4B7
330
4B6
100
AcDbEntity
  8
0
100
AcDbBlockBegin
  2
KOZU0031
 70
     0
 10
0.0
 20
0.0
 30
0.0
  3
KOZU0031
  1

  0
POLYLINE
  5
FE
330
4B6
100
AcDbEntity
  8
0
  6
Continuous
 62
     7
100
AcDb2dPolyline
 66
     1
 10
0.0
 20
0.0
 30
0.0
 70
     1
 40
0.4000000100000002
 41
0.4000000100000002
  0
VERTEX
  5
3B0
330
FE
100
AcDbEntity
  8
0
  6
Continuous
 62
     7
100
AcDbVertex
100
AcDb2dVertex
 10
-0.2
 20
0.0
 30
0.0
 42
1.0
  0
VERTEX
  5
3B1
330
FE
100
AcDbEntity
  8
0
  6
Continuous
 62
     7
100
AcDbVertex
100
AcDb2dVertex
 10
0.2
 20
0.0
 30
0.0
 42
1.0
  0
SEQEND
  5
3B2
330
FE
100
AcDbEntity
  8
0
  6
Continuous
 62
     7
  0
ENDBLK
  5
102
330
4B6
100
AcDbEntity
  8
0
100
AcDbBlockEnd
  0
BLOCK
  5
4B9
330
4B8
100
AcDbEntity
  8
0
100
AcDbBlockBegin
  2
KOZU0032
 70
     0
 10
0.0
 20
0.0
 30
0.0
  3
KOZU0032
  1

  0
POLYLINE
  5
105
330
4B8
100
AcDbEntity
  8
0
  6
Continuous
 62
     7
100
AcDb2dPolyline
 66
     1
 10
0.0
 20
0.0
 30
0.0
 70
     1
 40
0.4000000100000002
 41
0.4000000100000002
  0
VERTEX
  5
3B3
330
105
100
AcDbEntity
  8
0
  6
Continuous
 62
     7
100
AcDbVertex
100
AcDb2dVertex
 10
-0.2
 20
0.0
 30
0.0
 42
1.0
  0
VERTEX
  5
3B4
330
105
100
AcDbEntity
  8
0
  6
Continuous
 62
     7
100
AcDbVertex
100
AcDb2dVertex
 10
0.2
 20
0.0
 30
0.0
 42
1.0
  0
SEQEND
  5
3B5
330
105
100
AcDbEntity
  8
0
  6
Continuous
 62
     7
  0
ENDBLK
  5
109
330
4B8
100
AcDbEntity
  8
0
100
AcDbBlockEnd
  0
BLOCK
  5
4BB
330
4BA
100
AcDbEntity
  8
0
100
AcDbBlockBegin
  2
KOZU0033
 70
     0
 10
0.0
 20
0.0
 30
0.0
  3
KOZU0033
  1

  0
POLYLINE
  5
10C
330
4BA
100
AcDbEntity
  8
0
  6
Continuous
 62
     7
100
AcDb2dPolyline
 66
     1
 10
0.0
 20
0.0
 30
0.0
 70
     1
 40
0.4000000100000002
 41
0.4000000100000002
  0
VERTEX
  5
3B6
330
10C
100
AcDbEntity
  8
0
  6
Continuous
 62
     7
100
AcDbVertex
100
AcDb2dVertex
 10
-0.2
 20
0.0
 30
0.0
 42
1.0
  0
VERTEX
  5
3B7
330
10C
100
AcDbEntity
  8
0
  6
Continuous
 62
     7
100
AcDbVertex
100
AcDb2dVertex
 10
0.2
 20
0.0
 30
0.0
 42
1.0
  0
SEQEND
  5
3B8
330
10C
100
AcDbEntity
  8
0
  6
Continuous
 62
     7
  0
ENDBLK
  5
110
330
4BA
100
AcDbEntity
  8
0
100
AcDbBlockEnd
  0
BLOCK
  5
4BD
330
4BC
100
AcDbEntity
  8
0
100
AcDbBlockBegin
  2
KOZU0034
 70
     0
 10
0.0
 20
0.0
 30
0.0
  3
KOZU0034
  1

  0
POLYLINE
  5
113
330
4BC
100
AcDbEntity
  8
0
  6
Continuous
 62
     7
100
AcDb2dPolyline
 66
     1
 10
0.0
 20
0.0
 30
0.0
 70
     1
 40
0.4000000100000002
 41
0.4000000100000002
  0
VERTEX
  5
3B9
330
113
100
AcDbEntity
  8
0
  6
Continuous
 62
     7
100
AcDbVertex
100
AcDb2dVertex
 10
-0.2
 20
0.0
 30
0.0
 42
1.0
  0
VERTEX
  5
3BA
330
113
100
AcDbEntity
  8
0
  6
Continuous
 62
     7
100
AcDbVertex
100
AcDb2dVertex
 10
0.2
 20
0.0
 30
0.0
 42
1.0
  0
SEQEND
  5
3BB
330
113
100
AcDbEntity
  8
0
  6
Continuous
 62
     7
  0
ENDBLK
  5
117
330
4BC
100
AcDbEntity
  8
0
100
AcDbBlockEnd
  0
BLOCK
  5
4BF
330
4BE
100
AcDbEntity
  8
0
100
AcDbBlockBegin
  2
KOZU0035
 70
     0
 10
0.0
 20
0.0
 30
0.0
  3
KOZU0035
  1

  0
POLYLINE
  5
11A
330
4BE
100
AcDbEntity
  8
0
  6
Continuous
 62
     7
100
AcDb2dPolyline
 66
     1
 10
0.0
 20
0.0
 30
0.0
 70
     1
 40
0.4000000100000002
 41
0.4000000100000002
  0
VERTEX
  5
3BC
330
11A
100
AcDbEntity
  8
0
  6
Continuous
 62
     7
100
AcDbVertex
100
AcDb2dVertex
 10
-0.2
 20
0.0
 30
0.0
 42
1.0
  0
VERTEX
  5
3BD
330
11A
100
AcDbEntity
  8
0
  6
Continuous
 62
     7
100
AcDbVertex
100
AcDb2dVertex
 10
0.2
 20
0.0
 30
0.0
 42
1.0
  0
SEQEND
  5
3BE
330
11A
100
AcDbEntity
  8
0
  6
Continuous
 62
     7
  0
ENDBLK
  5
11E
330
4BE
100
AcDbEntity
  8
0
100
AcDbBlockEnd
  0
BLOCK
  5
4C1
330
4C0
100
AcDbEntity
  8
0
100
AcDbBlockBegin
  2
KOZU0036
 70
     0
 10
0.0
 20
0.0
 30
0.0
  3
KOZU0036
  1

  0
POLYLINE
  5
121
330
4C0
100
AcDbEntity
  8
0
  6
Continuous
 62
     7
100
AcDb2dPolyline
 66
     1
 10
0.0
 20
0.0
 30
0.0
 70
     1
 40
0.4000000100000002
 41
0.4000000100000002
  0
VERTEX
  5
3BF
330
121
100
AcDbEntity
  8
0
  6
Continuous
 62
     7
100
AcDbVertex
100
AcDb2dVertex
 10
-0.2
 20
0.0
 30
0.0
 42
1.0
  0
VERTEX
  5
3C0
330
121
100
AcDbEntity
  8
0
  6
Continuous
 62
     7
100
AcDbVertex
100
AcDb2dVertex
 10
0.2
 20
0.0
 30
0.0
 42
1.0
  0
SEQEND
  5
3C1
330
121
100
AcDbEntity
  8
0
  6
Continuous
 62
     7
  0
ENDBLK
  5
125
330
4C0
100
AcDbEntity
  8
0
100
AcDbBlockEnd
  0
BLOCK
  5
4C3
330
4C2
100
AcDbEntity
  8
0
100
AcDbBlockBegin
  2
KOZU0037
 70
     0
 10
0.0
 20
0.0
 30
0.0
  3
KOZU0037
  1

  0
POLYLINE
  5
128
330
4C2
100
AcDbEntity
  8
0
  6
Continuous
 62
     7
100
AcDb2dPolyline
 66
     1
 10
0.0
 20
0.0
 30
0.0
 70
     1
 40
0.4000000100000002
 41
0.4000000100000002
  0
VERTEX
  5
3C2
330
128
100
AcDbEntity
  8
0
  6
Continuous
 62
     7
100
AcDbVertex
100
AcDb2dVertex
 10
-0.2
 20
0.0
 30
0.0
 42
1.0
  0
VERTEX
  5
3C3
330
128
100
AcDbEntity
  8
0
  6
Continuous
 62
     7
100
AcDbVertex
100
AcDb2dVertex
 10
0.2
 20
0.0
 30
0.0
 42
1.0
  0
SEQEND
  5
3C4
330
128
100
AcDbEntity
  8
0
  6
Continuous
 62
     7
  0
ENDBLK
  5
12C
330
4C2
100
AcDbEntity
  8
0
100
AcDbBlockEnd
  0
BLOCK
  5
4C5
330
4C4
100
AcDbEntity
  8
0
100
AcDbBlockBegin
  2
KOZU0038
 70
     0
 10
0.0
 20
0.0
 30
0.0
  3
KOZU0038
  1

  0
POLYLINE
  5
12F
330
4C4
100
AcDbEntity
  8
0
  6
Continuous
 62
     7
100
AcDb2dPolyline
 66
     1
 10
0.0
 20
0.0
 30
0.0
 70
     1
 40
0.4000000100000002
 41
0.4000000100000002
  0
VERTEX
  5
3C5
330
12F
100
AcDbEntity
  8
0
  6
Continuous
 62
     7
100
AcDbVertex
100
AcDb2dVertex
 10
-0.2
 20
0.0
 30
0.0
 42
1.0
  0
VERTEX
  5
3C6
330
12F
100
AcDbEntity
  8
0
  6
Continuous
 62
     7
100
AcDbVertex
100
AcDb2dVertex
 10
0.2
 20
0.0
 30
0.0
 42
1.0
  0
SEQEND
  5
3C7
330
12F
100
AcDbEntity
  8
0
  6
Continuous
 62
     7
  0
ENDBLK
  5
133
330
4C4
100
AcDbEntity
  8
0
100
AcDbBlockEnd
  0
BLOCK
  5
4C7
330
4C6
100
AcDbEntity
  8
0
100
AcDbBlockBegin
  2
KOZU0039
 70
     0
 10
0.0
 20
0.0
 30
0.0
  3
KOZU0039
  1

  0
POLYLINE
  5
136
330
4C6
100
AcDbEntity
  8
0
  6
Continuous
 62
     7
100
AcDb2dPolyline
 66
     1
 10
0.0
 20
0.0
 30
0.0
 70
     1
 40
0.4000000100000002
 41
0.4000000100000002
  0
VERTEX
  5
3C8
330
136
100
AcDbEntity
  8
0
  6
Continuous
 62
     7
100
AcDbVertex
100
AcDb2dVertex
 10
-0.2
 20
0.0
 30
0.0
 42
1.0
  0
VERTEX
  5
3C9
330
136
100
AcDbEntity
  8
0
  6
Continuous
 62
     7
100
AcDbVertex
100
AcDb2dVertex
 10
0.2
 20
0.0
 30
0.0
 42
1.0
  0
SEQEND
  5
3CA
330
136
100
AcDbEntity
  8
0
  6
Continuous
 62
     7
  0
ENDBLK
  5
13A
330
4C6
100
AcDbEntity
  8
0
100
AcDbBlockEnd
  0
BLOCK
  5
4C9
330
4C8
100
AcDbEntity
  8
0
100
AcDbBlockBegin
  2
KOZU0040
 70
     0
 10
0.0
 20
0.0
 30
0.0
  3
KOZU0040
  1

  0
POLYLINE
  5
13D
330
4C8
100
AcDbEntity
  8
0
  6
Continuous
 62
     7
100
AcDb2dPolyline
 66
     1
 10
0.0
 20
0.0
 30
0.0
 70
     1
 40
0.4000000100000002
 41
0.4000000100000002
  0
VERTEX
  5
3CB
330
13D
100
AcDbEntity
  8
0
  6
Continuous
 62
     7
100
AcDbVertex
100
AcDb2dVertex
 10
-0.2
 20
0.0
 30
0.0
 42
1.0
  0
VERTEX
  5
3CC
330
13D
100
AcDbEntity
  8
0
  6
Continuous
 62
     7
100
AcDbVertex
100
AcDb2dVertex
 10
0.2
 20
0.0
 30
0.0
 42
1.0
  0
SEQEND
  5
3CD
330
13D
100
AcDbEntity
  8
0
  6
Continuous
 62
     7
  0
ENDBLK
  5
141
330
4C8
100
AcDbEntity
  8
0
100
AcDbBlockEnd
  0
BLOCK
  5
4CB
330
4CA
100
AcDbEntity
  8
0
100
AcDbBlockBegin
  2
KOZU0041
 70
     0
 10
0.0
 20
0.0
 30
0.0
  3
KOZU0041
  1

  0
POLYLINE
  5
144
330
4CA
100
AcDbEntity
  8
0
  6
Continuous
 62
     7
100
AcDb2dPolyline
 66
     1
 10
0.0
 20
0.0
 30
0.0
 70
     1
 40
0.4000000100000002
 41
0.4000000100000002
  0
VERTEX
  5
3CE
330
144
100
AcDbEntity
  8
0
  6
Continuous
 62
     7
100
AcDbVertex
100
AcDb2dVertex
 10
-0.2
 20
0.0
 30
0.0
 42
1.0
  0
VERTEX
  5
3CF
330
144
100
AcDbEntity
  8
0
  6
Continuous
 62
     7
100
AcDbVertex
100
AcDb2dVertex
 10
0.2
 20
0.0
 30
0.0
 42
1.0
  0
SEQEND
  5
3D0
330
144
100
AcDbEntity
  8
0
  6
Continuous
 62
     7
  0
ENDBLK
  5
148
330
4CA
100
AcDbEntity
  8
0
100
AcDbBlockEnd
  0
BLOCK
  5
4CD
330
4CC
100
AcDbEntity
  8
0
100
AcDbBlockBegin
  2
KOZU0042
 70
     0
 10
0.0
 20
0.0
 30
0.0
  3
KOZU0042
  1

  0
POLYLINE
  5
14B
330
4CC
100
AcDbEntity
  8
0
  6
Continuous
 62
     7
100
AcDb2dPolyline
 66
     1
 10
0.0
 20
0.0
 30
0.0
 70
     1
 40
0.4000000100000002
 41
0.4000000100000002
  0
VERTEX
  5
3D1
330
14B
100
AcDbEntity
  8
0
  6
Continuous
 62
     7
100
AcDbVertex
100
AcDb2dVertex
 10
-0.2
 20
0.0
 30
0.0
 42
1.0
  0
VERTEX
  5
3D2
330
14B
100
AcDbEntity
  8
0
  6
Continuous
 62
     7
100
AcDbVertex
100
AcDb2dVertex
 10
0.2
 20
0.0
 30
0.0
 42
1.0
  0
SEQEND
  5
3D3
330
14B
100
AcDbEntity
  8
0
  6
Continuous
 62
     7
  0
ENDBLK
  5
14F
330
4CC
100
AcDbEntity
  8
0
100
AcDbBlockEnd
  0
BLOCK
  5
564
330
562
100
AcDbEntity
  8
0
100
AcDbBlockBegin
  2
GENAXEH
 70
     0
 10
0.0
 20
0.0
 30
0.0
  3
GENAXEH
  1

  0
LINE
  5
563
330
562
100
AcDbEntity
  8
0
100
AcDbLine
 10
-1.0
 20
0.0
 30
0.0
 11
1.0
 21
0.0
 31
0.0
  0
ENDBLK
  5
565
330
562
100
AcDbEntity
  8
0
100
AcDbBlockEnd
  0
ENDSEC
  0
SECTION
  2
ENTITIES
  0
POINT
  5
151
330
469
100
AcDbEntity
  8
0
  6
Continuous
 62
     7
100
AcDbPoint
 10
551.7594
 20
310.51636
 30
0.0
  0
POINT
  5
152
330
469
100
AcDbEntity
  8
0
  6
Continuous
 62
     3
100
AcDbPoint
 10
660.8771400000001
 20
496.14545
 30
0.0
  0
POINT
  5
153
330
469
100
AcDbEntity
  8
0
  6
Continuous
 62
     3
100
AcDbPoint
 10
656.8771400000001
 20
496.14545
 30
0.0
  0
POINT
  5
154
330
469
100
AcDbEntity
  8
0
  6
Continuous
 62
     3
100
AcDbPoint
 10
656.8771400000001
 20
510.14545
 30
0.0
  0
POINT
  5
155
330
469
100
AcDbEntity
  8
0
  6
Continuous
 62
     3
100
AcDbPoint
 10
656.8771400000001
 20
496.14545
 30
0.0
  0
POINT
  5
156
330
469
100
AcDbEntity
  8
0
  6
Continuous
 62
     3
100
AcDbPoint
 10
706.8771400000001
 20
491.61804
 30
0.0
  0
POINT
  5
157
330
469
100
AcDbEntity
  8
0
  6
Continuous
 62
     3
100
AcDbPoint
 10
706.8771400000001
 20
520.63269
 30
0.0
  0
POINT
  5
158
330
469
100
AcDbEntity
  8
0
  6
Continuous
 62
     3
100
AcDbPoint
 10
575.18677
 20
440.7761799999998
 30
0.0
  0
POINT
  5
159
330
469
100
AcDbEntity
  8
0
  6
Continuous
 62
     3
100
AcDbPoint
 10
620.18677
 20
440.7761799999998
 30
0.0
  0
POINT
  5
15A
330
469
100
AcDbEntity
  8
0
  6
Continuous
 62
     3
100
AcDbPoint
 10
620.18677
 20
488.7761799999998
 30
0.0
  0
POINT
  5
15B
330
469
100
AcDbEntity
  8
0
  6
Continuous
 62
     3
100
AcDbPoint
 10
591.18677
 20
450.7761799999998
 30
0.0
  0
POINT
  5
15C
330
469
100
AcDbEntity
  8
0
  6
Continuous
 62
     3
100
AcDbPoint
 10
604.18677
 20
450.7761799999998
 30
0.0
  0
POINT
  5
15D
330
469
100
AcDbEntity
  8
0
  6
Continuous
 62
     3
100
AcDbPoint
 10
604.18677
 20
460.7761799999998
 30
0.0
  0
POINT
  5
15E
330
469
100
AcDbEntity
  8
0
  6
Continuous
 62
     3
100
AcDbPoint
 10
556.9367699999998
 20
478.7761799999998
 30
0.0
  0
POINT
  5
15F
330
469
100
AcDbEntity
  8
0
  6
Continuous
 62
     3
100
AcDbPoint
 10
566.93677
 20
478.7761799999998
 30
0.0
  0
POINT
  5
160
330
469
100
AcDbEntity
  8
0
  6
Continuous
 62
     3
100
AcDbPoint
 10
566.93677
 20
488.7761799999998
 30
0.0
  0
POINT
  5
161
330
469
100
AcDbEntity
  8
0
  6
Continuous
 62
     3
100
AcDbPoint
 10
620.18677
 20
440.7761799999998
 30
0.0
  0
POINT
  5
162
330
469
100
AcDbEntity
  8
0
  6
Continuous
 62
     3
100
AcDbPoint
 10
620.18677
 20
428.7761799999998
 30
0.0
  0
POINT
  5
163
330
469
100
AcDbEntity
  8
0
  6
Continuous
 62
     3
100
AcDbPoint
 10
635.18677
 20
428.7761799999998
 30
0.0
  0
POINT
  5
164
330
469
100
AcDbEntity
  8
0
  6
Continuous
 62
     3
100
AcDbPoint
 10
620.18677
 20
428.7761799999998
 30
0.0
  0
POINT
  5
165
330
469
100
AcDbEntity
  8
0
  6
Continuous
 62
     3
100
AcDbPoint
 10
612.68677
 20
398.7761799999999
 30
0.0
  0
POINT
  5
166
330
469
100
AcDbEntity
  8
0
  6
Continuous
 62
     3
100
AcDbPoint
 10
635.18677
 20
398.7761799999999
 30
0.0
  0
POINT
  5
167
330
469
100
AcDbEntity
  8
0
  6
Continuous
 62
     3
100
AcDbPoint
 10
604.18677
 20
450.7761799999998
 30
0.0
  0
POINT
  5
168
330
469
100
AcDbEntity
  8
0
  6
Continuous
 62
     3
100
AcDbPoint
 10
620.18677
 20
440.7761799999998
 30
0.0
  0
POINT
  5
169
330
469
100
AcDbEntity
  8
0
  6
Continuous
 62
     3
100
AcDbPoint
 10
645.18677
 20
440.7761799999998
 30
0.0
  0
POINT
  5
16A
330
469
100
AcDbEntity
  8
0
  6
Continuous
 62
     3
100
AcDbPoint
 10
620.18677
 20
440.7761799999998
 30
0.0
  0
POINT
  5
16B
330
469
100
AcDbEntity
  8
0
  6
Continuous
 62
     3
100
AcDbPoint
 10
612.68677
 20
398.7761799999999
 30
0.0
  0
POINT
  5
16C
330
469
100
AcDbEntity
  8
0
  6
Continuous
 62
     3
100
AcDbPoint
 10
645.18677
 20
398.7761799999999
 30
0.0
  0
POINT
  5
16D
330
469
100
AcDbEntity
  8
0
  6
Continuous
 62
     3
100
AcDbPoint
 10
612.68677
 20
398.7761799999999
 30
0.0
  0
POINT
  5
16E
330
469
100
AcDbEntity
  8
0
  6
Continuous
 62
     3
100
AcDbPoint
 10
598.18677
 20
358.7761799999999
 30
0.0
  0
POINT
  5
16F
330
469
100
AcDbEntity
  8
0
  6
Continuous
 62
     3
100
AcDbPoint
 10
645.18677
 20
358.7761799999999
 30
0.0
  0
POINT
  5
170
330
469
100
AcDbEntity
  8
0
  6
Continuous
 62
     3
100
AcDbPoint
 10
582.68677
 20
398.7761799999999
 30
0.0
  0
POINT
  5
171
330
469
100
AcDbEntity
  8
0
  6
Continuous
 62
     3
100
AcDbPoint
 10
612.68677
 20
398.7761799999999
 30
0.0
  0
POINT
  5
172
330
469
100
AcDbEntity
  8
0
  6
Continuous
 62
     3
100
AcDbPoint
 10
612.68677
 20
333.7761799999999
 30
0.0
  0
POINT
  5
173
330
469
100
AcDbEntity
  8
0
  6
Continuous
 62
     3
100
AcDbPoint
 10
556.9367699999998
 20
476.7761799999998
 30
0.0
  0
POINT
  5
174
330
469
100
AcDbEntity
  8
0
  6
Continuous
 62
     3
100
AcDbPoint
 10
553.93677
 20
442.7761799999998
 30
0.0
  0
POINT
  5
175
330
469
100
AcDbEntity
  8
0
  6
Continuous
 62
     3
100
AcDbPoint
 10
546.93677
 20
442.7761799999998
 30
0.0
  0
POINT
  5
176
330
469
100
AcDbEntity
  8
0
  6
Continuous
 62
     3
100
AcDbPoint
 10
553.93677
 20
442.7761799999998
 30
0.0
  0
POINT
  5
177
330
469
100
AcDbEntity
  8
0
  6
Continuous
 62
     3
100
AcDbPoint
 10
556.9367699999998
 20
415.7761799999998
 30
0.0
  0
POINT
  5
178
330
469
100
AcDbEntity
  8
0
  6
Continuous
 62
     3
100
AcDbPoint
 10
546.93677
 20
415.7761799999998
 30
0.0
  0
POINT
  5
179
330
469
100
AcDbEntity
  8
0
  6
Continuous
 62
     3
100
AcDbPoint
 10
556.9367699999998
 20
476.7761799999998
 30
0.0
  0
POINT
  5
17A
330
469
100
AcDbEntity
  8
0
  6
Continuous
 62
     3
100
AcDbPoint
 10
556.9367699999998
 20
415.7761799999998
 30
0.0
  0
POINT
  5
17B
330
469
100
AcDbEntity
  8
0
  6
Continuous
 62
     3
100
AcDbPoint
 10
536.93677
 20
415.7761799999998
 30
0.0
  0
POINT
  5
17C
330
469
100
AcDbEntity
  8
0
  6
Continuous
 62
     3
100
AcDbPoint
 10
556.9367699999998
 20
415.7761799999998
 30
0.0
  0
POINT
  5
17D
330
469
100
AcDbEntity
  8
0
  6
Continuous
 62
     3
100
AcDbPoint
 10
582.68677
 20
398.7761799999999
 30
0.0
  0
POINT
  5
17E
330
469
100
AcDbEntity
  8
0
  6
Continuous
 62
     3
100
AcDbPoint
 10
546.93677
 20
398.7761799999999
 30
0.0
  0
POINT
  5
17F
330
469
100
AcDbEntity
  8
0
  6
Continuous
 62
     3
100
AcDbPoint
 10
503.35983
 20
415.7761799999998
 30
0.0
  0
POINT
  5
180
330
469
100
AcDbEntity
  8
0
  6
Continuous
 62
     3
100
AcDbPoint
 10
506.6511799999998
 20
422.7761799999998
 30
0.0
  0
POINT
  5
181
330
469
100
AcDbEntity
  8
0
  6
Continuous
 62
     3
100
AcDbPoint
 10
526.4011799999998
 20
422.7761799999998
 30
0.0
  0
POINT
  5
182
330
469
100
AcDbEntity
  8
0
  6
Continuous
 62
     3
100
AcDbPoint
 10
506.6511799999998
 20
422.7761799999998
 30
0.0
  0
POINT
  5
183
330
469
100
AcDbEntity
  8
0
  6
Continuous
 62
     3
100
AcDbPoint
 10
506.6511799999998
 20
452.7761799999998
 30
0.0
  0
POINT
  5
184
330
469
100
AcDbEntity
  8
0
  6
Continuous
 62
     3
100
AcDbPoint
 10
526.4011799999998
 20
452.7761799999998
 30
0.0
  0
POINT
  5
185
330
469
100
AcDbEntity
  8
0
  6
Continuous
 62
     3
100
AcDbPoint
 10
503.35983
 20
476.7761799999998
 30
0.0
  0
POINT
  5
186
330
469
100
AcDbEntity
  8
0
  6
Continuous
 62
     3
100
AcDbPoint
 10
506.6511799999998
 20
452.7761799999998
 30
0.0
  0
POINT
  5
187
330
469
100
AcDbEntity
  8
0
  6
Continuous
 62
     3
100
AcDbPoint
 10
526.4011799999998
 20
452.7761799999998
 30
0.0
  0
POINT
  5
188
330
469
100
AcDbEntity
  8
0
  6
Continuous
 62
     3
100
AcDbPoint
 10
511.4011799999998
 20
423.8669999999998
 30
0.0
  0
POINT
  5
189
330
469
100
AcDbEntity
  8
0
  6
Continuous
 62
     3
100
AcDbPoint
 10
487.4011799999998
 20
423.8669999999998
 30
0.0
  0
POINT
  5
18A
330
469
100
AcDbEntity
  8
0
  6
Continuous
 62
     3
100
AcDbPoint
 10
487.4011799999998
 20
400.7761799999998
 30
0.0
  0
POINT
  5
18B
330
469
100
AcDbEntity
  8
0
  6
Continuous
 62
     3
100
AcDbPoint
 10
592.68677
 20
370.12616
 30
0.0
  0
POINT
  5
18C
330
469
100
AcDbEntity
  8
0
  6
Continuous
 62
     3
100
AcDbPoint
 10
602.68677
 20
370.12616
 30
0.0
  0
POINT
  5
18D
330
469
100
AcDbEntity
  8
0
  6
Continuous
 62
     3
100
AcDbPoint
 10
602.68677
 20
343.7761799999998
 30
0.0
  0
POINT
  5
18E
330
469
100
AcDbEntity
  8
0
  6
Continuous
 62
     3
100
AcDbPoint
 10
496.59839
 20
419.5813599999998
 30
0.0
  0
POINT
  5
18F
330
469
100
AcDbEntity
  8
0
  6
Continuous
 62
     3
100
AcDbPoint
 10
502.2039499999998
 20
425.9710099999998
 30
0.0
  0
LINE
  5
190
330
469
100
AcDbEntity
  8
0
  6
Continuous
 62
     7
100
AcDbLine
 10
344.6839299999999
 20
289.13989
 30
0.0
 11
764.6838999999999
 21
289.13989
 31
0.0
  0
LINE
  5
191
330
469
100
AcDbEntity
  8
0
  6
Continuous
 62
     7
100
AcDbLine
 10
344.6839299999999
 20
586.13989
 30
0.0
 11
344.6839299999999
 21
289.13989
 31
0.0
  0
LINE
  5
192
330
469
100
AcDbEntity
  8
0
  6
Continuous
 62
     7
100
AcDbLine
 10
745.1838999999998
 20
301.1398899999999
 30
0.0
 11
745.1838999999998
 21
574.13989
 31
0.0
  0
LINE
  5
193
330
469
100
AcDbEntity
  8
0
  6
Continuous
 62
     7
100
AcDbLine
 10
364.18393
 20
478.13989
 30
0.0
 11
364.18393
 21
301.8898899999999
 31
0.0
  0
LINE
  5
194
330
469
100
AcDbEntity
  8
0
  6
Continuous
 62
     7
100
AcDbLine
 10
745.1838999999998
 20
574.13989
 30
0.0
 11
474.1839299999998
 21
574.13989
 31
0.0
  0
LINE
  5
195
330
469
100
AcDbEntity
  8
0
  6
Continuous
 62
     7
100
AcDbLine
 10
364.18393
 20
301.1398899999999
 30
0.0
 11
745.1838999999998
 21
301.1398899999999
 31
0.0
  0
LINE
  5
196
330
469
100
AcDbEntity
  8
0
  6
Continuous
 62
     7
100
AcDbLine
 10
764.6838999999999
 20
586.13989
 30
0.0
 11
764.6838999999999
 21
289.13989
 31
0.0
  0
LINE
  5
197
330
469
100
AcDbEntity
  8
0
  6
Continuous
 62
     7
100
AcDbLine
 10
344.6839299999999
 20
586.13989
 30
0.0
 11
764.6838999999999
 21
586.13989
 31
0.0
  0
LINE
  5
198
330
469
100
AcDbEntity
  8
0
  6
Continuous
 62
     7
100
AcDbLine
 10
364.18393
 20
574.13989
 30
0.0
 11
474.1839299999998
 21
574.13989
 31
0.0
  0
LINE
  5
199
330
469
100
AcDbEntity
  8
0
  6
Continuous
 62
     7
100
AcDbLine
 10
364.18393
 20
574.13989
 30
0.0
 11
364.18393
 21
478.13989
 31
0.0
  0
LINE
  5
19A
330
469
100
AcDbEntity
  8
0
  6
Continuous
 62
     7
100
AcDbLine
 10
384.1839299999999
 20
574.13989
 30
0.0
 11
384.1839299999999
 21
478.13989
 31
0.0
  0
LINE
  5
19B
330
469
100
AcDbEntity
  8
0
  6
Continuous
 62
     7
100
AcDbLine
 10
364.18393
 20
566.13989
 30
0.0
 11
474.1839299999998
 21
566.13989
 31
0.0
  0
LINE
  5
19C
330
469
100
AcDbEntity
  8
0
  6
Continuous
 62
     7
100
AcDbLine
 10
364.18393
 20
558.13989
 30
0.0
 11
474.1839299999998
 21
558.13989
 31
0.0
  0
LINE
  5
19D
330
469
100
AcDbEntity
  8
0
  6
Continuous
 62
     7
100
AcDbLine
 10
364.18393
 20
550.13989
 30
0.0
 11
474.1839299999998
 21
550.13989
 31
0.0
  0
LINE
  5
19E
330
469
100
AcDbEntity
  8
0
  6
Continuous
 62
     7
100
AcDbLine
 10
364.18393
 20
542.13989
 30
0.0
 11
474.1839299999998
 21
542.13989
 31
0.0
  0
LINE
  5
19F
330
469
100
AcDbEntity
  8
0
  6
Continuous
 62
     7
100
AcDbLine
 10
384.1839299999999
 20
518.13989
 30
0.0
 11
474.1839299999998
 21
518.13989
 31
0.0
  0
LINE
  5
1A0
330
469
100
AcDbEntity
  8
0
  6
Continuous
 62
     7
100
AcDbLine
 10
384.1839299999999
 20
510.1398899999998
 30
0.0
 11
474.1839299999998
 21
510.1398899999998
 31
0.0
  0
LINE
  5
1A1
330
469
100
AcDbEntity
  8
0
  6
Continuous
 62
     7
100
AcDbLine
 10
364.18393
 20
502.13989
 30
0.0
 11
474.1839299999998
 21
502.13989
 31
0.0
  0
LINE
  5
1A2
330
469
100
AcDbEntity
  8
0
  6
Continuous
 62
     7
100
AcDbLine
 10
384.1839299999999
 20
494.13989
 30
0.0
 11
474.1839299999998
 21
494.13989
 31
0.0
  0
LINE
  5
1A3
330
469
100
AcDbEntity
  8
0
  6
Continuous
 62
     7
100
AcDbLine
 10
384.1839299999999
 20
486.13989
 30
0.0
 11
474.1839299999998
 21
486.13989
 31
0.0
  0
LINE
  5
1A4
330
469
100
AcDbEntity
  8
0
  6
Continuous
 62
     7
100
AcDbLine
 10
364.18393
 20
478.13989
 30
0.0
 11
474.1839299999998
 21
478.13989
 31
0.0
  0
LINE
  5
1A5
330
469
100
AcDbEntity
  8
0
  6
Continuous
 62
     7
100
AcDbLine
 10
364.18393
 20
574.13989
 30
0.0
 11
364.18393
 21
478.13989
 31
0.0
  0
LINE
  5
1A6
330
469
100
AcDbEntity
  8
0
  6
Continuous
 62
     7
100
AcDbLine
 10
364.18393
 20
574.13989
 30
0.0
 11
474.1839299999998
 21
574.13989
 31
0.0
  0
LINE
  5
1A7
330
469
100
AcDbEntity
  8
0
  6
Continuous
 62
     7
100
AcDbLine
 10
474.1839299999998
 20
574.13989
 30
0.0
 11
474.1839299999998
 21
478.13989
 31
0.0
  0
LINE
  5
1A8
330
469
100
AcDbEntity
  8
0
  6
Continuous
 62
     7
100
AcDbLine
 10
364.18393
 20
534.13989
 30
0.0
 11
474.1839299999998
 21
534.13989
 31
0.0
  0
LINE
  5
1A9
330
469
100
AcDbEntity
  8
0
  6
Continuous
 62
     7
100
AcDbLine
 10
364.18393
 20
526.13989
 30
0.0
 11
474.1839299999998
 21
526.13989
 31
0.0
  0
LINE
  5
1AA
330
469
100
AcDbEntity
  8
0
  6
Continuous
 62
     7
100
AcDbLine
 10
384.1839299999999
 20
518.13989
 30
0.0
 11
474.1839299999998
 21
518.13989
 31
0.0
  0
LINE
  5
1AB
330
469
100
AcDbEntity
  8
0
  6
CENTER
 62
     4
100
AcDbLine
 10
697.6271400000001
 20
488.14545
 30
0.0
 11
671.37006
 21
488.14545
 31
0.0
  0
LINE
  5
1AC
330
469
100
AcDbEntity
  8
0
  6
Continuous
 62
     7
100
AcDbLine
 10
694.8771400000001
 20
496.14545
 30
0.0
 11
669.8771400000001
 21
496.14545
 31
0.0
  0
LINE
  5
1AD
330
469
100
AcDbEntity
  8
0
  6
Continuous
 62
     7
100
AcDbLine
 10
669.8771400000001
 20
480.14545
 30
0.0
 11
694.8771400000001
 21
480.14545
 31
0.0
  0
LINE
  5
1AE
330
469
100
AcDbEntity
  8
0
  6
Continuous
 62
     7
100
AcDbLine
 10
663.8771400000003
 20
500.14545
 30
0.0
 11
694.8771400000001
 21
500.14545
 31
0.0
  0
LINE
  5
1AF
330
469
100
AcDbEntity
  8
0
  6
Continuous
 62
     7
100
AcDbLine
 10
663.8771400000003
 20
476.14545
 30
0.0
 11
694.8771400000001
 21
476.14545
 31
0.0
  0
LINE
  5
1B0
330
469
100
AcDbEntity
  8
0
  6
CENTER
 62
     4
100
AcDbLine
 10
499.40118
 20
479.7761799999998
 30
0.0
 11
499.40118
 21
412.77618
 31
0.0
  0
LINE
  5
1B1
330
469
100
AcDbEntity
  8
0
  6
DASHED
 62
     7
100
AcDbLine
 10
494.90118
 20
466.3669099999999
 30
0.0
 11
494.90118
 21
458.7423099999998
 31
0.0
  0
LINE
  5
1B2
330
469
100
AcDbEntity
  8
0
  6
Continuous
 62
     7
100
AcDbLine
 10
491.9011799999998
 20
444.7761799999998
 30
0.0
 11
491.9011799999998
 21
469.2761799999998
 31
0.0
  0
LINE
  5
1B3
330
469
100
AcDbEntity
  8
0
  6
CENTER
 62
     4
100
AcDbLine
 10
566.93677
 20
450.7761799999998
 30
0.0
 11
594.9992099999998
 21
478.8386499999998
 31
0.0
  0
LINE
  5
1B4
330
469
100
AcDbEntity
  8
0
  6
PHANTOM
 62
     3
100
AcDbLine
 10
570.1338500000002
 20
456.8017
 30
0.0
 11
590.0494999999997
 21
476.71735
 31
0.0
  0
LINE
  5
1B5
330
469
100
AcDbEntity
  8
0
  6
PHANTOM
 62
     3
100
AcDbLine
 10
570.1338500000002
 20
451.1448399999999
 30
0.0
 11
592.87793
 21
473.88892
 31
0.0
  0
LINE
  5
1B6
330
469
100
AcDbEntity
  8
0
  6
Continuous
 62
     7
100
AcDbLine
 10
566.93677
 20
444.7761799999998
 30
0.0
 11
566.93677
 21
474.7761799999998
 31
0.0
  0
LINE
  5
1B7
330
469
100
AcDbEntity
  8
0
  6
Continuous
 62
     7
100
AcDbLine
 10
561.93677
 20
476.7761799999998
 30
0.0
 11
561.93677
 21
444.7761799999998
 31
0.0
  0
LINE
  5
1B8
330
469
100
AcDbEntity
  8
0
  6
CENTER
 62
     4
100
AcDbLine
 10
492.1511799999998
 20
422.7761799999998
 30
0.0
 11
506.6511799999998
 21
422.7761799999998
 31
0.0
  0
LINE
  5
1B9
330
469
100
AcDbEntity
  8
0
  6
Continuous
 62
     7
100
AcDbLine
 10
492.4011799999998
 20
430.7761799999998
 30
0.0
 11
506.4011799999998
 21
430.7761799999998
 31
0.0
  0
LINE
  5
1BA
330
469
100
AcDbEntity
  8
0
  6
Continuous
 62
     7
100
AcDbLine
 10
487.4011799999998
 20
427.7761799999998
 30
0.0
 11
511.4011799999998
 21
427.7761799999998
 31
0.0
  0
LINE
  5
1BB
330
469
100
AcDbEntity
  8
0
  6
Continuous
 62
     7
100
AcDbLine
 10
490.4011799999998
 20
432.7761799999998
 30
0.0
 11
490.4011799999998
 21
435.7761799999998
 31
0.0
  0
LINE
  5
1BC
330
469
100
AcDbEntity
  8
0
  6
Continuous
 62
     7
100
AcDbLine
 10
508.4011799999998
 20
432.7761799999998
 30
0.0
 11
508.4011799999998
 21
435.7761799999998
 31
0.0
  0
LINE
  5
1BD
330
469
100
AcDbEntity
  8
0
  6
CENTER
 62
     4
100
AcDbLine
 10
492.1511799999998
 20
452.7761799999998
 30
0.0
 11
506.6511799999998
 21
452.7761799999998
 31
0.0
  0
LINE
  5
1BE
330
469
100
AcDbEntity
  8
0
  6
Continuous
 62
     7
100
AcDbLine
 10
496.4011799999998
 20
441.77618
 30
0.0
 11
502.4011799999998
 21
441.77618
 31
0.0
  0
LINE
  5
1BF
330
469
100
AcDbEntity
  8
0
  6
Continuous
 62
     7
100
AcDbLine
 10
496.4011799999998
 20
444.7761799999998
 30
0.0
 11
502.4011799999998
 21
444.7761799999998
 31
0.0
  0
LINE
  5
1C0
330
469
100
AcDbEntity
  8
0
  6
Continuous
 62
     7
100
AcDbLine
 10
496.4011799999998
 20
440.7761799999998
 30
0.0
 11
496.4011799999998
 21
441.77618
 31
0.0
  0
LINE
  5
1C1
330
469
100
AcDbEntity
  8
0
  6
Continuous
 62
     7
100
AcDbLine
 10
494.90118
 20
438.2761799999998
 30
0.0
 11
494.90118
 21
440.7761799999998
 31
0.0
  0
LINE
  5
1C2
330
469
100
AcDbEntity
  8
0
  6
Continuous
 62
     7
100
AcDbLine
 10
492.4011799999998
 20
437.77618
 30
0.0
 11
494.4011799999998
 21
437.77618
 31
0.0
  0
LINE
  5
1C3
330
469
100
AcDbEntity
  8
0
  6
DASHED
 62
     7
100
AcDbLine
 10
495.9011799999998
 20
457.7423099999998
 30
0.0
 11
496.4011799999998
 21
457.7423099999998
 31
0.0
  0
LINE
  5
1C4
330
469
100
AcDbEntity
  8
0
  6
Continuous
 62
     7
100
AcDbLine
 10
502.4011799999998
 20
441.77618
 30
0.0
 11
502.4011799999998
 21
440.7761799999998
 31
0.0
  0
LINE
  5
1C5
330
469
100
AcDbEntity
  8
0
  6
Continuous
 62
     7
100
AcDbLine
 10
503.9011799999998
 20
440.7761799999998
 30
0.0
 11
503.9011799999998
 21
438.2761799999998
 31
0.0
  0
LINE
  5
1C6
330
469
100
AcDbEntity
  8
0
  6
Continuous
 62
     7
100
AcDbLine
 10
504.4011799999998
 20
437.77618
 30
0.0
 11
506.4011799999998
 21
437.77618
 31
0.0
  0
LINE
  5
1C7
330
469
100
AcDbEntity
  8
0
  6
PHANTOM
 62
     3
100
AcDbLine
 10
592.68677
 20
398.7761799999999
 30
0.0
 11
592.68677
 21
370.12616
 31
0.0
  0
LINE
  5
1C8
330
469
100
AcDbEntity
  8
0
  6
PHANTOM
 62
     3
100
AcDbLine
 10
602.68677
 20
370.12616
 30
0.0
 11
602.68677
 21
398.7761799999999
 31
0.0
  0
LINE
  5
1C9
330
469
100
AcDbEntity
  8
0
  6
PHANTOM
 62
     3
100
AcDbLine
 10
598.18677
 20
369.7761799999998
 30
0.0
 11
598.18677
 21
374.7761799999998
 31
0.0
  0
LINE
  5
1CA
330
469
100
AcDbEntity
  8
0
  6
PHANTOM
 62
     3
100
AcDbLine
 10
597.18677
 20
374.77621
 30
0.0
 11
597.18677
 21
369.7761799999998
 31
0.0
  0
LINE
  5
1CB
330
469
100
AcDbEntity
  8
0
  6
PHANTOM
 62
     3
100
AcDbLine
 10
590.9842499999997
 20
360.4707899999998
 30
0.0
 11
595.40845
 21
359.69067
 31
0.0
  0
LINE
  5
1CC
330
469
100
AcDbEntity
  8
0
  6
PHANTOM
 62
     3
100
AcDbLine
 10
598.18677
 20
369.7761799999998
 30
0.0
 11
599.96509
 21
359.69067
 31
0.0
  0
LINE
  5
1CD
330
469
100
AcDbEntity
  8
0
  6
PHANTOM
 62
     3
100
AcDbLine
 10
597.18677
 20
369.7761799999998
 30
0.0
 11
595.40845
 21
359.69067
 31
0.0
  0
LINE
  5
1CE
330
469
100
AcDbEntity
  8
0
  6
PHANTOM
 62
     3
100
AcDbLine
 10
599.9651499999997
 20
359.69067
 30
0.0
 11
604.38922
 21
360.4707599999999
 31
0.0
  0
LINE
  5
1CF
330
469
100
AcDbEntity
  8
0
  6
PHANTOM
 62
     3
100
AcDbLine
 10
597.18677
 20
358.7762099999998
 30
0.0
 11
595.40845
 21
359.6906999999998
 31
0.0
  0
LINE
  5
1D0
330
469
100
AcDbEntity
  8
0
  6
PHANTOM
 62
     3
100
AcDbLine
 10
599.96509
 20
359.6906999999998
 30
0.0
 11
598.18677
 21
358.7761799999999
 31
0.0
  0
LINE
  5
1D1
330
469
100
AcDbEntity
  8
0
  6
PHANTOM
 62
     3
100
AcDbLine
 10
598.18677
 20
358.7761799999999
 30
0.0
 11
597.18677
 21
358.7761799999999
 31
0.0
  0
LINE
  5
1D2
330
469
100
AcDbEntity
  8
0
  6
PHANTOM
 62
     3
100
AcDbLine
 10
604.38922
 20
360.4707599999999
 30
0.0
 11
602.68677
 21
370.12616
 31
0.0
  0
LINE
  5
1D3
330
469
100
AcDbEntity
  8
0
  6
PHANTOM
 62
     3
100
AcDbLine
 10
592.68677
 20
370.12613
 30
0.0
 11
590.9842499999997
 21
360.4707599999999
 31
0.0
  0
LINE
  5
1D4
330
469
100
AcDbEntity
  8
0
  6
PHANTOM
 62
     3
100
AcDbLine
 10
598.18677
 20
374.7761799999998
 30
0.0
 11
597.18677
 21
374.7761799999998
 31
0.0
  0
LINE
  5
1D5
330
469
100
AcDbEntity
  8
0
  6
CENTER
 62
     4
100
AcDbLine
 10
553.93677
 20
442.7761799999998
 30
0.0
 11
609.93677
 21
442.7761799999998
 31
0.0
  0
LINE
  5
1D6
330
469
100
AcDbEntity
  8
0
  6
Continuous
 62
     7
100
AcDbLine
 10
602.68677
 20
398.7761799999999
 30
0.0
 11
592.68677
 21
398.7761799999999
 31
0.0
  0
LINE
  5
1D7
330
469
100
AcDbEntity
  8
0
  6
Continuous
 62
     7
100
AcDbLine
 10
556.9367699999998
 20
415.7761799999998
 30
0.0
 11
564.9367699999998
 21
415.7761799999998
 31
0.0
  0
LINE
  5
1D8
330
469
100
AcDbEntity
  8
0
  6
Continuous
 62
     7
100
AcDbLine
 10
561.93677
 20
440.7761799999998
 30
0.0
 11
561.93677
 21
427.7761799999998
 31
0.0
  0
LINE
  5
1D9
330
469
100
AcDbEntity
  8
0
  6
Continuous
 62
     7
100
AcDbLine
 10
556.9367699999998
 20
427.7761799999998
 30
0.0
 11
556.9367699999998
 21
415.7761799999998
 31
0.0
  0
LINE
  5
1DA
330
469
100
AcDbEntity
  8
0
  6
Continuous
 62
     7
100
AcDbLine
 10
561.93677
 20
427.7761799999998
 30
0.0
 11
556.9367699999998
 21
427.7761799999998
 31
0.0
  0
LINE
  5
1DB
330
469
100
AcDbEntity
  8
0
  6
Continuous
 62
     7
100
AcDbLine
 10
558.93677
 20
440.7761799999998
 30
0.0
 11
561.93677
 21
440.7761799999998
 31
0.0
  0
LINE
  5
1DC
330
469
100
AcDbEntity
  8
0
  6
Continuous
 62
     7
100
AcDbLine
 10
558.93677
 20
444.7761799999998
 30
0.0
 11
561.93677
 21
444.7761799999998
 31
0.0
  0
LINE
  5
1DD
330
469
100
AcDbEntity
  8
0
  6
Continuous
 62
     7
100
AcDbLine
 10
566.93677
 20
417.7761799999998
 30
0.0
 11
566.93677
 21
440.7761799999998
 31
0.0
  0
LINE
  5
1DE
330
469
100
AcDbEntity
  8
0
  6
Continuous
 62
     7
100
AcDbLine
 10
604.18677
 20
450.27618
 30
0.0
 11
591.18677
 21
450.27618
 31
0.0
  0
LINE
  5
1DF
330
469
100
AcDbEntity
  8
0
  6
Continuous
 62
     7
100
AcDbLine
 10
564.9367699999998
 20
476.7761799999998
 30
0.0
 11
561.93677
 21
476.7761799999998
 31
0.0
  0
LINE
  5
1E0
330
469
100
AcDbEntity
  8
0
  6
CENTER
 62
     4
100
AcDbLine
 10
658.8771400000001
 20
503.1454499999998
 30
0.0
 11
658.8771400000001
 21
473.1454499999999
 31
0.0
  0
LINE
  5
1E1
330
469
100
AcDbEntity
  8
0
  6
Continuous
 62
     7
100
AcDbLine
 10
656.8771400000001
 20
480.14545
 30
0.0
 11
656.8771400000001
 21
496.14545
 31
0.0
  0
LINE
  5
1E2
330
469
100
AcDbEntity
  8
0
  6
Continuous
 62
     7
100
AcDbLine
 10
666.8771400000001
 20
495.1454499999998
 30
0.0
 11
666.8771400000001
 21
481.1454499999999
 31
0.0
  0
LINE
  5
1E3
330
469
100
AcDbEntity
  8
0
  6
Continuous
 62
     7
100
AcDbLine
 10
661.8771400000001
 20
481.1454499999999
 30
0.0
 11
661.8771400000001
 21
495.1454499999998
 31
0.0
  0
LINE
  5
1E4
330
469
100
AcDbEntity
  8
0
  6
Continuous
 62
     7
100
AcDbLine
 10
666.8771400000001
 20
481.1454499999999
 30
0.0
 11
656.8771400000001
 21
481.1454499999999
 31
0.0
  0
LINE
  5
1E5
330
469
100
AcDbEntity
  8
0
  6
Continuous
 62
     7
100
AcDbLine
 10
663.8771400000003
 20
476.14545
 30
0.0
 11
660.8771400000001
 21
476.14545
 31
0.0
  0
LINE
  5
1E6
330
469
100
AcDbEntity
  8
0
  6
Continuous
 62
     7
100
AcDbLine
 10
669.8771400000001
 20
480.14545
 30
0.0
 11
663.8771400000003
 21
480.14545
 31
0.0
  0
LINE
  5
1E7
330
469
100
AcDbEntity
  8
0
  6
Continuous
 62
     7
100
AcDbLine
 10
660.8771400000001
 20
480.14545
 30
0.0
 11
660.8771400000001
 21
481.1454499999999
 31
0.0
  0
LINE
  5
1E8
330
469
100
AcDbEntity
  8
0
  6
Continuous
 62
     7
100
AcDbLine
 10
663.8771400000003
 20
480.14545
 30
0.0
 11
660.8771400000001
 21
480.14545
 31
0.0
  0
LINE
  5
1E9
330
469
100
AcDbEntity
  8
0
  6
Continuous
 62
     7
100
AcDbLine
 10
656.8771400000001
 20
495.1454499999998
 30
0.0
 11
666.8771400000001
 21
495.1454499999998
 31
0.0
  0
LINE
  5
1EA
330
469
100
AcDbEntity
  8
0
  6
Continuous
 62
     7
100
AcDbLine
 10
663.8771400000003
 20
496.14545
 30
0.0
 11
669.8771400000001
 21
496.14545
 31
0.0
  0
LINE
  5
1EB
330
469
100
AcDbEntity
  8
0
  6
Continuous
 62
     7
100
AcDbLine
 10
660.8771400000001
 20
496.14545
 30
0.0
 11
660.8771400000001
 21
495.1454499999998
 31
0.0
  0
LINE
  5
1EC
330
469
100
AcDbEntity
  8
0
  6
Continuous
 62
     7
100
AcDbLine
 10
663.8771400000003
 20
496.14545
 30
0.0
 11
660.8771400000001
 21
496.14545
 31
0.0
  0
LINE
  5
1ED
330
469
100
AcDbEntity
  8
0
  6
Continuous
 62
     7
100
AcDbLine
 10
663.8771400000003
 20
500.14545
 30
0.0
 11
660.8771400000001
 21
500.14545
 31
0.0
  0
LINE
  5
1EE
330
469
100
AcDbEntity
  8
0
  6
CENTER
 62
     4
100
AcDbLine
 10
697.6271400000001
 20
488.14545
 30
0.0
 11
697.6271400000001
 21
513.63269
 31
0.0
  0
LINE
  5
1EF
330
469
100
AcDbEntity
  8
0
  6
CENTER
 62
     4
100
AcDbLine
 10
697.6271400000001
 20
488.14545
 30
0.0
 11
697.6271400000001
 21
462.65817
 31
0.0
  0
LINE
  5
1F0
330
469
100
AcDbEntity
  8
0
  6
CENTER
 62
     4
100
AcDbLine
 10
697.6271400000001
 20
488.14545
 30
0.0
 11
722.3700599999999
 21
488.14545
 31
0.0
  0
LINE
  5
1F1
330
469
100
AcDbEntity
  8
0
  6
Continuous
 62
     3
100
AcDbLine
 10
660.8771400000001
 20
497.14545
 30
0.0
 11
660.8771400000001
 21
511.1454499999998
 31
0.0
  0
LINE
  5
1F2
330
469
100
AcDbEntity
  8
0
  6
Continuous
 62
     3
100
AcDbLine
 10
656.8771400000001
 20
497.14545
 30
0.0
 11
656.8771400000001
 21
511.1454499999998
 31
0.0
  0
LINE
  5
1F3
330
469
100
AcDbEntity
  8
0
  6
Continuous
 62
     3
100
AcDbLine
 10
661.6771199999998
 20
510.14545
 30
0.0
 11
662.4771099999998
 21
510.14545
 31
0.0
  0
LINE
  5
1F4
330
469
100
AcDbEntity
  8
0
  6
Continuous
 62
     3
100
AcDbLine
 10
656.0771499999997
 20
510.14545
 30
0.0
 11
650.6771200000001
 21
510.14545
 31
0.0
  0
LINE
  5
1F5
330
469
100
AcDbEntity
  8
0
  6
Continuous
 62
     3
100
AcDbLine
 10
660.8771400000001
 20
510.14545
 30
0.0
 11
656.8771400000001
 21
510.14545
 31
0.0
  0
LINE
  5
1F6
330
469
100
AcDbEntity
  8
0
  6
Continuous
 62
     7
100
AcDbLine
 10
661.2771
 20
510.14545
 30
0.0
 11
661.6771199999998
 21
510.14545
 31
0.0
  0
LINE
  5
1F7
330
469
100
AcDbEntity
  8
0
  6
Continuous
 62
     7
100
AcDbLine
 10
656.4771099999997
 20
510.14545
 30
0.0
 11
656.0771499999997
 21
510.14545
 31
0.0
  0
LINE
  5
1F8
330
469
100
AcDbEntity
  8
0
  6
Continuous
 62
     3
100
AcDbLine
 10
656.8771400000001
 20
497.14545
 30
0.0
 11
656.8771400000001
 21
521.63269
 31
0.0
  0
LINE
  5
1F9
330
469
100
AcDbEntity
  8
0
  6
Continuous
 62
     3
100
AcDbLine
 10
706.8771400000001
 20
492.6180399999998
 30
0.0
 11
706.8771400000001
 21
521.63269
 31
0.0
  0
LINE
  5
1FA
330
469
100
AcDbEntity
  8
0
  6
Continuous
 62
     3
100
AcDbLine
 10
657.6771199999998
 20
520.63269
 30
0.0
 11
706.0771499999997
 21
520.63269
 31
0.0
  0
LINE
  5
1FB
330
469
100
AcDbEntity
  8
0
  6
Continuous
 62
     7
100
AcDbLine
 10
657.2771
 20
520.63269
 30
0.0
 11
657.6771199999998
 21
520.63269
 31
0.0
  0
LINE
  5
1FC
330
469
100
AcDbEntity
  8
0
  6
Continuous
 62
     7
100
AcDbLine
 10
706.4771099999997
 20
520.63269
 30
0.0
 11
706.0771499999997
 21
520.63269
 31
0.0
  0
LINE
  5
1FD
330
469
100
AcDbEntity
  8
0
  6
Continuous
 62
     3
100
AcDbLine
 10
575.18677
 20
441.77618
 30
0.0
 11
575.18677
 21
489.7761799999998
 31
0.0
  0
LINE
  5
1FE
330
469
100
AcDbEntity
  8
0
  6
Continuous
 62
     3
100
AcDbLine
 10
620.18677
 20
441.77618
 30
0.0
 11
620.18677
 21
489.7761799999998
 31
0.0
  0
LINE
  5
1FF
330
469
100
AcDbEntity
  8
0
  6
Continuous
 62
     3
100
AcDbLine
 10
575.9867599999997
 20
488.7761799999998
 30
0.0
 11
619.3867799999998
 21
488.7761799999998
 31
0.0
  0
LINE
  5
200
330
469
100
AcDbEntity
  8
0
  6
Continuous
 62
     7
100
AcDbLine
 10
575.5867900000001
 20
488.7761799999998
 30
0.0
 11
575.9867599999997
 21
488.7761799999998
 31
0.0
  0
LINE
  5
201
330
469
100
AcDbEntity
  8
0
  6
Continuous
 62
     7
100
AcDbLine
 10
619.7867399999998
 20
488.7761799999998
 30
0.0
 11
619.3867799999998
 21
488.7761799999998
 31
0.0
  0
LINE
  5
202
330
469
100
AcDbEntity
  8
0
  6
Continuous
 62
     3
100
AcDbLine
 10
591.18677
 20
451.7761799999998
 30
0.0
 11
591.18677
 21
461.7761799999998
 31
0.0
  0
LINE
  5
203
330
469
100
AcDbEntity
  8
0
  6
Continuous
 62
     3
100
AcDbLine
 10
604.18677
 20
451.7761799999998
 30
0.0
 11
604.18677
 21
461.7761799999998
 31
0.0
  0
LINE
  5
204
330
469
100
AcDbEntity
  8
0
  6
Continuous
 62
     3
100
AcDbLine
 10
591.9867599999999
 20
460.7761799999998
 30
0.0
 11
603.3867799999998
 21
460.7761799999998
 31
0.0
  0
LINE
  5
205
330
469
100
AcDbEntity
  8
0
  6
Continuous
 62
     7
100
AcDbLine
 10
591.5867900000002
 20
460.7761799999998
 30
0.0
 11
591.9867599999999
 21
460.7761799999998
 31
0.0
  0
LINE
  5
206
330
469
100
AcDbEntity
  8
0
  6
Continuous
 62
     7
100
AcDbLine
 10
603.78674
 20
460.7761799999998
 30
0.0
 11
603.3867799999998
 21
460.7761799999998
 31
0.0
  0
LINE
  5
207
330
469
100
AcDbEntity
  8
0
  6
Continuous
 62
     3
100
AcDbLine
 10
556.9367699999998
 20
479.7761799999998
 30
0.0
 11
556.9367699999998
 21
489.7761799999998
 31
0.0
  0
LINE
  5
208
330
469
100
AcDbEntity
  8
0
  6
Continuous
 62
     3
100
AcDbLine
 10
566.93677
 20
479.7761799999998
 30
0.0
 11
566.93677
 21
489.7761799999998
 31
0.0
  0
LINE
  5
209
330
469
100
AcDbEntity
  8
0
  6
Continuous
 62
     3
100
AcDbLine
 10
557.73676
 20
488.7761799999998
 30
0.0
 11
566.1367799999998
 21
488.7761799999998
 31
0.0
  0
LINE
  5
20A
330
469
100
AcDbEntity
  8
0
  6
Continuous
 62
     7
100
AcDbLine
 10
557.33679
 20
488.7761799999998
 30
0.0
 11
557.73676
 21
488.7761799999998
 31
0.0
  0
LINE
  5
20B
330
469
100
AcDbEntity
  8
0
  6
Continuous
 62
     7
100
AcDbLine
 10
566.53674
 20
488.7761799999998
 30
0.0
 11
566.1367799999998
 21
488.7761799999998
 31
0.0
  0
LINE
  5
20C
330
469
100
AcDbEntity
  8
0
  6
Continuous
 62
     3
100
AcDbLine
 10
621.1867699999998
 20
440.7761799999998
 30
0.0
 11
636.18677
 21
440.7761799999998
 31
0.0
  0
LINE
  5
20D
330
469
100
AcDbEntity
  8
0
  6
Continuous
 62
     3
100
AcDbLine
 10
621.1867699999998
 20
428.7761799999998
 30
0.0
 11
636.18677
 21
428.7761799999998
 31
0.0
  0
LINE
  5
20E
330
469
100
AcDbEntity
  8
0
  6
Continuous
 62
     3
100
AcDbLine
 10
635.18677
 20
439.9761999999998
 30
0.0
 11
635.18677
 21
429.5761999999998
 31
0.0
  0
LINE
  5
20F
330
469
100
AcDbEntity
  8
0
  6
Continuous
 62
     7
100
AcDbLine
 10
635.18677
 20
440.3761900000001
 30
0.0
 11
635.18677
 21
439.9761999999998
 31
0.0
  0
LINE
  5
210
330
469
100
AcDbEntity
  8
0
  6
Continuous
 62
     7
100
AcDbLine
 10
635.18677
 20
429.1761799999998
 30
0.0
 11
635.18677
 21
429.5761999999998
 31
0.0
  0
LINE
  5
211
330
469
100
AcDbEntity
  8
0
  6
Continuous
 62
     3
100
AcDbLine
 10
621.1867699999998
 20
428.7761799999998
 30
0.0
 11
636.18677
 21
428.7761799999998
 31
0.0
  0
LINE
  5
212
330
469
100
AcDbEntity
  8
0
  6
Continuous
 62
     3
100
AcDbLine
 10
613.68677
 20
398.7761799999999
 30
0.0
 11
636.18677
 21
398.7761799999999
 31
0.0
  0
LINE
  5
213
330
469
100
AcDbEntity
  8
0
  6
Continuous
 62
     3
100
AcDbLine
 10
635.18677
 20
427.9761999999998
 30
0.0
 11
635.18677
 21
399.5761999999999
 31
0.0
  0
LINE
  5
214
330
469
100
AcDbEntity
  8
0
  6
Continuous
 62
     7
100
AcDbLine
 10
635.18677
 20
428.37619
 30
0.0
 11
635.18677
 21
427.9761999999998
 31
0.0
  0
LINE
  5
215
330
469
100
AcDbEntity
  8
0
  6
Continuous
 62
     7
100
AcDbLine
 10
635.18677
 20
399.1761799999999
 30
0.0
 11
635.18677
 21
399.5761999999999
 31
0.0
  0
LINE
  5
216
330
469
100
AcDbEntity
  8
0
  6
Continuous
 62
     3
100
AcDbLine
 10
605.18677
 20
450.7761799999998
 30
0.0
 11
646.1867699999998
 21
450.7761799999998
 31
0.0
  0
LINE
  5
217
330
469
100
AcDbEntity
  8
0
  6
Continuous
 62
     3
100
AcDbLine
 10
621.1867699999998
 20
440.7761799999998
 30
0.0
 11
646.1867699999998
 21
440.7761799999998
 31
0.0
  0
LINE
  5
218
330
469
100
AcDbEntity
  8
0
  6
Continuous
 62
     3
100
AcDbLine
 10
645.18677
 20
449.9762
 30
0.0
 11
645.18677
 21
441.5761999999999
 31
0.0
  0
LINE
  5
219
330
469
100
AcDbEntity
  8
0
  6
Continuous
 62
     7
100
AcDbLine
 10
645.18677
 20
450.3761899999998
 30
0.0
 11
645.18677
 21
449.9762
 31
0.0
  0
LINE
  5
21A
330
469
100
AcDbEntity
  8
0
  6
Continuous
 62
     7
100
AcDbLine
 10
645.18677
 20
441.1761799999998
 30
0.0
 11
645.18677
 21
441.5761999999999
 31
0.0
  0
LINE
  5
21B
330
469
100
AcDbEntity
  8
0
  6
Continuous
 62
     3
100
AcDbLine
 10
621.1867699999998
 20
440.7761799999998
 30
0.0
 11
646.1867699999998
 21
440.7761799999998
 31
0.0
  0
LINE
  5
21C
330
469
100
AcDbEntity
  8
0
  6
Continuous
 62
     3
100
AcDbLine
 10
613.68677
 20
398.7761799999999
 30
0.0
 11
646.1867699999998
 21
398.7761799999999
 31
0.0
  0
LINE
  5
21D
330
469
100
AcDbEntity
  8
0
  6
Continuous
 62
     3
100
AcDbLine
 10
645.18677
 20
439.9761999999998
 30
0.0
 11
645.18677
 21
399.5761999999999
 31
0.0
  0
LINE
  5
21E
330
469
100
AcDbEntity
  8
0
  6
Continuous
 62
     7
100
AcDbLine
 10
645.18677
 20
440.3761900000001
 30
0.0
 11
645.18677
 21
439.9761999999998
 31
0.0
  0
LINE
  5
21F
330
469
100
AcDbEntity
  8
0
  6
Continuous
 62
     7
100
AcDbLine
 10
645.18677
 20
399.1761799999999
 30
0.0
 11
645.18677
 21
399.5761999999999
 31
0.0
  0
LINE
  5
220
330
469
100
AcDbEntity
  8
0
  6
Continuous
 62
     3
100
AcDbLine
 10
613.68677
 20
398.7761799999999
 30
0.0
 11
646.1867699999998
 21
398.7761799999999
 31
0.0
  0
LINE
  5
221
330
469
100
AcDbEntity
  8
0
  6
Continuous
 62
     3
100
AcDbLine
 10
599.18677
 20
358.7761799999999
 30
0.0
 11
646.1867699999998
 21
358.7761799999999
 31
0.0
  0
LINE
  5
222
330
469
100
AcDbEntity
  8
0
  6
Continuous
 62
     3
100
AcDbLine
 10
645.18677
 20
397.9762
 30
0.0
 11
645.18677
 21
359.5761999999999
 31
0.0
  0
LINE
  5
223
330
469
100
AcDbEntity
  8
0
  6
Continuous
 62
     7
100
AcDbLine
 10
645.18677
 20
398.37619
 30
0.0
 11
645.18677
 21
397.9762
 31
0.0
  0
LINE
  5
224
330
469
100
AcDbEntity
  8
0
  6
Continuous
 62
     7
100
AcDbLine
 10
645.18677
 20
359.17618
 30
0.0
 11
645.18677
 21
359.5761999999999
 31
0.0
  0
LINE
  5
225
330
469
100
AcDbEntity
  8
0
  6
Continuous
 62
     3
100
AcDbLine
 10
582.68677
 20
397.7761799999998
 30
0.0
 11
582.68677
 21
332.7761799999999
 31
0.0
  0
LINE
  5
226
330
469
100
AcDbEntity
  8
0
  6
Continuous
 62
     3
100
AcDbLine
 10
612.68677
 20
397.7761799999998
 30
0.0
 11
612.68677
 21
332.7761799999999
 31
0.0
  0
LINE
  5
227
330
469
100
AcDbEntity
  8
0
  6
Continuous
 62
     3
100
AcDbLine
 10
583.4867599999999
 20
333.7761799999999
 30
0.0
 11
611.8867799999998
 21
333.7761799999999
 31
0.0
  0
LINE
  5
228
330
469
100
AcDbEntity
  8
0
  6
Continuous
 62
     7
100
AcDbLine
 10
583.0867899999998
 20
333.7761799999999
 30
0.0
 11
583.4867599999999
 21
333.7761799999999
 31
0.0
  0
LINE
  5
229
330
469
100
AcDbEntity
  8
0
  6
Continuous
 62
     7
100
AcDbLine
 10
612.28674
 20
333.7761799999999
 30
0.0
 11
611.8867799999998
 21
333.7761799999999
 31
0.0
  0
LINE
  5
22A
330
469
100
AcDbEntity
  8
0
  6
Continuous
 62
     3
100
AcDbLine
 10
555.93677
 20
476.7761799999998
 30
0.0
 11
545.93677
 21
476.7761799999998
 31
0.0
  0
LINE
  5
22B
330
469
100
AcDbEntity
  8
0
  6
Continuous
 62
     3
100
AcDbLine
 10
552.93677
 20
442.7761799999998
 30
0.0
 11
545.93677
 21
442.7761799999998
 31
0.0
  0
LINE
  5
22C
330
469
100
AcDbEntity
  8
0
  6
Continuous
 62
     3
100
AcDbLine
 10
546.93677
 20
475.9762
 30
0.0
 11
546.93677
 21
443.5761999999998
 31
0.0
  0
LINE
  5
22D
330
469
100
AcDbEntity
  8
0
  6
Continuous
 62
     7
100
AcDbLine
 10
546.93677
 20
476.37619
 30
0.0
 11
546.93677
 21
475.9762
 31
0.0
  0
LINE
  5
22E
330
469
100
AcDbEntity
  8
0
  6
Continuous
 62
     7
100
AcDbLine
 10
546.93677
 20
443.17618
 30
0.0
 11
546.93677
 21
443.5761999999998
 31
0.0
  0
LINE
  5
22F
330
469
100
AcDbEntity
  8
0
  6
Continuous
 62
     3
100
AcDbLine
 10
552.93677
 20
442.7761799999998
 30
0.0
 11
545.93677
 21
442.7761799999998
 31
0.0
  0
LINE
  5
230
330
469
100
AcDbEntity
  8
0
  6
Continuous
 62
     3
100
AcDbLine
 10
555.93677
 20
415.7761799999998
 30
0.0
 11
545.93677
 21
415.7761799999998
 31
0.0
  0
LINE
  5
231
330
469
100
AcDbEntity
  8
0
  6
Continuous
 62
     3
100
AcDbLine
 10
546.93677
 20
441.9762
 30
0.0
 11
546.93677
 21
416.5761999999999
 31
0.0
  0
LINE
  5
232
330
469
100
AcDbEntity
  8
0
  6
Continuous
 62
     7
100
AcDbLine
 10
546.93677
 20
442.37619
 30
0.0
 11
546.93677
 21
441.9762
 31
0.0
  0
LINE
  5
233
330
469
100
AcDbEntity
  8
0
  6
Continuous
 62
     7
100
AcDbLine
 10
546.93677
 20
416.1761799999998
 30
0.0
 11
546.93677
 21
416.5761999999999
 31
0.0
  0
LINE
  5
234
330
469
100
AcDbEntity
  8
0
  6
Continuous
 62
     3
100
AcDbLine
 10
555.93677
 20
476.7761799999998
 30
0.0
 11
535.9367699999998
 21
476.7761799999998
 31
0.0
  0
LINE
  5
235
330
469
100
AcDbEntity
  8
0
  6
Continuous
 62
     3
100
AcDbLine
 10
555.93677
 20
415.7761799999998
 30
0.0
 11
535.9367699999998
 21
415.7761799999998
 31
0.0
  0
LINE
  5
236
330
469
100
AcDbEntity
  8
0
  6
Continuous
 62
     3
100
AcDbLine
 10
536.93677
 20
475.9762
 30
0.0
 11
536.93677
 21
416.5761999999999
 31
0.0
  0
LINE
  5
237
330
469
100
AcDbEntity
  8
0
  6
Continuous
 62
     7
100
AcDbLine
 10
536.93677
 20
476.37619
 30
0.0
 11
536.93677
 21
475.9762
 31
0.0
  0
LINE
  5
238
330
469
100
AcDbEntity
  8
0
  6
Continuous
 62
     7
100
AcDbLine
 10
536.93677
 20
416.1761799999998
 30
0.0
 11
536.93677
 21
416.5761999999999
 31
0.0
  0
LINE
  5
239
330
469
100
AcDbEntity
  8
0
  6
Continuous
 62
     3
100
AcDbLine
 10
555.93677
 20
415.7761799999998
 30
0.0
 11
545.93677
 21
415.7761799999998
 31
0.0
  0
LINE
  5
23A
330
469
100
AcDbEntity
  8
0
  6
Continuous
 62
     3
100
AcDbLine
 10
581.68677
 20
398.7761799999999
 30
0.0
 11
545.93677
 21
398.7761799999999
 31
0.0
  0
LINE
  5
23B
330
469
100
AcDbEntity
  8
0
  6
Continuous
 62
     3
100
AcDbLine
 10
546.93677
 20
414.9761999999998
 30
0.0
 11
546.93677
 21
399.5761999999999
 31
0.0
  0
LINE
  5
23C
330
469
100
AcDbEntity
  8
0
  6
Continuous
 62
     7
100
AcDbLine
 10
546.93677
 20
415.37619
 30
0.0
 11
546.93677
 21
414.9761999999998
 31
0.0
  0
LINE
  5
23D
330
469
100
AcDbEntity
  8
0
  6
Continuous
 62
     7
100
AcDbLine
 10
546.93677
 20
399.1761799999999
 30
0.0
 11
546.93677
 21
399.5761999999999
 31
0.0
  0
LINE
  5
23E
330
469
100
AcDbEntity
  8
0
  6
Continuous
 62
     3
100
AcDbLine
 10
504.35983
 20
415.7761799999998
 30
0.0
 11
527.4011799999998
 21
415.7761799999998
 31
0.0
  0
LINE
  5
23F
330
469
100
AcDbEntity
  8
0
  6
Continuous
 62
     3
100
AcDbLine
 10
507.6511799999998
 20
422.7761799999998
 30
0.0
 11
527.4011799999998
 21
422.7761799999998
 31
0.0
  0
LINE
  5
240
330
469
100
AcDbEntity
  8
0
  6
Continuous
 62
     3
100
AcDbLine
 10
526.4011799999998
 20
416.5761999999999
 30
0.0
 11
526.4011799999998
 21
421.9762
 31
0.0
  0
LINE
  5
241
330
469
100
AcDbEntity
  8
0
  6
Continuous
 62
     7
100
AcDbLine
 10
526.4011799999998
 20
416.1761799999998
 30
0.0
 11
526.4011799999998
 21
416.5761999999999
 31
0.0
  0
LINE
  5
242
330
469
100
AcDbEntity
  8
0
  6
Continuous
 62
     7
100
AcDbLine
 10
526.4011799999998
 20
422.37619
 30
0.0
 11
526.4011799999998
 21
421.9762
 31
0.0
  0
LINE
  5
243
330
469
100
AcDbEntity
  8
0
  6
Continuous
 62
     3
100
AcDbLine
 10
507.6511799999998
 20
422.7761799999998
 30
0.0
 11
527.4011799999998
 21
422.7761799999998
 31
0.0
  0
LINE
  5
244
330
469
100
AcDbEntity
  8
0
  6
Continuous
 62
     3
100
AcDbLine
 10
507.6511799999998
 20
452.7761799999998
 30
0.0
 11
527.4011799999998
 21
452.7761799999998
 31
0.0
  0
LINE
  5
245
330
469
100
AcDbEntity
  8
0
  6
Continuous
 62
     3
100
AcDbLine
 10
526.4011799999998
 20
423.5761999999998
 30
0.0
 11
526.4011799999998
 21
451.9762
 31
0.0
  0
LINE
  5
246
330
469
100
AcDbEntity
  8
0
  6
Continuous
 62
     7
100
AcDbLine
 10
526.4011799999998
 20
423.17618
 30
0.0
 11
526.4011799999998
 21
423.5761999999998
 31
0.0
  0
LINE
  5
247
330
469
100
AcDbEntity
  8
0
  6
Continuous
 62
     7
100
AcDbLine
 10
526.4011799999998
 20
452.3761900000002
 30
0.0
 11
526.4011799999998
 21
451.9762
 31
0.0
  0
LINE
  5
248
330
469
100
AcDbEntity
  8
0
  6
Continuous
 62
     3
100
AcDbLine
 10
504.35983
 20
476.7761799999998
 30
0.0
 11
527.4011799999998
 21
476.7761799999998
 31
0.0
  0
LINE
  5
249
330
469
100
AcDbEntity
  8
0
  6
Continuous
 62
     3
100
AcDbLine
 10
507.6511799999998
 20
452.7761799999998
 30
0.0
 11
527.4011799999998
 21
452.7761799999998
 31
0.0
  0
LINE
  5
24A
330
469
100
AcDbEntity
  8
0
  6
Continuous
 62
     3
100
AcDbLine
 10
526.4011799999998
 20
475.9762
 30
0.0
 11
526.4011799999998
 21
453.5762
 31
0.0
  0
LINE
  5
24B
330
469
100
AcDbEntity
  8
0
  6
Continuous
 62
     7
100
AcDbLine
 10
526.4011799999998
 20
476.37619
 30
0.0
 11
526.4011799999998
 21
475.9762
 31
0.0
  0
LINE
  5
24C
330
469
100
AcDbEntity
  8
0
  6
Continuous
 62
     7
100
AcDbLine
 10
526.4011799999998
 20
453.1761799999999
 30
0.0
 11
526.4011799999998
 21
453.5762
 31
0.0
  0
LINE
  5
24D
330
469
100
AcDbEntity
  8
0
  6
Continuous
 62
     3
100
AcDbLine
 10
511.4011799999998
 20
422.8669999999998
 30
0.0
 11
511.4011799999998
 21
399.7761799999998
 31
0.0
  0
LINE
  5
24E
330
469
100
AcDbEntity
  8
0
  6
Continuous
 62
     3
100
AcDbLine
 10
487.4011799999998
 20
422.8669999999998
 30
0.0
 11
487.4011799999998
 21
399.7761799999998
 31
0.0
  0
LINE
  5
24F
330
469
100
AcDbEntity
  8
0
  6
Continuous
 62
     3
100
AcDbLine
 10
510.60117
 20
400.7761799999998
 30
0.0
 11
488.2011699999998
 21
400.7761799999998
 31
0.0
  0
LINE
  5
250
330
469
100
AcDbEntity
  8
0
  6
Continuous
 62
     7
100
AcDbLine
 10
511.0011599999999
 20
400.7761799999998
 30
0.0
 11
510.60117
 21
400.7761799999998
 31
0.0
  0
LINE
  5
251
330
469
100
AcDbEntity
  8
0
  6
Continuous
 62
     7
100
AcDbLine
 10
487.80118
 20
400.7761799999998
 30
0.0
 11
488.2011699999998
 21
400.7761799999998
 31
0.0
  0
LINE
  5
252
330
469
100
AcDbEntity
  8
0
  6
CENTER
 62
     4
100
AcDbLine
 10
597.68677
 20
453.7761799999998
 30
0.0
 11
597.68677
 21
355.7761799999998
 31
0.0
  0
LINE
  5
253
330
469
100
AcDbEntity
  8
0
  6
Continuous
 62
     3
100
AcDbLine
 10
592.68677
 20
369.12616
 30
0.0
 11
592.68677
 21
342.7761799999999
 31
0.0
  0
LINE
  5
254
330
469
100
AcDbEntity
  8
0
  6
Continuous
 62
     3
100
AcDbLine
 10
602.68677
 20
369.12616
 30
0.0
 11
602.68677
 21
342.7761799999999
 31
0.0
  0
LINE
  5
255
330
469
100
AcDbEntity
  8
0
  6
Continuous
 62
     3
100
AcDbLine
 10
593.48676
 20
343.7761799999998
 30
0.0
 11
601.8867799999997
 21
343.7761799999998
 31
0.0
  0
LINE
  5
256
330
469
100
AcDbEntity
  8
0
  6
Continuous
 62
     3
100
AcDbLine
 10
602.68677
 20
343.7761799999998
 30
0.0
 11
650.8221544741505
 21
343.7761799999998
 31
0.0
  0
LINE
  5
257
330
469
100
AcDbEntity
  8
0
  6
Continuous
 62
     7
100
AcDbLine
 10
593.0867899999998
 20
343.7761799999998
 30
0.0
 11
593.48676
 21
343.7761799999998
 31
0.0
  0
LINE
  5
258
330
469
100
AcDbEntity
  8
0
  6
Continuous
 62
     7
100
AcDbLine
 10
602.2867399999999
 20
343.7761799999998
 30
0.0
 11
601.8867799999997
 21
343.7761799999998
 31
0.0
  0
LINE
  5
259
330
469
100
AcDbEntity
  8
0
  6
Continuous
 62
     3
100
AcDbLine
 10
501.6763599999999
 20
425.3695999999997
 30
0.0
 11
497.1259799999998
 21
420.1827399999998
 31
0.0
  0
LINE
  5
25A
330
469
100
AcDbEntity
  8
0
  6
Continuous
 62
     3
100
AcDbLine
 10
496.59842
 20
419.58139
 30
0.0
 11
471.32797
 21
390.7761799999999
 31
0.0
  0
LINE
  5
25B
330
469
100
AcDbEntity
  8
0
  6
Continuous
 62
     3
100
AcDbLine
 10
471.32794
 20
390.7761799999999
 30
0.0
 11
437.2666899999998
 21
390.7761799999999
 31
0.0
  0
LINE
  5
25C
330
469
100
AcDbEntity
  8
0
  6
Continuous
 62
     7
100
AcDbLine
 10
501.9401599999998
 20
425.67032
 30
0.0
 11
501.6763599999999
 21
425.3695999999997
 31
0.0
  0
LINE
  5
25D
330
469
100
AcDbEntity
  8
0
  6
Continuous
 62
     7
100
AcDbLine
 10
496.86218
 20
419.88205
 30
0.0
 11
497.1259799999998
 21
420.1827399999998
 31
0.0
  0
ARC
  5
25E
330
469
100
AcDbEntity
  8
0
  6
Continuous
 62
     7
100
AcDbCircle
 10
697.6271400000001
 20
488.14545
 30
0.0
 40
6.5
100
AcDbArc
 50
270.0
 51
90.0
  0
CIRCLE
  5
25F
330
469
100
AcDbEntity
  8
0
  6
Continuous
 62
     7
100
AcDbCircle
 10
697.6271400000001
 20
488.14545
 30
0.0
 40
6.5
  0
ARC
  5
260
330
469
100
AcDbEntity
  8
0
  6
Continuous
 62
     7
100
AcDbCircle
 10
696.87006
 20
488.14545
 30
0.0
 40
22.5
100
AcDbArc
 50
159.1724899999999
 51
200.82751
  0
ARC
  5
261
330
469
100
AcDbEntity
  8
0
  6
Continuous
 62
     7
100
AcDbCircle
 10
499.40118
 20
454.8792699999999
 30
0.0
 40
4.146930199999999
100
AcDbArc
 50
43.661791
 51
136.33821
  0
ARC
  5
262
330
469
100
AcDbEntity
  8
0
  6
Continuous
 62
     7
100
AcDbCircle
 10
506.4011799999998
 20
435.7761799999998
 30
0.0
 40
2.0
100
AcDbArc
 50
0.0
 51
90.0
  0
ARC
  5
263
330
469
100
AcDbEntity
  8
0
  6
Continuous
 62
     7
100
AcDbCircle
 10
492.4011799999998
 20
435.7761799999998
 30
0.0
 40
2.0
100
AcDbArc
 50
90.0
 51
180.0
  0
ARC
  5
264
330
469
100
AcDbEntity
  8
0
  6
Continuous
 62
     7
100
AcDbCircle
 10
499.40118
 20
427.7761799999998
 30
0.0
 40
12.0
100
AcDbArc
 50
180.0
 51
0.0
  0
ARC
  5
265
330
469
100
AcDbEntity
  8
0
  6
Continuous
 62
     7
100
AcDbCircle
 10
492.4011799999998
 20
432.7761799999998
 30
0.0
 40
2.0
100
AcDbArc
 50
180.0
 51
270.0
  0
ARC
  5
266
330
469
100
AcDbEntity
  8
0
  6
Continuous
 62
     7
100
AcDbCircle
 10
506.4011799999998
 20
432.7761799999998
 30
0.0
 40
2.0
100
AcDbArc
 50
270.0
 51
0.0
  0
CIRCLE
  5
267
330
469
100
AcDbEntity
  8
0
  6
Continuous
 62
     7
100
AcDbCircle
 10
499.40118
 20
452.7761799999998
 30
0.0
 40
2.25
  0
CIRCLE
  5
268
330
469
100
AcDbEntity
  8
0
  6
DASHED
 62
     6
100
AcDbCircle
 10
499.40118
 20
452.7761799999998
 30
0.0
 40
4.25
  0
ARC
  5
269
330
469
100
AcDbEntity
  8
0
  6
Continuous
 62
     7
100
AcDbCircle
 10
489.4011799999998
 20
442.7761799999998
 30
0.0
 40
2.0
100
AcDbArc
 50
90.0
 51
270.0
  0
ARC
  5
26A
330
469
100
AcDbEntity
  8
0
  6
Continuous
 62
     7
100
AcDbCircle
 10
494.4011799999998
 20
438.2761799999998
 30
0.0
 40
0.5
100
AcDbArc
 50
270.0
 51
0.0
  0
ARC
  5
26B
330
469
100
AcDbEntity
  8
0
  6
DASHED
 62
     7
100
AcDbCircle
 10
495.9011799999998
 20
458.7423099999998
 30
0.0
 40
1.0
100
AcDbArc
 50
180.0
 51
270.0
  0
ARC
  5
26C
330
469
100
AcDbEntity
  8
0
  6
Continuous
 62
     7
100
AcDbCircle
 10
504.4011799999998
 20
438.2761799999998
 30
0.0
 40
0.5
100
AcDbArc
 50
180.0
 51
270.0
  0
ARC
  5
26D
330
469
100
AcDbEntity
  8
0
  6
Continuous
 62
     7
100
AcDbCircle
 10
509.4011799999998
 20
442.7761799999998
 30
0.0
 40
2.0
100
AcDbArc
 50
270.0
 51
90.0
  0
ARC
  5
26E
330
469
100
AcDbEntity
  8
0
  6
Continuous
 62
     7
100
AcDbCircle
 10
604.93677
 20
442.7761799999998
 30
0.0
 40
2.0
100
AcDbArc
 50
270.0
 51
90.0
  0
ARC
  5
26F
330
469
100
AcDbEntity
  8
0
  6
PHANTOM
 62
     3
100
AcDbCircle
 10
558.93677
 20
430.77484
 30
0.0
 40
2.0
100
AcDbArc
 50
180.0
 51
0.0
  0
ARC
  5
270
330
469
100
AcDbEntity
  8
0
  6
Continuous
 62
     7
100
AcDbCircle
 10
558.93677
 20
442.7761799999998
 30
0.0
 40
2.0
100
AcDbArc
 50
90.0
 51
270.0
  0
ARC
  5
271
330
469
100
AcDbEntity
  8
0
  6
Continuous
 62
     7
100
AcDbCircle
 10
564.9367699999998
 20
417.7761799999998
 30
0.0
 40
2.0
100
AcDbArc
 50
270.0
 51
0.0
  0
ARC
  5
272
330
469
100
AcDbEntity
  8
0
  6
Continuous
 62
     7
100
AcDbCircle
 10
499.40118
 20
466.2761799999998
 30
0.0
 40
7.5
100
AcDbArc
 50
0.0
 51
180.0
  0
ARC
  5
273
330
469
100
AcDbEntity
  8
0
  6
DASHED
 62
     7
100
AcDbCircle
 10
499.40118
 20
466.32156
 30
0.0
 40
4.500228899999998
100
AcDbArc
 50
359.4222299999998
 51
180.5777699999999
  0
ARC
  5
274
330
469
100
AcDbEntity
  8
0
  6
Continuous
 62
     7
100
AcDbCircle
 10
499.40118
 20
469.2761799999998
 30
0.0
 40
7.5
100
AcDbArc
 50
0.0
 51
180.0
  0
ARC
  5
275
330
469
100
AcDbEntity
  8
0
  6
Continuous
 62
     7
100
AcDbCircle
 10
499.40118
 20
463.2761799999998
 30
0.0
 40
7.5
100
AcDbArc
 50
82.33373299999998
 51
97.66626700000003
  0
ARC
  5
276
330
469
100
AcDbEntity
  8
0
  6
PHANTOM
 62
     3
100
AcDbCircle
 10
558.93677
 20
476.7761799999998
 30
0.0
 40
2.0
100
AcDbArc
 50
0.0
 51
180.0
  0
ARC
  5
277
330
469
100
AcDbEntity
  8
0
  6
Continuous
 62
     7
100
AcDbCircle
 10
564.9367699999998
 20
474.7761799999998
 30
0.0
 40
2.0
100
AcDbArc
 50
0.0
 51
90.0
  0
ARC
  5
278
330
469
100
AcDbEntity
  8
0
  6
PHANTOM
 62
     3
100
AcDbCircle
 10
591.4636799999998
 20
475.3031
 30
0.0
 40
2.0
100
AcDbArc
 50
314.9993799999998
 51
134.99938
  0
ARC
  5
279
330
469
100
AcDbEntity
  8
0
  6
Continuous
 62
     7
100
AcDbCircle
 10
660.8771400000001
 20
480.14545
 30
0.0
 40
4.0
100
AcDbArc
 50
180.0
 51
270.0
  0
ARC
  5
27A
330
469
100
AcDbEntity
  8
0
  6
Continuous
 62
     7
100
AcDbCircle
 10
660.8771400000001
 20
496.14545
 30
0.0
 40
4.0
100
AcDbArc
 50
90.0
 51
180.0
  0
ARC
  5
27B
330
469
100
AcDbEntity
  8
0
  6
Continuous
 62
     7
100
AcDbCircle
 10
694.8771400000001
 20
488.14545
 30
0.0
 40
12.0
100
AcDbArc
 50
270.0
 51
90.0
  0
ARC
  5
27C
330
469
100
AcDbEntity
  8
0
  6
Continuous
 62
     7
100
AcDbCircle
 10
694.8771400000001
 20
488.14545
 30
0.0
 40
8.0
100
AcDbArc
 50
270.0
 51
311.77377
  0
ARC
  5
27D
330
469
100
AcDbEntity
  8
0
  6
Continuous
 62
     7
100
AcDbCircle
 10
694.8771400000001
 20
488.14545
 30
0.0
 40
8.0
100
AcDbArc
 50
48.22622599999998
 51
90.0
  0
CIRCLE
  5
27E
330
469
100
AcDbEntity
  8
0
  6
DASHED
 62
     6
100
AcDbCircle
 10
499.40118
 20
422.7761799999998
 30
0.0
 40
4.25
  0
CIRCLE
  5
27F
330
469
100
AcDbEntity
  8
0
  6
Continuous
 62
     7
100
AcDbCircle
 10
499.40118
 20
422.7761799999998
 30
0.0
 40
2.25
  0
ARC
  5
280
330
469
100
AcDbEntity
  8
0
  6
Continuous
 62
     7
100
AcDbCircle
 10
696.87006
 20
488.14545
 30
0.0
 40
22.5
100
AcDbArc
 50
212.2309899999999
 51
147.76901
  0
CIRCLE
  5
281
330
469
100
AcDbEntity
  8
0
  6
Continuous
 62
     7
100
AcDbCircle
 10
416.3581921037494
 20
522.11932
 30
0.0
 40
1.6133618
  0
CIRCLE
  5
282
330
469
100
AcDbEntity
  8
0
  6
Continuous
 62
     7
100
AcDbCircle
 10
421.5358518465041
 20
514.18799
 30
0.0
 40
1.7520397
  0
POLYLINE
  5
283
330
469
100
AcDbEntity
  8
0
  6
DASHED
 62
     7
100
AcDb2dPolyline
 66
     1
 10
0.0
 20
0.0
 30
0.0
  0
VERTEX
  5
3D4
330
283
100
AcDbEntity
  8
0
  6
DASHED
 62
     7
100
AcDbVertex
100
AcDb2dVertex
 10
502.4011799999998
 20
457.7423099999998
 30
0.0
  0
VERTEX
  5
3D5
330
283
100
AcDbEntity
  8
0
  6
DASHED
 62
     7
100
AcDbVertex
100
AcDb2dVertex
 10
502.9011799999998
 20
457.7423099999998
 30
0.0
  0
SEQEND
  5
3D6
330
283
100
AcDbEntity
  8
0
  6
DASHED
 62
     7
  0
POLYLINE
  5
287
330
469
100
AcDbEntity
  8
0
  6
DASHED
 62
     7
100
AcDb2dPolyline
 66
     1
 10
0.0
 20
0.0
 30
0.0
  0
VERTEX
  5
3D7
330
287
100
AcDbEntity
  8
0
  6
DASHED
 62
     7
100
AcDbVertex
100
AcDb2dVertex
 10
502.9011799999998
 20
457.7423099999998
 30
0.0
 42
0.096940966
  0
VERTEX
  5
3D8
330
287
100
AcDbEntity
  8
0
  6
DASHED
 62
     7
100
AcDbVertex
100
AcDb2dVertex
 10
503.3990799999998
 20
457.8832099999998
 30
0.0
 42
0.15856198
  0
VERTEX
  5
3D9
330
287
100
AcDbEntity
  8
0
  6
DASHED
 62
     7
100
AcDbVertex
100
AcDb2dVertex
 10
503.7605099999998
 20
458.2448599999998
 30
0.0
 42
0.096787929
  0
VERTEX
  5
3DA
330
287
100
AcDbEntity
  8
0
  6
DASHED
 62
     7
100
AcDbVertex
100
AcDb2dVertex
 10
503.9011799999998
 20
458.7423099999998
 30
0.0
  0
SEQEND
  5
3DB
330
287
100
AcDbEntity
  8
0
  6
DASHED
 62
     7
  0
POLYLINE
  5
28D
330
469
100
AcDbEntity
  8
0
  6
DASHED
 62
     7
100
AcDb2dPolyline
 66
     1
 10
0.0
 20
0.0
 30
0.0
  0
VERTEX
  5
3DC
330
28D
100
AcDbEntity
  8
0
  6
DASHED
 62
     7
100
AcDbVertex
100
AcDb2dVertex
 10
503.9011799999998
 20
458.7423099999998
 30
0.0
  0
VERTEX
  5
3DD
330
28D
100
AcDbEntity
  8
0
  6
DASHED
 62
     7
100
AcDbVertex
100
AcDb2dVertex
 10
503.9011799999998
 20
466.3669099999999
 30
0.0
  0
SEQEND
  5
3DE
330
28D
100
AcDbEntity
  8
0
  6
DASHED
 62
     7
  0
POLYLINE
  5
291
330
469
100
AcDbEntity
  8
0
  6
Continuous
 62
     7
100
AcDb2dPolyline
 66
     1
 10
0.0
 20
0.0
 30
0.0
  0
VERTEX
  5
3DF
330
291
100
AcDbEntity
  8
0
  6
Continuous
 62
     7
100
AcDbVertex
100
AcDb2dVertex
 10
502.4011799999998
 20
444.7761799999998
 30
0.0
  0
VERTEX
  5
3E0
330
291
100
AcDbEntity
  8
0
  6
Continuous
 62
     7
100
AcDbVertex
100
AcDb2dVertex
 10
506.9011799999998
 20
444.7761799999998
 30
0.0
  0
VERTEX
  5
3E1
330
291
100
AcDbEntity
  8
0
  6
Continuous
 62
     7
100
AcDbVertex
100
AcDb2dVertex
 10
506.9011799999998
 20
469.2761799999998
 30
0.0
  0
SEQEND
  5
3E2
330
291
100
AcDbEntity
  8
0
  6
Continuous
 62
     7
  0
POLYLINE
  5
296
330
469
100
AcDbEntity
  8
0
  6
PHANTOM
 62
     3
100
AcDb2dPolyline
 66
     1
 10
0.0
 20
0.0
 30
0.0
  0
VERTEX
  5
3E3
330
296
100
AcDbEntity
  8
0
  6
PHANTOM
 62
     3
100
AcDbVertex
100
AcDb2dVertex
 10
556.9367699999998
 20
430.77484
 30
0.0
  0
VERTEX
  5
3E4
330
296
100
AcDbEntity
  8
0
  6
PHANTOM
 62
     3
100
AcDbVertex
100
AcDb2dVertex
 10
556.9367699999998
 20
476.7761799999998
 30
0.0
  0
SEQEND
  5
3E5
330
296
100
AcDbEntity
  8
0
  6
PHANTOM
 62
     3
  0
POLYLINE
  5
29A
330
469
100
AcDbEntity
  8
0
  6
PHANTOM
 62
     3
100
AcDb2dPolyline
 66
     1
 10
0.0
 20
0.0
 30
0.0
  0
VERTEX
  5
3E6
330
29A
100
AcDbEntity
  8
0
  6
PHANTOM
 62
     3
100
AcDbVertex
100
AcDb2dVertex
 10
560.9367699999998
 20
476.7761799999998
 30
0.0
  0
VERTEX
  5
3E7
330
29A
100
AcDbEntity
  8
0
  6
PHANTOM
 62
     3
100
AcDbVertex
100
AcDb2dVertex
 10
560.9367699999998
 20
430.77484
 30
0.0
  0
SEQEND
  5
3E8
330
29A
100
AcDbEntity
  8
0
  6
PHANTOM
 62
     3
  0
POLYLINE
  5
29E
330
469
100
AcDbEntity
  8
0
  6
Continuous
 62
     7
100
AcDb2dPolyline
 66
     1
 10
0.0
 20
0.0
 30
0.0
  0
VERTEX
  5
3E9
330
29E
100
AcDbEntity
  8
0
  6
Continuous
 62
     7
100
AcDbVertex
100
AcDb2dVertex
 10
496.4011799999998
 20
440.7761799999998
 30
0.0
  0
VERTEX
  5
3EA
330
29E
100
AcDbEntity
  8
0
  6
Continuous
 62
     7
100
AcDbVertex
100
AcDb2dVertex
 10
487.4011799999998
 20
440.7761799999998
 30
0.0
  0
VERTEX
  5
3EB
330
29E
100
AcDbEntity
  8
0
  6
Continuous
 62
     7
100
AcDbVertex
100
AcDb2dVertex
 10
487.4011799999998
 20
427.7761799999998
 30
0.0
  0
SEQEND
  5
3EC
330
29E
100
AcDbEntity
  8
0
  6
Continuous
 62
     7
  0
POLYLINE
  5
2A3
330
469
100
AcDbEntity
  8
0
  6
Continuous
 62
     7
100
AcDb2dPolyline
 66
     1
 10
0.0
 20
0.0
 30
0.0
  0
VERTEX
  5
3ED
330
2A3
100
AcDbEntity
  8
0
  6
Continuous
 62
     7
100
AcDbVertex
100
AcDb2dVertex
 10
487.4011799999998
 20
427.7761799999998
 30
0.0
  0
VERTEX
  5
3EE
330
2A3
100
AcDbEntity
  8
0
  6
Continuous
 62
     7
100
AcDbVertex
100
AcDb2dVertex
 10
511.4011799999998
 20
427.7761799999998
 30
0.0
  0
VERTEX
  5
3EF
330
2A3
100
AcDbEntity
  8
0
  6
Continuous
 62
     7
100
AcDbVertex
100
AcDb2dVertex
 10
511.4011799999998
 20
440.7761799999998
 30
0.0
  0
VERTEX
  5
3F0
330
2A3
100
AcDbEntity
  8
0
  6
Continuous
 62
     7
100
AcDbVertex
100
AcDb2dVertex
 10
502.4011799999998
 20
440.7761799999998
 30
0.0
  0
SEQEND
  5
3F1
330
2A3
100
AcDbEntity
  8
0
  6
Continuous
 62
     7
  0
POLYLINE
  5
2A9
330
469
100
AcDbEntity
  8
0
  6
Continuous
 62
     7
100
AcDb2dPolyline
 66
     1
 10
0.0
 20
0.0
 30
0.0
  0
VERTEX
  5
3F2
330
2A9
100
AcDbEntity
  8
0
  6
Continuous
 62
     7
100
AcDbVertex
100
AcDb2dVertex
 10
489.4011799999998
 20
440.7761799999998
 30
0.0
  0
VERTEX
  5
3F3
330
2A9
100
AcDbEntity
  8
0
  6
Continuous
 62
     7
100
AcDbVertex
100
AcDb2dVertex
 10
496.4011799999998
 20
440.7761799999998
 30
0.0
  0
VERTEX
  5
3F4
330
2A9
100
AcDbEntity
  8
0
  6
Continuous
 62
     7
100
AcDbVertex
100
AcDb2dVertex
 10
496.4011799999998
 20
444.7761799999998
 30
0.0
  0
VERTEX
  5
3F5
330
2A9
100
AcDbEntity
  8
0
  6
Continuous
 62
     7
100
AcDbVertex
100
AcDb2dVertex
 10
489.4011799999998
 20
444.7761799999998
 30
0.0
  0
SEQEND
  5
3F6
330
2A9
100
AcDbEntity
  8
0
  6
Continuous
 62
     7
  0
POLYLINE
  5
2AF
330
469
100
AcDbEntity
  8
0
  6
Continuous
 62
     7
100
AcDb2dPolyline
 66
     1
 10
0.0
 20
0.0
 30
0.0
  0
VERTEX
  5
3F7
330
2AF
100
AcDbEntity
  8
0
  6
Continuous
 62
     7
100
AcDbVertex
100
AcDb2dVertex
 10
492.0904199999998
 20
444.7761799999998
 30
0.0
  0
VERTEX
  5
3F8
330
2AF
100
AcDbEntity
  8
0
  6
Continuous
 62
     7
100
AcDbVertex
100
AcDb2dVertex
 10
496.4011799999998
 20
444.7761799999998
 30
0.0
  0
SEQEND
  5
3F9
330
2AF
100
AcDbEntity
  8
0
  6
Continuous
 62
     7
  0
POLYLINE
  5
2B3
330
469
100
AcDbEntity
  8
0
  6
Continuous
 62
     7
100
AcDb2dPolyline
 66
     1
 10
0.0
 20
0.0
 30
0.0
  0
VERTEX
  5
3FA
330
2B3
100
AcDbEntity
  8
0
  6
Continuous
 62
     7
100
AcDbVertex
100
AcDb2dVertex
 10
502.4011799999998
 20
440.7761799999998
 30
0.0
  0
VERTEX
  5
3FB
330
2B3
100
AcDbEntity
  8
0
  6
Continuous
 62
     7
100
AcDbVertex
100
AcDb2dVertex
 10
509.4011799999998
 20
440.7761799999998
 30
0.0
  0
SEQEND
  5
3FC
330
2B3
100
AcDbEntity
  8
0
  6
Continuous
 62
     7
  0
POLYLINE
  5
2B7
330
469
100
AcDbEntity
  8
0
  6
Continuous
 62
     7
100
AcDb2dPolyline
 66
     1
 10
0.0
 20
0.0
 30
0.0
  0
VERTEX
  5
3FD
330
2B7
100
AcDbEntity
  8
0
  6
Continuous
 62
     7
100
AcDbVertex
100
AcDb2dVertex
 10
509.4011799999998
 20
444.7761799999998
 30
0.0
  0
VERTEX
  5
3FE
330
2B7
100
AcDbEntity
  8
0
  6
Continuous
 62
     7
100
AcDbVertex
100
AcDb2dVertex
 10
502.4011799999998
 20
444.7761799999998
 30
0.0
  0
VERTEX
  5
3FF
330
2B7
100
AcDbEntity
  8
0
  6
Continuous
 62
     7
100
AcDbVertex
100
AcDb2dVertex
 10
502.4011799999998
 20
440.7761799999998
 30
0.0
  0
SEQEND
  5
400
330
2B7
100
AcDbEntity
  8
0
  6
Continuous
 62
     7
  0
POLYLINE
  5
2BC
330
469
100
AcDbEntity
  8
0
  6
Continuous
 62
     7
100
AcDb2dPolyline
 66
     1
 10
0.0
 20
0.0
 30
0.0
  0
VERTEX
  5
401
330
2BC
100
AcDbEntity
  8
0
  6
Continuous
 62
     7
100
AcDbVertex
100
AcDb2dVertex
 10
612.68677
 20
398.7761799999999
 30
0.0
  0
VERTEX
  5
402
330
2BC
100
AcDbEntity
  8
0
  6
Continuous
 62
     7
100
AcDbVertex
100
AcDb2dVertex
 10
582.68677
 20
398.7761799999999
 30
0.0
  0
VERTEX
  5
403
330
2BC
100
AcDbEntity
  8
0
  6
Continuous
 62
     7
100
AcDbVertex
100
AcDb2dVertex
 10
582.68677
 20
428.7761799999998
 30
0.0
  0
VERTEX
  5
404
330
2BC
100
AcDbEntity
  8
0
  6
Continuous
 62
     7
100
AcDbVertex
100
AcDb2dVertex
 10
612.68677
 20
428.7761799999998
 30
0.0
  0
VERTEX
  5
405
330
2BC
100
AcDbEntity
  8
0
  6
Continuous
 62
     7
100
AcDbVertex
100
AcDb2dVertex
 10
612.68677
 20
398.7761799999999
 30
0.0
  0
SEQEND
  5
406
330
2BC
100
AcDbEntity
  8
0
  6
Continuous
 62
     7
  0
POLYLINE
  5
2C3
330
469
100
AcDbEntity
  8
0
  6
Continuous
 62
     7
100
AcDb2dPolyline
 66
     1
 10
0.0
 20
0.0
 30
0.0
  0
VERTEX
  5
407
330
2C3
100
AcDbEntity
  8
0
  6
Continuous
 62
     7
100
AcDbVertex
100
AcDb2dVertex
 10
606.93677
 20
440.7761799999998
 30
0.0
  0
VERTEX
  5
408
330
2C3
100
AcDbEntity
  8
0
  6
Continuous
 62
     7
100
AcDbVertex
100
AcDb2dVertex
 10
561.93677
 20
440.7761799999998
 30
0.0
  0
SEQEND
  5
409
330
2C3
100
AcDbEntity
  8
0
  6
Continuous
 62
     7
  0
POLYLINE
  5
2C7
330
469
100
AcDbEntity
  8
0
  6
Continuous
 62
     7
100
AcDb2dPolyline
 66
     1
 10
0.0
 20
0.0
 30
0.0
  0
VERTEX
  5
40A
330
2C7
100
AcDbEntity
  8
0
  6
Continuous
 62
     7
100
AcDbVertex
100
AcDb2dVertex
 10
620.18677
 20
428.7761799999998
 30
0.0
  0
VERTEX
  5
40B
330
2C7
100
AcDbEntity
  8
0
  6
Continuous
 62
     7
100
AcDbVertex
100
AcDb2dVertex
 10
575.18677
 20
428.7761799999998
 30
0.0
  0
VERTEX
  5
40C
330
2C7
100
AcDbEntity
  8
0
  6
Continuous
 62
     7
100
AcDbVertex
100
AcDb2dVertex
 10
575.18677
 20
438.7761799999998
 30
0.0
  0
SEQEND
  5
40D
330
2C7
100
AcDbEntity
  8
0
  6
Continuous
 62
     7
  0
POLYLINE
  5
2CC
330
469
100
AcDbEntity
  8
0
  6
Continuous
 62
     7
100
AcDb2dPolyline
 66
     1
 10
0.0
 20
0.0
 30
0.0
  0
VERTEX
  5
40E
330
2CC
100
AcDbEntity
  8
0
  6
Continuous
 62
     7
100
AcDbVertex
100
AcDb2dVertex
 10
575.18677
 20
438.7761799999998
 30
0.0
 42
-0.096815506
  0
VERTEX
  5
40F
330
2CC
100
AcDbEntity
  8
0
  6
Continuous
 62
     7
100
AcDbVertex
100
AcDb2dVertex
 10
575.4681099999998
 20
439.77105
 30
0.0
 42
-0.15870214
  0
VERTEX
  5
410
330
2CC
100
AcDbEntity
  8
0
  6
Continuous
 62
     7
100
AcDbVertex
100
AcDb2dVertex
 10
576.19192
 20
440.49487
 30
0.0
 42
-0.096814584
  0
VERTEX
  5
411
330
2CC
100
AcDbEntity
  8
0
  6
Continuous
 62
     7
100
AcDbVertex
100
AcDb2dVertex
 10
577.18677
 20
440.7761799999998
 30
0.0
  0
SEQEND
  5
412
330
2CC
100
AcDbEntity
  8
0
  6
Continuous
 62
     7
  0
POLYLINE
  5
2D2
330
469
100
AcDbEntity
  8
0
  6
Continuous
 62
     7
100
AcDb2dPolyline
 66
     1
 10
0.0
 20
0.0
 30
0.0
  0
VERTEX
  5
413
330
2D2
100
AcDbEntity
  8
0
  6
Continuous
 62
     7
100
AcDbVertex
100
AcDb2dVertex
 10
577.18677
 20
440.7761799999998
 30
0.0
  0
VERTEX
  5
414
330
2D2
100
AcDbEntity
  8
0
  6
Continuous
 62
     7
100
AcDbVertex
100
AcDb2dVertex
 10
618.18677
 20
440.7761799999998
 30
0.0
  0
SEQEND
  5
415
330
2D2
100
AcDbEntity
  8
0
  6
Continuous
 62
     7
  0
POLYLINE
  5
2D6
330
469
100
AcDbEntity
  8
0
  6
Continuous
 62
     7
100
AcDb2dPolyline
 66
     1
 10
0.0
 20
0.0
 30
0.0
  0
VERTEX
  5
416
330
2D6
100
AcDbEntity
  8
0
  6
Continuous
 62
     7
100
AcDbVertex
100
AcDb2dVertex
 10
618.18677
 20
440.7761799999998
 30
0.0
 42
-0.28706213
  0
VERTEX
  5
417
330
2D6
100
AcDbEntity
  8
0
  6
Continuous
 62
     7
100
AcDbVertex
100
AcDb2dVertex
 10
619.9409900000001
 20
439.66789
 30
0.0
 42
-0.076219858
  0
VERTEX
  5
418
330
2D6
100
AcDbEntity
  8
0
  6
Continuous
 62
     7
100
AcDbVertex
100
AcDb2dVertex
 10
620.3248200000001
 20
437.5233099999999
 30
0.0
 42
-0.028298608
  0
VERTEX
  5
419
330
2D6
100
AcDbEntity
  8
0
  6
Continuous
 62
     7
100
AcDbVertex
100
AcDb2dVertex
 10
620.28246
 20
435.3359
 30
0.0
 42
0.010868901
  0
VERTEX
  5
41A
330
2D6
100
AcDbEntity
  8
0
  6
Continuous
 62
     7
100
AcDbVertex
100
AcDb2dVertex
 10
620.1648699999998
 20
433.1515399999998
 30
0.0
 42
0.0096482716
  0
VERTEX
  5
41B
330
2D6
100
AcDbEntity
  8
0
  6
Continuous
 62
     7
100
AcDbVertex
100
AcDb2dVertex
 10
620.1622599999998
 20
430.96394
 30
0.0
 42
-0.0034226322
  0
VERTEX
  5
41C
330
2D6
100
AcDbEntity
  8
0
  6
Continuous
 62
     7
100
AcDbVertex
100
AcDb2dVertex
 10
620.18677
 20
428.7761799999998
 30
0.0
  0
SEQEND
  5
41D
330
2D6
100
AcDbEntity
  8
0
  6
Continuous
 62
     7
  0
POLYLINE
  5
2DF
330
469
100
AcDbEntity
  8
0
  6
Continuous
 62
     7
100
AcDb2dPolyline
 66
     1
 10
0.0
 20
0.0
 30
0.0
  0
VERTEX
  5
41E
330
2DF
100
AcDbEntity
  8
0
  6
Continuous
 62
     7
100
AcDbVertex
100
AcDb2dVertex
 10
620.18677
 20
438.7761799999998
 30
0.0
  0
VERTEX
  5
41F
330
2DF
100
AcDbEntity
  8
0
  6
Continuous
 62
     7
100
AcDbVertex
100
AcDb2dVertex
 10
620.18677
 20
428.7761799999998
 30
0.0
  0
SEQEND
  5
420
330
2DF
100
AcDbEntity
  8
0
  6
Continuous
 62
     7
  0
POLYLINE
  5
2E3
330
469
100
AcDbEntity
  8
0
  6
Continuous
 62
     7
100
AcDb2dPolyline
 66
     1
 10
0.0
 20
0.0
 30
0.0
  0
VERTEX
  5
421
330
2E3
100
AcDbEntity
  8
0
  6
Continuous
 62
     7
100
AcDbVertex
100
AcDb2dVertex
 10
561.93677
 20
444.7761799999998
 30
0.0
  0
VERTEX
  5
422
330
2E3
100
AcDbEntity
  8
0
  6
Continuous
 62
     7
100
AcDbVertex
100
AcDb2dVertex
 10
604.93677
 20
444.7761799999998
 30
0.0
  0
SEQEND
  5
423
330
2E3
100
AcDbEntity
  8
0
  6
Continuous
 62
     7
  0
POLYLINE
  5
2E7
330
469
100
AcDbEntity
  8
0
  6
Continuous
 62
     7
100
AcDb2dPolyline
 66
     1
 10
0.0
 20
0.0
 30
0.0
  0
VERTEX
  5
424
330
2E7
100
AcDbEntity
  8
0
  6
Continuous
 62
     7
100
AcDbVertex
100
AcDb2dVertex
 10
592.43677
 20
444.7761799999998
 30
0.0
  0
VERTEX
  5
425
330
2E7
100
AcDbEntity
  8
0
  6
Continuous
 62
     7
100
AcDbVertex
100
AcDb2dVertex
 10
592.43677
 20
448.7761799999998
 30
0.0
  0
VERTEX
  5
426
330
2E7
100
AcDbEntity
  8
0
  6
Continuous
 62
     7
100
AcDbVertex
100
AcDb2dVertex
 10
602.93677
 20
448.7761799999998
 30
0.0
  0
VERTEX
  5
427
330
2E7
100
AcDbEntity
  8
0
  6
Continuous
 62
     7
100
AcDbVertex
100
AcDb2dVertex
 10
602.93677
 20
444.7761799999998
 30
0.0
  0
SEQEND
  5
428
330
2E7
100
AcDbEntity
  8
0
  6
Continuous
 62
     7
  0
POLYLINE
  5
2ED
330
469
100
AcDbEntity
  8
0
  6
Continuous
 62
     7
100
AcDb2dPolyline
 66
     1
 10
0.0
 20
0.0
 30
0.0
  0
VERTEX
  5
429
330
2ED
100
AcDbEntity
  8
0
  6
Continuous
 62
     7
100
AcDbVertex
100
AcDb2dVertex
 10
602.93677
 20
440.7761799999998
 30
0.0
  0
VERTEX
  5
42A
330
2ED
100
AcDbEntity
  8
0
  6
Continuous
 62
     7
100
AcDbVertex
100
AcDb2dVertex
 10
592.43677
 20
440.7761799999998
 30
0.0
  0
SEQEND
  5
42B
330
2ED
100
AcDbEntity
  8
0
  6
Continuous
 62
     7
  0
POLYLINE
  5
2F1
330
469
100
AcDbEntity
  8
0
  6
Continuous
 62
     7
100
AcDb2dPolyline
 66
     1
 10
0.0
 20
0.0
 30
0.0
  0
VERTEX
  5
42C
330
2F1
100
AcDbEntity
  8
0
  6
Continuous
 62
     7
100
AcDbVertex
100
AcDb2dVertex
 10
604.18677
 20
448.7761799999998
 30
0.0
  0
VERTEX
  5
42D
330
2F1
100
AcDbEntity
  8
0
  6
Continuous
 62
     7
100
AcDbVertex
100
AcDb2dVertex
 10
591.18677
 20
448.7761799999998
 30
0.0
  0
VERTEX
  5
42E
330
2F1
100
AcDbEntity
  8
0
  6
Continuous
 62
     7
100
AcDbVertex
100
AcDb2dVertex
 10
591.18677
 20
450.27618
 30
0.0
  0
VERTEX
  5
42F
330
2F1
100
AcDbEntity
  8
0
  6
Continuous
 62
     7
100
AcDbVertex
100
AcDb2dVertex
 10
591.68677
 20
450.7761799999998
 30
0.0
  0
VERTEX
  5
430
330
2F1
100
AcDbEntity
  8
0
  6
Continuous
 62
     7
100
AcDbVertex
100
AcDb2dVertex
 10
603.68677
 20
450.7761799999998
 30
0.0
  0
VERTEX
  5
431
330
2F1
100
AcDbEntity
  8
0
  6
Continuous
 62
     7
100
AcDbVertex
100
AcDb2dVertex
 10
604.18677
 20
450.27618
 30
0.0
  0
VERTEX
  5
432
330
2F1
100
AcDbEntity
  8
0
  6
Continuous
 62
     7
100
AcDbVertex
100
AcDb2dVertex
 10
604.18677
 20
448.7761799999998
 30
0.0
  0
SEQEND
  5
433
330
2F1
100
AcDbEntity
  8
0
  6
Continuous
 62
     7
  0
TEXT
  5
2FE
330
469
100
AcDbEntity
  8
0
  6
Continuous
 62
     7
100
AcDbText
 10
370.41241
 20
570.1399
 30
0.0
 40
3.2
  1
品　名
 41
0.60999997
100
AcDbText
  0
TEXT
  5
2FF
330
469
100
AcDbEntity
  8
0
  6
Continuous
 62
     7
100
AcDbText
 10
370.41241
 20
562.1399
 30
0.0
 40
3.2
  1
品　番
 41
0.60999997
100
AcDbText
  0
TEXT
  5
300
330
469
100
AcDbEntity
  8
0
  6
Continuous
 62
     7
100
AcDbText
 10
370.41241
 20
554.1399
 30
0.0
 40
3.2
  1
材　質
 41
0.60999997
100
AcDbText
  0
TEXT
  5
301
330
469
100
AcDbEntity
  8
0
  6
Continuous
 62
     7
100
AcDbText
 10
370.41241
 20
546.1399
 30
0.0
 40
3.2
  1
仕上げ
 41
0.60999997
100
AcDbText
  0
TEXT
  5
302
330
469
100
AcDbEntity
  8
0
  6
Continuous
 62
     7
100
AcDbText
 10
367.21243
 20
522.1398999999999
 30
0.0
 40
3.2
  1
セットビス
 41
0.6099999900000001
100
AcDbText
  0
TEXT
  5
303
330
469
100
AcDbEntity
  8
0
  6
Continuous
 62
     7
100
AcDbText
 10
372.01243
 20
498.1399
 30
0.0
 40
3.2
  1
備考
 41
0.61
100
AcDbText
  0
TEXT
  5
304
330
469
100
AcDbEntity
  8
0
  6
Continuous
 62
     7
100
AcDbText
 10
370.41241
 20
538.1399
 30
0.0
 40
3.2
  1
定　尺
 41
0.60999997
100
AcDbText
  0
TEXT
  5
305
330
469
100
AcDbEntity
  8
0
  6
Continuous
 62
     7
100
AcDbText
 10
368.81243
 20
530.1398999999999
 30
0.0
 40
3.2
  1
左右勝手
 41
0.60999998
100
AcDbText
  0
TEXT
  5
306
330
469
100
AcDbEntity
  8
0
  6
Continuous
 62
     7
100
AcDbText
 10
387.61241
 20
568.53993
 30
0.0
 40
3.2
  1
ドアーストップ（フック付）
 41
0.75000003
100
AcDbText
  0
TEXT
  5
307
330
469
100
AcDbEntity
  8
0
  6
Continuous
 62
     7
100
AcDbText
 10
387.61242
 20
560.53993
 30
0.0
 40
3.2
  1
DCF-56-40
 41
0.75974022
100
AcDbText
  0
TEXT
  5
308
330
469
100
AcDbEntity
  8
0
  6
Continuous
 62
     7
100
AcDbText
 10
387.61242
 20
552.53993
 30
0.0
 40
3.2
  1
亜鉛ダイキャスト
 41
0.7499999800000002
100
AcDbText
  0
TEXT
  5
309
330
469
100
AcDbEntity
  8
0
  6
Continuous
 62
     7
100
AcDbText
 10
387.61241
 20
544.53993
 30
0.0
 40
3.2
  1
サーチライトニッケルクロム
 41
0.75000003
100
AcDbText
  0
TEXT
  5
30A
330
469
100
AcDbEntity
  8
0
  6
Continuous
 62
     7
100
AcDbText
 10
387.6124299999998
 20
528.53993
 30
0.0
 40
3.2
  1
無し
 41
0.74999999
100
AcDbText
  0
TEXT
  5
30B
330
469
100
AcDbEntity
  8
0
  6
Continuous
 62
     7
100
AcDbText
 10
387.61242
 20
520.53993
 30
0.0
 40
3.2
  1
Ｍ４×１６サラ小ネジ＋ＳＵＳ２本付
 41
0.72126053
100
AcDbText
  0
TEXT
  5
30C
330
469
100
AcDbEntity
  8
0
  6
Continuous
 62
     7
100
AcDbText
 10
387.61242
 20
512.5398999999998
 30
0.0
 40
3.2
  1
呼４．１×３２サラ木ネジ＋ＳＵＳ２本付
 41
0.7115095500000001
100
AcDbText
  0
TEXT
  5
30D
330
469
100
AcDbEntity
  8
0
  6
Continuous
 62
     7
100
AcDbText
 10
387.61242
 20
496.5398999999998
 30
0.0
 40
3.2
  1
オールアンカーＭ１０×６０付
 41
0.71495181
100
AcDbText
  0
TEXT
  5
30E
330
469
100
AcDbEntity
  8
0
  6
Continuous
 62
     3
100
AcDbText
 10
651.91045
 20
511.6454199999998
 30
0.0
 40
3.2
  1
4
100
AcDbText
  0
TEXT
  5
30F
330
469
100
AcDbEntity
  8
0
  6
Continuous
 62
     3
100
AcDbText
 10
679.21047
 20
522.1326699999998
 30
0.0
 40
3.2
  1
50
 41
1.071428599999999
100
AcDbText
  0
TEXT
  5
310
330
469
100
AcDbEntity
  8
0
  6
Continuous
 62
     3
100
AcDbText
 10
593.1160999999997
 20
490.2761899999998
 30
0.0
 40
3.2
  1
%%C４５
 41
0.90021012
100
AcDbText
  0
TEXT
  5
311
330
469
100
AcDbEntity
  8
0
  6
Continuous
 62
     3
100
AcDbText
 10
593.1160999999997
 20
462.2761899999998
 30
0.0
 40
3.2
  1
%%C１３
 41
0.90021012
100
AcDbText
  0
TEXT
  5
312
330
469
100
AcDbEntity
  8
0
  6
Continuous
 62
     3
100
AcDbText
 10
559.2700999999998
 20
490.2761899999998
 30
0.0
 40
3.2
  1
10
 41
1.363636399999999
100
AcDbText
  0
TEXT
  5
313
330
469
100
AcDbEntity
  8
0
  6
Continuous
 62
     3
100
AcDbText
 10
633.68643
 20
432.10952
 30
0.0
 40
3.2
  1
12
 50
90.00000300000001
 41
1.25
100
AcDbText
  0
TEXT
  5
314
330
469
100
AcDbEntity
  8
0
  6
Continuous
 62
     3
100
AcDbText
 10
633.6867900000002
 20
411.1095199999998
 30
0.0
 40
3.2
  1
30
 50
90.00000300000001
 41
1.071428599999999
100
AcDbText
  0
TEXT
  5
315
330
469
100
AcDbEntity
  8
0
  6
Continuous
 62
     3
100
AcDbText
 10
643.6867900000001
 20
443.1095199999998
 30
0.0
 40
3.2
  1
10
 50
90.00000300000001
 41
1.363636399999999
100
AcDbText
  0
TEXT
  5
316
330
469
100
AcDbEntity
  8
0
  6
Continuous
 62
     3
100
AcDbText
 10
643.6864299999997
 20
417.1095199999999
 30
0.0
 40
3.2
  1
42
 50
90.00000300000001
100
AcDbText
  0
TEXT
  5
317
330
469
100
AcDbEntity
  8
0
  6
Continuous
 62
     3
100
AcDbText
 10
643.6867900000001
 20
376.10952
 30
0.0
 40
3.2
  1
40
 50
90.00000300000001
 41
1.071428599999999
100
AcDbText
  0
TEXT
  5
318
330
469
100
AcDbEntity
  8
0
  6
Continuous
 62
     3
100
AcDbText
 10
593.1160999999997
 20
335.2761899999999
 30
0.0
 40
3.2
  1
%%C３０
 41
0.90021012
100
AcDbText
  0
TEXT
  5
319
330
469
100
AcDbEntity
  8
0
  6
Continuous
 62
     3
100
AcDbText
 10
545.4367900000002
 20
457.10952
 30
0.0
 40
3.2
  1
34
 50
90.00000300000001
100
AcDbText
  0
TEXT
  5
31A
330
469
100
AcDbEntity
  8
0
  6
Continuous
 62
     3
100
AcDbText
 10
545.4364299999999
 20
426.6095199999998
 30
0.0
 40
3.2
  1
27
 50
90.00000300000001
100
AcDbText
  0
TEXT
  5
31B
330
469
100
AcDbEntity
  8
0
  6
Continuous
 62
     3
100
AcDbText
 10
535.4367899999998
 20
443.6095199999998
 30
0.0
 40
3.2
  1
61
 50
90.00000300000001
 41
1.1538462
100
AcDbText
  0
TEXT
  5
31C
330
469
100
AcDbEntity
  8
0
  6
Continuous
 62
     3
100
AcDbText
 10
545.4367900000002
 20
404.6095199999999
 30
0.0
 40
3.2
  1
17
 50
90.00000300000001
 41
1.25
100
AcDbText
  0
TEXT
  5
31D
330
469
100
AcDbEntity
  8
0
  6
Continuous
 62
     3
100
AcDbText
 10
524.90115
 20
418.20952
 30
0.0
 40
3.2
  1
7
 50
90.00000300000001
100
AcDbText
  0
TEXT
  5
31E
330
469
100
AcDbEntity
  8
0
  6
Continuous
 62
     3
100
AcDbText
 10
524.90115
 20
435.1095199999998
 30
0.0
 40
3.2
  1
30
 50
90.00000300000001
 41
1.071428599999999
100
AcDbText
  0
TEXT
  5
31F
330
469
100
AcDbEntity
  8
0
  6
Continuous
 62
     3
100
AcDbText
 10
524.90084
 20
462.10952
 30
0.0
 40
3.2
  1
24
 50
90.00000300000001
100
AcDbText
  0
TEXT
  5
320
330
469
100
AcDbEntity
  8
0
  6
Continuous
 62
     3
100
AcDbText
 10
496.7345199999998
 20
402.2764999999997
 30
0.0
 40
3.2
  1
24
100
AcDbText
  0
TEXT
  5
321
330
469
100
AcDbEntity
  8
0
  6
Continuous
 62
     3
100
AcDbText
 10
614.3638546330759
 20
345.43619
 30
0.0
 40
3.2
  1
（ドリル径%%C１０．５）
 41
0.9151785399999999
100
AcDbText
  0
TEXT
  5
322
330
469
100
AcDbEntity
  8
0
  6
Continuous
 62
     3
100
AcDbText
 10
431.862
 20
392.2765
 30
0.0
 40
3.2
  1
２－%%C４．５×%%C８．５サラ
 41
0.8991596299999999
100
AcDbText
  0
INSERT
  5
323
330
469
100
AcDbEntity
  8
0
  6
Continuous
 62
     7
100
AcDbBlockReference
  2
KOZU0001
 10
660.8771400000001
 20
510.14545
 30
0.0
  0
INSERT
  5
324
330
469
100
AcDbEntity
  8
0
  6
Continuous
 62
     7
100
AcDbBlockReference
  2
KOZU0002
 10
656.8771400000001
 20
510.14545
 30
0.0
  0
INSERT
  5
325
330
469
100
AcDbEntity
  8
0
  6
Continuous
 62
     7
100
AcDbBlockReference
  2
KOZU0003
 10
656.8771400000001
 20
520.63269
 30
0.0
  0
INSERT
  5
326
330
469
100
AcDbEntity
  8
0
  6
Continuous
 62
     7
100
AcDbBlockReference
  2
KOZU0004
 10
706.8771400000001
 20
520.63269
 30
0.0
  0
INSERT
  5
327
330
469
100
AcDbEntity
  8
0
  6
Continuous
 62
     7
100
AcDbBlockReference
  2
KOZU0005
 10
575.18677
 20
488.7761799999998
 30
0.0
  0
INSERT
  5
328
330
469
100
AcDbEntity
  8
0
  6
Continuous
 62
     7
100
AcDbBlockReference
  2
KOZU0006
 10
620.18677
 20
488.7761799999998
 30
0.0
  0
INSERT
  5
329
330
469
100
AcDbEntity
  8
0
  6
Continuous
 62
     7
100
AcDbBlockReference
  2
KOZU0007
 10
591.18677
 20
460.7761799999998
 30
0.0
  0
INSERT
  5
32A
330
469
100
AcDbEntity
  8
0
  6
Continuous
 62
     7
100
AcDbBlockReference
  2
KOZU0008
 10
604.18677
 20
460.7761799999998
 30
0.0
  0
INSERT
  5
32B
330
469
100
AcDbEntity
  8
0
  6
Continuous
 62
     7
100
AcDbBlockReference
  2
KOZU0009
 10
556.9367699999998
 20
488.7761799999998
 30
0.0
  0
INSERT
  5
32C
330
469
100
AcDbEntity
  8
0
  6
Continuous
 62
     7
100
AcDbBlockReference
  2
KOZU0010
 10
566.93677
 20
488.7761799999998
 30
0.0
  0
INSERT
  5
32D
330
469
100
AcDbEntity
  8
0
  6
Continuous
 62
     7
100
AcDbBlockReference
  2
KOZU0011
 10
635.18677
 20
440.7761799999998
 30
0.0
  0
INSERT
  5
32E
330
469
100
AcDbEntity
  8
0
  6
Continuous
 62
     7
100
AcDbBlockReference
  2
KOZU0012
 10
635.18677
 20
428.7761799999998
 30
0.0
  0
INSERT
  5
32F
330
469
100
AcDbEntity
  8
0
  6
Continuous
 62
     7
100
AcDbBlockReference
  2
KOZU0013
 10
635.18677
 20
428.7761799999998
 30
0.0
  0
INSERT
  5
330
330
469
100
AcDbEntity
  8
0
  6
Continuous
 62
     7
100
AcDbBlockReference
  2
KOZU0014
 10
635.18677
 20
398.7761799999999
 30
0.0
  0
INSERT
  5
331
330
469
100
AcDbEntity
  8
0
  6
Continuous
 62
     7
100
AcDbBlockReference
  2
KOZU0015
 10
645.18677
 20
450.7761799999998
 30
0.0
  0
INSERT
  5
332
330
469
100
AcDbEntity
  8
0
  6
Continuous
 62
     7
100
AcDbBlockReference
  2
KOZU0016
 10
645.18677
 20
440.7761799999998
 30
0.0
  0
INSERT
  5
333
330
469
100
AcDbEntity
  8
0
  6
Continuous
 62
     7
100
AcDbBlockReference
  2
KOZU0017
 10
645.18677
 20
440.7761799999998
 30
0.0
  0
INSERT
  5
334
330
469
100
AcDbEntity
  8
0
  6
Continuous
 62
     7
100
AcDbBlockReference
  2
KOZU0018
 10
645.18677
 20
398.7761799999999
 30
0.0
  0
INSERT
  5
335
330
469
100
AcDbEntity
  8
0
  6
Continuous
 62
     7
100
AcDbBlockReference
  2
KOZU0019
 10
645.18677
 20
398.7761799999999
 30
0.0
  0
INSERT
  5
336
330
469
100
AcDbEntity
  8
0
  6
Continuous
 62
     7
100
AcDbBlockReference
  2
KOZU0020
 10
645.18677
 20
358.7761799999999
 30
0.0
  0
INSERT
  5
337
330
469
100
AcDbEntity
  8
0
  6
Continuous
 62
     7
100
AcDbBlockReference
  2
KOZU0021
 10
582.68677
 20
333.7761799999999
 30
0.0
  0
INSERT
  5
338
330
469
100
AcDbEntity
  8
0
  6
Continuous
 62
     7
100
AcDbBlockReference
  2
KOZU0022
 10
612.68677
 20
333.7761799999999
 30
0.0
  0
INSERT
  5
339
330
469
100
AcDbEntity
  8
0
  6
Continuous
 62
     7
100
AcDbBlockReference
  2
KOZU0023
 10
546.93677
 20
476.7761799999998
 30
0.0
  0
INSERT
  5
33A
330
469
100
AcDbEntity
  8
0
  6
Continuous
 62
     7
100
AcDbBlockReference
  2
KOZU0024
 10
546.93677
 20
442.7761799999998
 30
0.0
  0
INSERT
  5
33B
330
469
100
AcDbEntity
  8
0
  6
Continuous
 62
     7
100
AcDbBlockReference
  2
KOZU0025
 10
546.93677
 20
442.7761799999998
 30
0.0
  0
INSERT
  5
33C
330
469
100
AcDbEntity
  8
0
  6
Continuous
 62
     7
100
AcDbBlockReference
  2
KOZU0026
 10
546.93677
 20
415.7761799999998
 30
0.0
  0
INSERT
  5
33D
330
469
100
AcDbEntity
  8
0
  6
Continuous
 62
     7
100
AcDbBlockReference
  2
KOZU0027
 10
536.93677
 20
476.7761799999998
 30
0.0
  0
INSERT
  5
33E
330
469
100
AcDbEntity
  8
0
  6
Continuous
 62
     7
100
AcDbBlockReference
  2
KOZU0028
 10
536.93677
 20
415.7761799999998
 30
0.0
  0
INSERT
  5
33F
330
469
100
AcDbEntity
  8
0
  6
Continuous
 62
     7
100
AcDbBlockReference
  2
KOZU0029
 10
546.93677
 20
415.7761799999998
 30
0.0
  0
INSERT
  5
340
330
469
100
AcDbEntity
  8
0
  6
Continuous
 62
     7
100
AcDbBlockReference
  2
KOZU0030
 10
546.93677
 20
398.7761799999999
 30
0.0
  0
INSERT
  5
341
330
469
100
AcDbEntity
  8
0
  6
Continuous
 62
     7
100
AcDbBlockReference
  2
KOZU0031
 10
526.4011799999998
 20
415.7761799999998
 30
0.0
  0
INSERT
  5
342
330
469
100
AcDbEntity
  8
0
  6
Continuous
 62
     7
100
AcDbBlockReference
  2
KOZU0032
 10
526.4011799999998
 20
422.7761799999998
 30
0.0
  0
INSERT
  5
343
330
469
100
AcDbEntity
  8
0
  6
Continuous
 62
     7
100
AcDbBlockReference
  2
KOZU0033
 10
526.4011799999998
 20
422.7761799999998
 30
0.0
  0
INSERT
  5
344
330
469
100
AcDbEntity
  8
0
  6
Continuous
 62
     7
100
AcDbBlockReference
  2
KOZU0034
 10
526.4011799999998
 20
452.7761799999998
 30
0.0
  0
INSERT
  5
345
330
469
100
AcDbEntity
  8
0
  6
Continuous
 62
     7
100
AcDbBlockReference
  2
KOZU0035
 10
526.4011799999998
 20
476.7761799999998
 30
0.0
  0
INSERT
  5
346
330
469
100
AcDbEntity
  8
0
  6
Continuous
 62
     7
100
AcDbBlockReference
  2
KOZU0036
 10
526.4011799999998
 20
452.7761799999998
 30
0.0
  0
INSERT
  5
347
330
469
100
AcDbEntity
  8
0
  6
Continuous
 62
     7
100
AcDbBlockReference
  2
KOZU0037
 10
511.4011799999998
 20
400.7761799999998
 30
0.0
  0
INSERT
  5
348
330
469
100
AcDbEntity
  8
0
  6
Continuous
 62
     7
100
AcDbBlockReference
  2
KOZU0038
 10
487.4011799999998
 20
400.7761799999998
 30
0.0
  0
INSERT
  5
349
330
469
100
AcDbEntity
  8
0
  6
Continuous
 62
     7
100
AcDbBlockReference
  2
KOZU0039
 10
592.68677
 20
343.7761799999998
 30
0.0
  0
INSERT
  5
34A
330
469
100
AcDbEntity
  8
0
  6
Continuous
 62
     7
100
AcDbBlockReference
  2
KOZU0040
 10
602.68677
 20
343.7761799999998
 30
0.0
  0
INSERT
  5
34B
330
469
100
AcDbEntity
  8
0
  6
Continuous
 62
     7
100
AcDbBlockReference
  2
KOZU0041
 10
502.2039499999998
 20
425.9710099999998
 30
0.0
  0
INSERT
  5
34C
330
469
100
AcDbEntity
  8
0
  6
Continuous
 62
     7
100
AcDbBlockReference
  2
KOZU0042
 10
496.59839
 20
419.5813599999998
 30
0.0
  0
ENDSEC
  0
SECTION
  2
OBJECTS
  0
DICTIONARY
  5
43F
330
0
100
AcDbDictionary
281
     1
  3
ACAD_2007HEADERVARS_RT
350
629
  3
ACAD_COLOR
350
462
  3
ACAD_GROUP
350
440
  3
ACAD_LAYOUT
350
461
  3
ACAD_MATERIAL
350
443
  3
ACAD_MLINESTYLE
350
45E
  3
ACAD_PLOTSETTINGS
350
460
  3
ACAD_PLOTSTYLENAME
350
441
  3
ACAD_TABLESTYLE
350
463
  3
ACAD_VISUALSTYLE
350
447
  3
AcDbVariableDictionary
350
582
  3
AcmDictionary
350
528
  3
AMG
350
4CF
  3
AMGSNAPSETTINGS
350
57B
  3
DWGPROPS
350
628
  0
DICTIONARY
  5
629
102
{ACAD_REACTORS
330
43F
102
}
330
43F
100
AcDbDictionary
281
     1
  3
DIMARCSYM
350
62A
  0
DICTIONARY
  5
462
102
{ACAD_REACTORS
330
43F
102
}
330
43F
100
AcDbDictionary
281
     1
  0
DICTIONARY
  5
440
102
{ACAD_REACTORS
330
43F
102
}
330
43F
100
AcDbDictionary
281
     1
  0
DICTIONARY
  5
461
102
{ACAD_REACTORS
330
43F
102
}
330
43F
100
AcDbDictionary
281
     1
  3
Model
350
46C
  3
レイアウト1
350
468
  0
DICTIONARY
  5
443
102
{ACAD_REACTORS
330
43F
102
}
330
43F
100
AcDbDictionary
281
     1
  3
ByBlock
350
445
  3
ByLayer
350
444
  3
Global
350
446
  0
DICTIONARY
  5
45E
102
{ACAD_REACTORS
330
43F
102
}
330
43F
100
AcDbDictionary
281
     1
  3
Standard
350
45F
  0
DICTIONARY
  5
460
102
{ACAD_REACTORS
330
43F
102
}
330
43F
100
AcDbDictionary
281
     1
  0
ACDBDICTIONARYWDFLT
  5
441
102
{ACAD_REACTORS
330
43F
102
}
330
43F
100
AcDbDictionary
281
     1
  3
Normal
350
442
100
AcDbDictionaryWithDefault
340
442
  0
DICTIONARY
  5
463
102
{ACAD_REACTORS
330
43F
102
}
330
43F
100
AcDbDictionary
281
     1
  3
Standard
350
464
  0
DICTIONARY
  5
447
102
{ACAD_REACTORS
330
43F
102
}
330
43F
100
AcDbDictionary
281
     1
  3
2dWireframe
350
44D
  3
3D Hidden
350
44F
  3
3dWireframe
350
44E
  3
Basic
350
44C
  3
Brighten
350
453
  3
ColorChange
350
457
  3
Conceptual
350
450
  3
Dim
350
452
  3
Facepattern
350
456
  3
Flat
350
448
  3
FlatWithEdges
350
449
  3
Gouraud
350
44A
  3
GouraudWithEdges
350
44B
  3
Linepattern
350
455
  3
Realistic
350
451
  3
Thicken
350
454
  0
DICTIONARY
  5
582
102
{ACAD_REACTORS
330
43F
102
}
330
43F
100
AcDbDictionary
281
     1
  3
CTABLESTYLE
350
583
  3
DIMASSOC
350
627
  3
INDEXCTL
350
626
  3
SORTENTS
350
625
  0
DICTIONARY
  5
528
102
{ACAD_REACTORS
330
43F
102
}
330
43F
100
AcDbDictionary
281
     1
  3
AcmStdDictionary
350
533
  3
AMDTSECTSYM_ARROWCOLOR
350
554
  0
DICTIONARY
  5
4CF
102
{ACAD_REACTORS
330
43F
102
}
330
43F
100
AcDbDictionary
281
     1
  0
DICTIONARY
  5
57B
102
{ACAD_REACTORS
330
43F
102
}
330
43F
100
AcDbDictionary
281
     1
  0
XRECORD
  5
628
102
{ACAD_REACTORS
330
43F
102
}
330
43F
100
AcDbXrecord
280
     1
  1
DWGPROPS COOKIE
  2

  3

  4

  6

  7

  8
Administrator
  9

300
=
301
=
302
=
303
=
304
=
305
=
306
=
307
=
308
=
309
=
 40
0.0095933680555556
 41
2452815.368521435
 42
2454597.577865116
  1

 90
        0
  0
XRECORD
  5
62A
102
{ACAD_REACTORS
330
629
102
}
330
629
100
AcDbXrecord
280
     1
 70
     1
  0
LAYOUT
  5
46C
102
{ACAD_XDICTIONARY
360
62F
102
}
102
{ACAD_REACTORS
330
461
102
}
330
461
100
AcDbPlotSettings
  1

  2
\\CAD-SRV01\FX DocuColor 1250 PLW
  4

  6

 40
0.0
 41
0.0
 42
0.0
 43
0.0
 44
0.0
 45
0.0
 46
0.0
 47
0.0
 48
0.0
 49
0.0
140
0.0
141
0.0
142
1.0
143
1.0
 70
  1712
 72
     0
 73
     0
 74
     0
  7

 75
     0
147
1.0
148
0.0
149
0.0
100
AcDbLayout
  1
Model
 70
     1
 71
     0
 10
0.0
 20
0.0
 11
12.0
 21
9.0
 12
0.0
 22
0.0
 32
0.0
 14
0.0
 24
0.0
 34
0.0
 15
0.0
 25
0.0
 35
0.0
146
0.0
 13
0.0
 23
0.0
 33
0.0
 16
1.0
 26
0.0
 36
0.0
 17
0.0
 27
1.0
 37
0.0
 76
     0
330
469
331
46D
  0
LAYOUT
  5
468
102
{ACAD_XDICTIONARY
360
62D
102
}
102
{ACAD_REACTORS
330
461
102
}
330
461
100
AcDbPlotSettings
  1

  2
\\CAD-SRV01\FX DocuColor 1250 PLW
  4

  6

 40
0.0
 41
0.0
 42
0.0
 43
0.0
 44
0.0
 45
0.0
 46
0.0
 47
0.0
 48
0.0
 49
0.0
140
0.0
141
0.0
142
1.0
143
1.0
 70
   688
 72
     0
 73
     0
 74
     5
  7

 75
    16
147
1.0
148
0.0
149
0.0
100
AcDbLayout
  1
レイアウト1
 70
     1
 71
     1
 10
344.6839
 20
289.13989
 11
764.6838999999999
 21
586.13989
 12
0.0
 22
0.0
 32
0.0
 14
1.000000000000000E+20
 24
1.000000000000000E+20
 34
1.000000000000000E+20
 15
-1.000000000000000E+20
 25
-1.000000000000000E+20
 35
-1.000000000000000E+20
146
0.0
 13
0.0
 23
0.0
 33
0.0
 16
1.0
 26
0.0
 36
0.0
 17
0.0
 27
1.0
 37
0.0
 76
     0
330
465
  0
MATERIAL
  5
445
102
{ACAD_XDICTIONARY
360
586
102
}
102
{ACAD_REACTORS
330
443
102
}
330
443
100
AcDbMaterial
  1
ByBlock
  0
MATERIAL
  5
444
102
{ACAD_XDICTIONARY
360
584
102
}
102
{ACAD_REACTORS
330
443
102
}
330
443
100
AcDbMaterial
  1
ByLayer
  0
MATERIAL
  5
446
102
{ACAD_XDICTIONARY
360
588
102
}
102
{ACAD_REACTORS
330
443
102
}
330
443
100
AcDbMaterial
  1
Global
  0
MLINESTYLE
  5
45F
102
{ACAD_REACTORS
330
45E
102
}
330
45E
100
AcDbMlineStyle
  2
STANDARD
 70
     0
  3

 62
   256
 51
90.0
 52
90.0
 71
     2
 49
0.5
 62
   256
  6
BYLAYER
 49
-0.5
 62
   256
  6
BYLAYER
  0
ACDBPLACEHOLDER
  5
442
102
{ACAD_REACTORS
330
441
102
}
330
441
  0
TABLESTYLE
  5
464
102
{ACAD_XDICTIONARY
360
62B
102
}
102
{ACAD_REACTORS
330
463
102
}
330
463
100
AcDbTableStyle
  3
Standard
 70
     0
 71
     0
 40
0.06
 41
0.06
280
     0
281
     0
  7
STANDARD
140
0.18
170
     2
 62
     0
 63
     7
283
     0
274
    -2
284
     1
 64
     0
275
    -2
285
     1
 65
     0
276
    -2
286
     1
 66
     0
277
    -2
287
     1
 67
     0
278
    -2
288
     1
 68
     0
279
    -2
289
     1
 69
     0
  7
STANDARD
140
0.25
170
     5
 62
     0
 63
     7
283
     0
274
    -2
284
     1
 64
     0
275
    -2
285
     1
 65
     0
276
    -2
286
     1
 66
     0
277
    -2
287
     1
 67
     0
278
    -2
288
     1
 68
     0
279
    -2
289
     1
 69
     0
  7
STANDARD
140
0.18
170
     5
 62
     0
 63
     7
283
     0
274
    -2
284
     1
 64
     0
275
    -2
285
     1
 65
     0
276
    -2
286
     1
 66
     0
277
    -2
287
     1
 67
     0
278
    -2
288
     1
 68
     0
279
    -2
289
     1
 69
     0
  0
VISUALSTYLE
  5
44D
102
{ACAD_REACTORS
330
447
102
}
330
447
100
AcDbVisualStyle
  2
2dWireframe
 70
     4
 71
     0
 72
     2
 73
     0
 90
        0
 40
-0.6
 41
-30.0
 62
     5
 63
     7
 74
     1
 91
        4
 64
     7
 65
   257
 75
     1
175
     1
 42
1.0
 92
        0
 66
   257
 43
1.0
 76
     1
 77
     6
 78
     2
 67
     7
 79
     5
170
     0
171
     0
290
     0
174
     0
 93
        1
 44
0.0
173
     0
291
     0
 45
0.0
1001
ACAD
1000
AcDbSavedByObjectVersion
1070
     0
  0
VISUALSTYLE
  5
44F
102
{ACAD_REACTORS
330
447
102
}
330
447
100
AcDbVisualStyle
  2
3D Hidden
 70
     6
 71
     1
 72
     2
 73
     2
 90
        0
 40
-0.6
 41
-30.0
 62
     5
 63
     7
 74
     2
 91
        2
 64
     7
 65
   257
 75
     2
175
     1
 42
40.0
 92
        0
 66
   257
 43
1.0
 76
     1
 77
     6
 78
     2
 67
     7
 79
     3
170
     0
171
     0
290
     0
174
     0
 93
        1
 44
0.0
173
     0
291
     0
 45
0.0
1001
ACAD
1000
AcDbSavedByObjectVersion
1070
     0
  0
VISUALSTYLE
  5
44E
102
{ACAD_REACTORS
330
447
102
}
330
447
100
AcDbVisualStyle
  2
3dWireframe
 70
     5
 71
     0
 72
     2
 73
     0
 90
        0
 40
-0.6
 41
-30.0
 62
     5
 63
     7
 74
     1
 91
        4
 64
     7
 65
   257
 75
     1
175
     1
 42
1.0
 92
        0
 66
   257
 43
1.0
 76
     1
 77
     6
 78
     2
 67
     7
 79
     5
170
     0
171
     0
290
     0
174
     0
 93
        1
 44
0.0
173
     0
291
     0
 45
0.0
1001
ACAD
1000
AcDbSavedByObjectVersion
1070
     0
  0
VISUALSTYLE
  5
44C
102
{ACAD_REACTORS
330
447
102
}
330
447
100
AcDbVisualStyle
  2
Basic
 70
     7
 71
     1
 72
     0
 73
     1
 90
        0
 40
-0.6
 41
-30.0
 62
     5
 63
     7
 74
     0
 91
        4
 64
     7
 65
   257
 75
     1
175
     1
 42
1.0
 92
        8
 66
     7
 43
1.0
 76
     1
 77
     6
 78
     2
 67
     7
 79
     5
170
     0
171
     0
290
     0
174
     0
 93
        1
 44
0.0
173
     0
291
     1
 45
0.0
1001
ACAD
1000
AcDbSavedByObjectVersion
1070
     0
  0
VISUALSTYLE
  5
453
102
{ACAD_REACTORS
330
447
102
}
330
447
100
AcDbVisualStyle
  2
Brighten
 70
    12
 71
     2
 72
     2
 73
     0
 90
        0
 40
-0.6
 41
-30.0
 62
     5
 63
     7
 74
     1
 91
        4
 64
     7
 65
   257
 75
     1
175
     1
 42
1.0
 92
        8
 66
     7
 43
1.0
 76
     1
 77
     6
 78
     2
 67
     7
 79
     5
170
     0
171
     0
290
     0
174
     0
 93
        1
 44
50.0
173
     0
291
     1
 45
0.0
1001
ACAD
1000
AcDbSavedByObjectVersion
1070
     0
  0
VISUALSTYLE
  5
457
102
{ACAD_REACTORS
330
447
102
}
330
447
100
AcDbVisualStyle
  2
ColorChange
 70
    16
 71
     2
 72
     2
 73
     3
 90
        0
 40
-0.6
 41
-30.0
 62
     5
 63
     8
 74
     1
 91
        4
 64
     7
 65
   257
 75
     1
175
     1
 42
1.0
 92
        8
 66
     8
 43
1.0
 76
     1
 77
     6
 78
     2
 67
     7
 79
     5
170
     0
171
     0
290
     0
174
     0
 93
        1
 44
0.0
173
     0
291
     1
 45
0.0
1001
ACAD
1000
AcDbSavedByObjectVersion
1070
     0
  0
VISUALSTYLE
  5
450
102
{ACAD_REACTORS
330
447
102
}
330
447
100
AcDbVisualStyle
  2
Conceptual
 70
     9
 71
     3
 72
     2
 73
     0
 90
        0
 40
-0.6
 41
-30.0
 62
     5
 63
     7
 74
     2
 91
        2
 64
     7
 65
   257
 75
     1
175
     1
 42
40.0
 92
        8
 66
     7
 43
1.0
 76
     1
 77
     6
 78
     2
 67
     7
 79
     3
170
     0
171
     0
290
     0
174
     0
 93
        1
 44
0.0
173
     0
291
     0
 45
0.0
1001
ACAD
1000
AcDbSavedByObjectVersion
1070
     0
  0
VISUALSTYLE
  5
452
102
{ACAD_REACTORS
330
447
102
}
330
447
100
AcDbVisualStyle
  2
Dim
 70
    11
 71
     2
 72
     2
 73
     0
 90
        0
 40
-0.6
 41
-30.0
 62
     5
 63
     7
 74
     1
 91
        4
 64
     7
 65
   257
 75
     1
175
     1
 42
1.0
 92
        8
 66
     7
 43
1.0
 76
     1
 77
     6
 78
     2
 67
     7
 79
     5
170
     0
171
     0
290
     0
174
     0
 93
        1
 44
-50.0
173
     0
291
     1
 45
0.0
1001
ACAD
1000
AcDbSavedByObjectVersion
1070
     0
  0
VISUALSTYLE
  5
456
102
{ACAD_REACTORS
330
447
102
}
330
447
100
AcDbVisualStyle
  2
Facepattern
 70
    15
 71
     2
 72
     2
 73
     0
 90
        0
 40
-0.6
 41
-30.0
 62
     5
 63
     7
 74
     1
 91
        4
 64
     7
 65
   257
 75
     1
175
     1
 42
1.0
 92
        8
 66
     7
 43
1.0
 76
     1
 77
     6
 78
     2
 67
     7
 79
     5
170
     0
171
     0
290
     0
174
     0
 93
        1
 44
0.0
173
     0
291
     1
 45
0.0
1001
ACAD
1000
AcDbSavedByObjectVersion
1070
     0
  0
VISUALSTYLE
  5
448
102
{ACAD_REACTORS
330
447
102
}
330
447
100
AcDbVisualStyle
  2
Flat
 70
     0
 71
     2
 72
     1
 73
     1
 90
        2
 40
-0.6
 41
30.0
 62
     5
 63
     7
 74
     0
 91
        4
 64
     7
 65
   257
 75
     1
175
     1
 42
1.0
 92
        8
 66
     7
 43
1.0
 76
     1
 77
     6
 78
     2
 67
     7
 79
     5
170
     0
171
     0
290
     0
174
     0
 93
       13
 44
0.0
173
     0
291
     1
 45
0.0
1001
ACAD
1000
AcDbSavedByObjectVersion
1070
     0
  0
VISUALSTYLE
  5
449
102
{ACAD_REACTORS
330
447
102
}
330
447
100
AcDbVisualStyle
  2
FlatWithEdges
 70
     1
 71
     2
 72
     1
 73
     1
 90
        2
 40
-0.6
 41
30.0
 62
     5
 63
     7
 74
     1
 91
        4
 64
     7
 65
   257
 75
     1
175
     1
 42
1.0
 92
        0
 66
   257
 43
1.0
 76
     1
 77
     6
 78
     2
 67
     7
 79
     5
170
     0
171
     0
290
     0
174
     0
 93
       13
 44
0.0
173
     0
291
     1
 45
0.0
1001
ACAD
1000
AcDbSavedByObjectVersion
1070
     0
  0
VISUALSTYLE
  5
44A
102
{ACAD_REACTORS
330
447
102
}
330
447
100
AcDbVisualStyle
  2
Gouraud
 70
     2
 71
     2
 72
     2
 73
     1
 90
        2
 40
-0.6
 41
30.0
 62
     5
 63
     7
 74
     0
 91
        4
 64
     7
 65
   257
 75
     1
175
     1
 42
1.0
 92
        0
 66
     7
 43
1.0
 76
     1
 77
     6
 78
     2
 67
     7
 79
     5
170
     0
171
     0
290
     0
174
     0
 93
       13
 44
0.0
173
     0
291
     1
 45
0.0
1001
ACAD
1000
AcDbSavedByObjectVersion
1070
     0
  0
VISUALSTYLE
  5
44B
102
{ACAD_REACTORS
330
447
102
}
330
447
100
AcDbVisualStyle
  2
GouraudWithEdges
 70
     3
 71
     2
 72
     2
 73
     1
 90
        2
 40
-0.6
 41
30.0
 62
     5
 63
     7
 74
     1
 91
        4
 64
     7
 65
   257
 75
     1
175
     1
 42
1.0
 92
        0
 66
   257
 43
1.0
 76
     1
 77
     6
 78
     2
 67
     7
 79
     5
170
     0
171
     0
290
     0
174
     0
 93
       13
 44
0.0
173
     0
291
     1
 45
0.0
1001
ACAD
1000
AcDbSavedByObjectVersion
1070
     0
  0
VISUALSTYLE
  5
455
102
{ACAD_REACTORS
330
447
102
}
330
447
100
AcDbVisualStyle
  2
Linepattern
 70
    14
 71
     2
 72
     2
 73
     0
 90
        0
 40
-0.6
 41
-30.0
 62
     5
 63
     7
 74
     1
 91
        4
 64
     7
 65
   257
 75
     7
175
     7
 42
1.0
 92
        8
 66
     7
 43
1.0
 76
     1
 77
     6
 78
     2
 67
     7
 79
     5
170
     0
171
     0
290
     0
174
     0
 93
        1
 44
0.0
173
     0
291
     1
 45
0.0
1001
ACAD
1000
AcDbSavedByObjectVersion
1070
     0
  0
VISUALSTYLE
  5
451
102
{ACAD_REACTORS
330
447
102
}
330
447
100
AcDbVisualStyle
  2
Realistic
 70
     8
 71
     2
 72
     2
 73
     0
 90
        0
 40
-0.6
 41
-30.0
 62
     5
 63
     7
 74
     1
 91
        0
 64
     7
 65
   257
 75
     1
175
     1
 42
1.0
 92
        8
 66
     8
 43
1.0
 76
     1
 77
     6
 78
     2
 67
     7
 79
     5
170
     0
171
     0
290
     0
174
     0
 93
       13
 44
0.0
173
     0
291
     0
 45
0.0
1001
ACAD
1000
AcDbSavedByObjectVersion
1070
     0
  0
VISUALSTYLE
  5
454
102
{ACAD_REACTORS
330
447
102
}
330
447
100
AcDbVisualStyle
  2
Thicken
 70
    13
 71
     2
 72
     2
 73
     0
 90
        0
 40
-0.6
 41
-30.0
 62
     5
 63
     7
 74
     1
 91
        4
 64
     7
 65
   257
 75
     1
175
     1
 42
1.0
 92
       12
 66
     7
 43
1.0
 76
     1
 77
     6
 78
     2
 67
     7
 79
     5
170
     0
171
     0
290
     0
174
     0
 93
        1
 44
0.0
173
     0
291
     1
 45
0.0
1001
ACAD
1000
AcDbSavedByObjectVersion
1070
     0
  0
DICTIONARYVAR
  5
583
102
{ACAD_REACTORS
330
582
102
}
330
582
100
DictionaryVariables
280
     0
  1
STANDARD
  0
DICTIONARYVAR
  5
627
102
{ACAD_REACTORS
330
582
102
}
330
582
100
DictionaryVariables
280
     0
  1
1
  0
DICTIONARYVAR
  5
626
102
{ACAD_REACTORS
330
582
102
}
330
582
100
DictionaryVariables
280
     0
  1
0
  0
DICTIONARYVAR
  5
625
102
{ACAD_REACTORS
330
582
102
}
330
582
100
DictionaryVariables
280
     0
  1
127
  0
DICTIONARY
  5
533
102
{ACAD_REACTORS
330
528
102
}
330
528
100
AcDbDictionary
281
     1
  0
XRECORD
  5
554
102
{ACAD_REACTORS
330
528
102
}
330
528
100
AcDbXrecord
280
     1
 90
-1023410169
  0
DICTIONARY
  5
62F
330
46C
100
AcDbDictionary
280
     1
281
     1
  3
ACAD_XREC_ROUNDTRIP
360
630
  0
DICTIONARY
  5
62D
330
468
100
AcDbDictionary
280
     1
281
     1
  3
ACAD_XREC_ROUNDTRIP
360
62E
  0
DICTIONARY
  5
586
330
445
100
AcDbDictionary
280
     1
281
     1
  3
ACAD_XREC_ROUNDTRIP
360
587
  0
DICTIONARY
  5
584
330
444
100
AcDbDictionary
280
     1
281
     1
  3
ACAD_XREC_ROUNDTRIP
360
585
  0
DICTIONARY
  5
588
330
446
100
AcDbDictionary
280
     1
281
     1
  3
ACAD_XREC_ROUNDTRIP
360
589
  0
DICTIONARY
  5
62B
330
464
100
AcDbDictionary
280
     1
281
     1
  3
ACAD_XREC_ROUNDTRIP
360
62C
  0
XRECORD
  5
630
102
{ACAD_REACTORS
330
62F
102
}
330
62F
100
AcDbXrecord
280
     1
102
SHADEPLOT
 70
     0
102
SHADEPLOTRESLEVEL
 70
     2
102
SHADEPLOTCUSTOMDPI
 70
   300
  0
XRECORD
  5
62E
102
{ACAD_REACTORS
330
62D
102
}
330
62D
100
AcDbXrecord
280
     1
102
SHADEPLOT
 70
     0
102
SHADEPLOTRESLEVEL
 70
     2
102
SHADEPLOTCUSTOMDPI
 70
   300
  0
XRECORD
  5
587
102
{ACAD_REACTORS
330
586
102
}
330
586
100
AcDbXrecord
280
     1
102
MATERIAL
148
0.0
149
0.0
149
0.0
 93
        0
 94
       63
282
     0
 72
     1
 77
     1
171
     1
175
     1
179
     1
273
     0
  0
XRECORD
  5
585
102
{ACAD_REACTORS
330
584
102
}
330
584
100
AcDbXrecord
280
     1
102
MATERIAL
148
0.0
149
0.0
149
0.0
 93
        0
 94
       63
282
     0
 72
     1
 77
     1
171
     1
175
     1
179
     1
273
     0
  0
XRECORD
  5
589
102
{ACAD_REACTORS
330
588
102
}
330
588
100
AcDbXrecord
280
     1
102
MATERIAL
148
0.0
149
0.0
149
0.0
 93
        0
 94
       63
282
     0
 72
     1
 77
     1
171
     1
175
     1
179
     1
273
     0
  0
XRECORD
  5
62C
102
{ACAD_REACTORS
330
62B
102
}
330
62B
100
AcDbXrecord
280
     1
102
ACAD_ROUNDTRIP_PRE2007_TABLESTYLE
 90
      512
 91
        0
  1

 92
      512
 93
        0
  2

 94
      512
 95
        0
  3

  0
ENDSEC
  0
EOF
