  0
SECTION
  2
HEADER
  9
$EXTMAX
 10
679.60797
 20
565.78256
 30
0
  9
$EXTMIN
 10
259.60797
 20
268.78256
 30
0
  9
$LIMMAX
 10
679.60797
 20
565.78256
  9
$LIMMIN
 10
259.60797
 20
268.78256
  9
$PLIMMAX
 10
679.60797
 20
565.78256
  9
$PLIMMIN
 10
259.60797
 20
268.78256
  9
$TEXTSIZE
 40
3.2
  9
$DIMSHO
 70
     0
  9
$DIMASZ
 40
1.0
  9
$DIMTAD
 70
     1
  9
$DIMTIH
 70
     0
  9
$DIMTOH
 70
     0
  9
$DIMEXE
 40
2.54
  9
$DIMEXO
 40
2.54
  9
$DIMTVP
 40
1.0
  9
$DIMSAH
 70
     1
  9
$DIMDLE
 40
0.0
  9
$DIMTXT
 40
3.2
  9
$DIMGAP
 40
1.6
  0
ENDSEC
  0
SECTION
  2
TABLES
  0
TABLE
  2
LTYPE
 70
     6
  0
LTYPE
  2
CONTINUOUS
 70
    64
  3
Solid line
 72
    65
 73
     0
 40
0.0
  0
LTYPE
  2
DASHED
 70
    64
  3
__ __ __ __ __ __ __ __ __ __ __ __ __ __ __
 72
    65
 73
     2
 40
3.5
 49
2.0
 49
-1.5
  0
LTYPE
  2
CENTER
 70
    64
  3
____ _ ____ _ ____ _ ____ _ ____ _ ____ _ ____
 72
    65
 73
     4
 40
17.5
 49
13.0
 49
-1.5
 49
1.5
 49
-1.5
  0
LTYPE
  2
PHANTOM
 70
    64
  3
_____ _ _ _____ _ _ _____ _ _ _____ _ _ ____  
 72
    65
 73
     6
 40
15.5
 49
8.0
 49
-1.5
 49
1.5
 49
-1.5
 49
1.5
 49
-1.5
  0
LTYPE
  2
DOT
 70
    64
  3
. . . . . . . . . . . . . . . . . . . . . . . .
 72
    65
 73
     2
 40
0.25
 49
0.0
 49
-0.25
  0
LTYPE
  2
HIDDEN
 70
    64
  3
__ __ __ __ __ __ __ __ __ __ __ __ __ __ __
 72
    65
 73
     2
 40
3.5
 49
2.0
 49
-1.5
  0
ENDTAB
  0
TABLE
  2
LAYER
 70
     1
  0
LAYER
  2
0
 70
     0
 62
     7
  6
CONTINUOUS
  0
ENDTAB
  0
TABLE
  2
STYLE
 70
     1
  0
STYLE
  2
STANDARD
 70
     0
 40
0.0
 41
1.0
 50
0.0
 71
     0
 42
0.2
  3
txt
  4
BIGFONT
  0
ENDTAB
  0
TABLE
  2
DIMSTYLE
 70
     0
  0
ENDTAB
  0
ENDSEC
  0
SECTION
  2
BLOCKS
  0
BLOCK
  8
0
  2
KOZU0001
 70
    64
 10
0
 20
0
  0
POLYLINE
  8
0
  6
CONTINUOUS
 62
     7
 66
     1
 10
0
 20
0
 70
     1
 40
0.40000001
 41
0.40000001
  0
VERTEX
  8
0
  6
CONTINUOUS
 62
     7
 10
-0.2
 20
0
 42
1
  0
VERTEX
  8
0
  6
CONTINUOUS
 62
     7
 10
0.2
 20
0
 42
1
  0
SEQEND
  8
0
  6
CONTINUOUS
 62
     7
  0
ENDBLK
  8
0
  0
BLOCK
  8
0
  2
KOZU0002
 70
    64
 10
0
 20
0
  0
POLYLINE
  8
0
  6
CONTINUOUS
 62
     7
 66
     1
 10
0
 20
0
 70
     1
 40
0.40000001
 41
0.40000001
  0
VERTEX
  8
0
  6
CONTINUOUS
 62
     7
 10
-0.2
 20
0
 42
1
  0
VERTEX
  8
0
  6
CONTINUOUS
 62
     7
 10
0.2
 20
0
 42
1
  0
SEQEND
  8
0
  6
CONTINUOUS
 62
     7
  0
ENDBLK
  8
0
  0
BLOCK
  8
0
  2
KOZU0003
 70
    64
 10
0
 20
0
  0
POLYLINE
  8
0
  6
CONTINUOUS
 62
     7
 66
     1
 10
0
 20
0
 70
     1
 40
0.40000001
 41
0.40000001
  0
VERTEX
  8
0
  6
CONTINUOUS
 62
     7
 10
-0.2
 20
0
 42
1
  0
VERTEX
  8
0
  6
CONTINUOUS
 62
     7
 10
0.2
 20
0
 42
1
  0
SEQEND
  8
0
  6
CONTINUOUS
 62
     7
  0
ENDBLK
  8
0
  0
BLOCK
  8
0
  2
KOZU0004
 70
    64
 10
0
 20
0
  0
POLYLINE
  8
0
  6
CONTINUOUS
 62
     7
 66
     1
 10
0
 20
0
 70
     1
 40
0.40000001
 41
0.40000001
  0
VERTEX
  8
0
  6
CONTINUOUS
 62
     7
 10
-0.2
 20
0
 42
1
  0
VERTEX
  8
0
  6
CONTINUOUS
 62
     7
 10
0.2
 20
0
 42
1
  0
SEQEND
  8
0
  6
CONTINUOUS
 62
     7
  0
ENDBLK
  8
0
  0
BLOCK
  8
0
  2
KOZU0005
 70
    64
 10
0
 20
0
  0
POLYLINE
  8
0
  6
CONTINUOUS
 62
     7
 66
     1
 10
0
 20
0
 70
     1
 40
0.40000001
 41
0.40000001
  0
VERTEX
  8
0
  6
CONTINUOUS
 62
     7
 10
-0.2
 20
0
 42
1
  0
VERTEX
  8
0
  6
CONTINUOUS
 62
     7
 10
0.2
 20
0
 42
1
  0
SEQEND
  8
0
  6
CONTINUOUS
 62
     7
  0
ENDBLK
  8
0
  0
BLOCK
  8
0
  2
KOZU0006
 70
    64
 10
0
 20
0
  0
POLYLINE
  8
0
  6
CONTINUOUS
 62
     7
 66
     1
 10
0
 20
0
 70
     1
 40
0.40000001
 41
0.40000001
  0
VERTEX
  8
0
  6
CONTINUOUS
 62
     7
 10
-0.2
 20
0
 42
1
  0
VERTEX
  8
0
  6
CONTINUOUS
 62
     7
 10
0.2
 20
0
 42
1
  0
SEQEND
  8
0
  6
CONTINUOUS
 62
     7
  0
ENDBLK
  8
0
  0
BLOCK
  8
0
  2
KOZU0007
 70
    64
 10
0
 20
0
  0
POLYLINE
  8
0
  6
CONTINUOUS
 62
     7
 66
     1
 10
0
 20
0
 70
     1
 40
0.40000001
 41
0.40000001
  0
VERTEX
  8
0
  6
CONTINUOUS
 62
     7
 10
-0.2
 20
0
 42
1
  0
VERTEX
  8
0
  6
CONTINUOUS
 62
     7
 10
0.2
 20
0
 42
1
  0
SEQEND
  8
0
  6
CONTINUOUS
 62
     7
  0
ENDBLK
  8
0
  0
BLOCK
  8
0
  2
KOZU0008
 70
    64
 10
0
 20
0
  0
POLYLINE
  8
0
  6
CONTINUOUS
 62
     7
 66
     1
 10
0
 20
0
 70
     1
 40
0.40000001
 41
0.40000001
  0
VERTEX
  8
0
  6
CONTINUOUS
 62
     7
 10
-0.2
 20
0
 42
1
  0
VERTEX
  8
0
  6
CONTINUOUS
 62
     7
 10
0.2
 20
0
 42
1
  0
SEQEND
  8
0
  6
CONTINUOUS
 62
     7
  0
ENDBLK
  8
0
  0
BLOCK
  8
0
  2
KOZU0009
 70
    64
 10
0
 20
0
  0
POLYLINE
  8
0
  6
CONTINUOUS
 62
     7
 66
     1
 10
0
 20
0
 70
     1
 40
0.40000001
 41
0.40000001
  0
VERTEX
  8
0
  6
CONTINUOUS
 62
     7
 10
-0.2
 20
0
 42
1
  0
VERTEX
  8
0
  6
CONTINUOUS
 62
     7
 10
0.2
 20
0
 42
1
  0
SEQEND
  8
0
  6
CONTINUOUS
 62
     7
  0
ENDBLK
  8
0
  0
BLOCK
  8
0
  2
KOZU0010
 70
    64
 10
0
 20
0
  0
POLYLINE
  8
0
  6
CONTINUOUS
 62
     7
 66
     1
 10
0
 20
0
 70
     1
 40
0.40000001
 41
0.40000001
  0
VERTEX
  8
0
  6
CONTINUOUS
 62
     7
 10
-0.2
 20
0
 42
1
  0
VERTEX
  8
0
  6
CONTINUOUS
 62
     7
 10
0.2
 20
0
 42
1
  0
SEQEND
  8
0
  6
CONTINUOUS
 62
     7
  0
ENDBLK
  8
0
  0
BLOCK
  8
0
  2
KOZU0011
 70
    64
 10
0
 20
0
  0
POLYLINE
  8
0
  6
CONTINUOUS
 62
     7
 66
     1
 10
0
 20
0
 70
     1
 40
0.40000001
 41
0.40000001
  0
VERTEX
  8
0
  6
CONTINUOUS
 62
     7
 10
-0.2
 20
0
 42
1
  0
VERTEX
  8
0
  6
CONTINUOUS
 62
     7
 10
0.2
 20
0
 42
1
  0
SEQEND
  8
0
  6
CONTINUOUS
 62
     7
  0
ENDBLK
  8
0
  0
BLOCK
  8
0
  2
KOZU0012
 70
    64
 10
0
 20
0
  0
POLYLINE
  8
0
  6
CONTINUOUS
 62
     7
 66
     1
 10
0
 20
0
 70
     1
 40
0.40000001
 41
0.40000001
  0
VERTEX
  8
0
  6
CONTINUOUS
 62
     7
 10
-0.2
 20
0
 42
1
  0
VERTEX
  8
0
  6
CONTINUOUS
 62
     7
 10
0.2
 20
0
 42
1
  0
SEQEND
  8
0
  6
CONTINUOUS
 62
     7
  0
ENDBLK
  8
0
  0
BLOCK
  8
0
  2
KOZU0013
 70
    64
 10
0
 20
0
  0
POLYLINE
  8
0
  6
CONTINUOUS
 62
     7
 66
     1
 10
0
 20
0
 70
     1
 40
0.40000001
 41
0.40000001
  0
VERTEX
  8
0
  6
CONTINUOUS
 62
     7
 10
-0.2
 20
0
 42
1
  0
VERTEX
  8
0
  6
CONTINUOUS
 62
     7
 10
0.2
 20
0
 42
1
  0
SEQEND
  8
0
  6
CONTINUOUS
 62
     7
  0
ENDBLK
  8
0
  0
BLOCK
  8
0
  2
KOZU0014
 70
    64
 10
0
 20
0
  0
POLYLINE
  8
0
  6
CONTINUOUS
 62
     7
 66
     1
 10
0
 20
0
 70
     1
 40
0.40000001
 41
0.40000001
  0
VERTEX
  8
0
  6
CONTINUOUS
 62
     7
 10
-0.2
 20
0
 42
1
  0
VERTEX
  8
0
  6
CONTINUOUS
 62
     7
 10
0.2
 20
0
 42
1
  0
SEQEND
  8
0
  6
CONTINUOUS
 62
     7
  0
ENDBLK
  8
0
  0
BLOCK
  8
0
  2
KOZU0015
 70
    64
 10
0
 20
0
  0
POLYLINE
  8
0
  6
CONTINUOUS
 62
     7
 66
     1
 10
0
 20
0
 70
     1
 40
0.40000001
 41
0.40000001
  0
VERTEX
  8
0
  6
CONTINUOUS
 62
     7
 10
-0.2
 20
0
 42
1
  0
VERTEX
  8
0
  6
CONTINUOUS
 62
     7
 10
0.2
 20
0
 42
1
  0
SEQEND
  8
0
  6
CONTINUOUS
 62
     7
  0
ENDBLK
  8
0
  0
BLOCK
  8
0
  2
KOZU0016
 70
    64
 10
0
 20
0
  0
POLYLINE
  8
0
  6
CONTINUOUS
 62
     7
 66
     1
 10
0
 20
0
 70
     1
 40
0.40000001
 41
0.40000001
  0
VERTEX
  8
0
  6
CONTINUOUS
 62
     7
 10
-0.2
 20
0
 42
1
  0
VERTEX
  8
0
  6
CONTINUOUS
 62
     7
 10
0.2
 20
0
 42
1
  0
SEQEND
  8
0
  6
CONTINUOUS
 62
     7
  0
ENDBLK
  8
0
  0
ENDSEC
  0
SECTION
  2
ENTITIES
  0
LINE
  8
0
  6
CONTINUOUS
 62
     7
 10
259.60797
 20
268.78256
 11
679.60797
 21
268.78256
  0
LINE
  8
0
  6
CONTINUOUS
 62
     7
 10
259.60797
 20
565.78259
 11
259.60797
 21
268.78256
  0
LINE
  8
0
  6
CONTINUOUS
 62
     7
 10
660.10797
 20
280.78256
 11
660.10797
 21
553.78259
  0
LINE
  8
0
  6
CONTINUOUS
 62
     7
 10
279.10797
 20
457.78256
 11
279.10797
 21
281.53256
  0
LINE
  8
0
  6
CONTINUOUS
 62
     7
 10
660.10797
 20
553.78259
 11
389.10797
 21
553.78259
  0
LINE
  8
0
  6
CONTINUOUS
 62
     7
 10
279.10797
 20
280.78256
 11
660.10797
 21
280.78256
  0
LINE
  8
0
  6
CONTINUOUS
 62
     7
 10
679.60797
 20
565.78259
 11
679.60797
 21
268.78256
  0
LINE
  8
0
  6
CONTINUOUS
 62
     7
 10
259.60797
 20
565.78259
 11
679.60797
 21
565.78259
  0
LINE
  8
0
  6
CONTINUOUS
 62
     7
 10
279.10797
 20
553.78259
 11
389.10797
 21
553.78259
  0
LINE
  8
0
  6
CONTINUOUS
 62
     7
 10
279.10797
 20
553.78259
 11
279.10797
 21
457.78256
  0
LINE
  8
0
  6
CONTINUOUS
 62
     7
 10
299.10797
 20
553.78259
 11
299.10797
 21
457.78256
  0
LINE
  8
0
  6
CONTINUOUS
 62
     7
 10
279.10797
 20
545.78259
 11
389.10797
 21
545.78259
  0
LINE
  8
0
  6
CONTINUOUS
 62
     7
 10
279.10797
 20
537.78259
 11
389.10797
 21
537.78259
  0
LINE
  8
0
  6
CONTINUOUS
 62
     7
 10
279.10797
 20
529.78259
 11
389.10797
 21
529.78259
  0
LINE
  8
0
  6
CONTINUOUS
 62
     7
 10
279.10797
 20
521.78259
 11
389.10797
 21
521.78259
  0
LINE
  8
0
  6
CONTINUOUS
 62
     7
 10
299.10797
 20
497.78256
 11
389.10797
 21
497.78256
  0
LINE
  8
0
  6
CONTINUOUS
 62
     7
 10
299.10797
 20
489.78256
 11
389.10797
 21
489.78256
  0
LINE
  8
0
  6
CONTINUOUS
 62
     7
 10
279.10797
 20
481.78256
 11
389.10797
 21
481.78256
  0
LINE
  8
0
  6
CONTINUOUS
 62
     7
 10
299.10797
 20
473.78256
 11
389.10797
 21
473.78256
  0
LINE
  8
0
  6
CONTINUOUS
 62
     7
 10
299.10797
 20
465.78256
 11
389.10797
 21
465.78256
  0
LINE
  8
0
  6
CONTINUOUS
 62
     7
 10
279.10797
 20
457.78256
 11
389.10797
 21
457.78256
  0
LINE
  8
0
  6
CONTINUOUS
 62
     7
 10
279.10797
 20
553.78259
 11
279.10797
 21
457.78256
  0
LINE
  8
0
  6
CONTINUOUS
 62
     7
 10
279.10797
 20
553.78259
 11
389.10797
 21
553.78259
  0
LINE
  8
0
  6
CONTINUOUS
 62
     7
 10
389.10797
 20
553.78259
 11
389.10797
 21
457.78256
  0
LINE
  8
0
  6
CONTINUOUS
 62
     7
 10
279.10797
 20
513.78259
 11
389.10797
 21
513.78259
  0
LINE
  8
0
  6
CONTINUOUS
 62
     7
 10
279.10797
 20
505.78256
 11
389.10797
 21
505.78256
  0
LINE
  8
0
  6
CONTINUOUS
 62
     7
 10
299.10797
 20
497.78256
 11
389.10797
 21
497.78256
  0
LINE
  8
0
  6
CONTINUOUS
 62
     7
 10
456.45642
 20
349.04669
 11
496.45642
 21
349.04669
  0
LINE
  8
0
  6
CONTINUOUS
 62
     7
 10
455.95642
 20
469.04669
 11
496.95642
 21
469.04669
  0
LINE
  8
0
  6
CONTINUOUS
 62
     7
 10
453.95642
 20
457.04669
 11
498.95642
 21
457.04669
  0
LINE
  8
0
  6
CONTINUOUS
 62
     7
 10
456.45642
 20
348.04669
 11
496.45642
 21
348.04669
  0
LINE
  8
0
  6
CENTER
 62
     4
 10
448.95642
 20
523.04669
 11
503.95642
 21
523.04669
  0
LINE
  8
0
  6
CONTINUOUS
 62
     7
 10
461.45642
 20
457.04669
 11
461.45642
 21
349.04669
  0
LINE
  8
0
  6
CENTER
 62
     4
 10
476.45642
 20
474.04669
 11
476.45642
 21
282.14963
  0
LINE
  8
0
  6
CONTINUOUS
 62
     7
 10
456.45642
 20
349.04669
 11
456.45642
 21
348.04669
  0
LINE
  8
0
  6
CENTER
 62
     4
 10
476.45642
 20
550.54669
 11
476.45642
 21
495.54669
  0
LINE
  8
0
  6
CONTINUOUS
 62
     7
 10
453.95642
 20
467.04669
 11
453.95642
 21
457.04669
  0
LINE
  8
0
  6
CONTINUOUS
 62
     7
 10
491.45642
 20
457.04669
 11
491.45642
 21
349.04669
  0
LINE
  8
0
  6
CONTINUOUS
 62
     7
 10
496.45642
 20
349.04669
 11
496.45642
 21
348.04669
  0
LINE
  8
0
  6
CONTINUOUS
 62
     7
 10
498.95642
 20
467.04669
 11
498.95642
 21
457.04669
  0
LINE
  8
0
  6
CONTINUOUS
 62
     3
 10
453.95642
 20
470.04669
 11
453.95642
 21
480.04669
  0
LINE
  8
0
  6
CONTINUOUS
 62
     3
 10
498.95642
 20
470.04669
 11
498.95642
 21
480.04669
  0
LINE
  8
0
  6
CONTINUOUS
 62
     3
 10
454.75644
 20
479.04669
 11
498.15643
 21
479.04669
  0
LINE
  8
0
  6
CONTINUOUS
 62
     7
 10
454.35641
 20
479.04669
 11
454.75644
 21
479.04669
  0
LINE
  8
0
  6
CONTINUOUS
 62
     7
 10
498.55643
 20
479.04669
 11
498.15643
 21
479.04669
  0
LINE
  8
0
  6
CONTINUOUS
 62
     3
 10
499.95642
 20
469.04669
 11
514.95642
 21
469.04669
  0
LINE
  8
0
  6
CONTINUOUS
 62
     3
 10
499.95642
 20
457.04669
 11
514.95642
 21
457.04669
  0
LINE
  8
0
  6
CONTINUOUS
 62
     3
 10
513.95642
 20
468.2467
 11
513.95642
 21
457.84671
  0
LINE
  8
0
  6
CONTINUOUS
 62
     7
 10
513.95642
 20
468.6467
 11
513.95642
 21
468.2467
  0
LINE
  8
0
  6
CONTINUOUS
 62
     7
 10
513.95642
 20
457.44669
 11
513.95642
 21
457.84671
  0
LINE
  8
0
  6
CONTINUOUS
 62
     3
 10
499.95642
 20
457.04669
 11
514.95642
 21
457.04669
  0
LINE
  8
0
  6
CONTINUOUS
 62
     3
 10
497.45642
 20
348.04669
 11
514.95642
 21
348.04669
  0
LINE
  8
0
  6
CONTINUOUS
 62
     3
 10
513.95642
 20
456.2467
 11
513.95642
 21
348.84671
  0
LINE
  8
0
  6
CONTINUOUS
 62
     7
 10
513.95642
 20
456.6467
 11
513.95642
 21
456.2467
  0
LINE
  8
0
  6
CONTINUOUS
 62
     7
 10
513.95642
 20
348.44669
 11
513.95642
 21
348.84671
  0
LINE
  8
0
  6
CONTINUOUS
 62
     3
 10
499.95642
 20
469.04669
 11
524.95642
 21
469.04669
  0
LINE
  8
0
  6
CONTINUOUS
 62
     3
 10
497.45642
 20
348.04669
 11
524.95642
 21
348.04669
  0
LINE
  8
0
  6
CONTINUOUS
 62
     3
 10
523.95642
 20
468.2467
 11
523.95642
 21
348.84671
  0
LINE
  8
0
  6
CONTINUOUS
 62
     7
 10
523.95642
 20
468.6467
 11
523.95642
 21
468.2467
  0
LINE
  8
0
  6
CONTINUOUS
 62
     7
 10
523.95642
 20
348.44669
 11
523.95642
 21
348.84671
  0
LINE
  8
0
  6
PHANTOM
 62
     3
 10
482.80643
 20
348.04669
 11
482.80643
 21
299.39667
  0
LINE
  8
0
  6
PHANTOM
 62
     3
 10
470.10641
 20
299.39667
 11
470.10641
 21
348.04669
  0
LINE
  8
0
  6
PHANTOM
 62
     3
 10
475.95642
 20
299.04669
 11
475.95642
 21
304.04669
  0
LINE
  8
0
  6
PHANTOM
 62
     3
 10
476.95642
 20
304.04669
 11
476.95642
 21
299.04669
  0
LINE
  8
0
  6
PHANTOM
 62
     3
 10
484.50641
 20
290.73679
 11
478.73477
 21
288.96118
  0
LINE
  8
0
  6
PHANTOM
 62
     3
 10
475.95642
 20
299.04669
 11
474.1781
 21
288.96121
  0
LINE
  8
0
  6
PHANTOM
 62
     3
 10
476.95639
 20
299.04669
 11
478.73474
 21
288.96118
  0
LINE
  8
0
  6
PHANTOM
 62
     3
 10
474.17807
 20
288.96118
 11
468.40643
 21
290.73679
  0
LINE
  8
0
  6
PHANTOM
 62
     3
 10
476.95645
 20
288.04672
 11
478.73477
 21
288.96121
  0
LINE
  8
0
  6
PHANTOM
 62
     3
 10
474.1781
 20
288.96118
 11
475.95645
 21
288.04669
  0
LINE
  8
0
  6
PHANTOM
 62
     3
 10
475.95642
 20
288.04669
 11
476.95642
 21
288.04669
  0
LINE
  8
0
  6
PHANTOM
 62
     3
 10
468.4064
 20
290.73679
 11
470.10641
 21
299.39667
  0
LINE
  8
0
  6
PHANTOM
 62
     3
 10
482.80646
 20
299.39667
 11
484.50644
 21
290.73679
  0
LINE
  8
0
  6
PHANTOM
 62
     3
 10
475.95642
 20
304.04669
 11
476.95642
 21
304.04669
  0
LINE
  8
0
  6
CONTINUOUS
 62
     3
 10
497.45642
 20
348.04669
 11
514.95642
 21
348.04669
  0
LINE
  8
0
  6
CONTINUOUS
 62
     3
 10
477.45642
 20
288.04669
 11
514.95642
 21
288.04669
  0
LINE
  8
0
  6
CONTINUOUS
 62
     3
 10
513.95642
 20
347.2467
 11
513.95642
 21
288.84671
  0
LINE
  8
0
  6
CONTINUOUS
 62
     7
 10
513.95642
 20
347.6467
 11
513.95642
 21
347.2467
  0
LINE
  8
0
  6
CONTINUOUS
 62
     7
 10
513.95642
 20
288.44669
 11
513.95642
 21
288.84671
  0
LINE
  8
0
  6
CONTINUOUS
 62
     3
 10
482.80643
 20
333.04669
 11
470.10641
 21
333.04669
  0
LINE
  8
0
  6
CONTINUOUS
 62
     3
 10
470.10641
 20
333.04669
 11
424.07352
 21
333.04669
  0
LINE
  8
0
  6
CONTINUOUS
 62
     3
 10
491.45642
 20
347.04669
 11
491.45642
 21
322.04669
  0
LINE
  8
0
  6
CONTINUOUS
 62
     3
 10
461.45642
 20
347.04669
 11
461.45642
 21
322.04669
  0
LINE
  8
0
  6
CONTINUOUS
 62
     3
 10
490.65643
 20
323.04669
 11
462.25644
 21
323.04669
  0
LINE
  8
0
  6
CONTINUOUS
 62
     3
 10
461.45642
 20
323.04669
 11
442.14923
 21
323.04669
  0
LINE
  8
0
  6
CONTINUOUS
 62
     7
 10
491.05643
 20
323.04669
 11
490.65643
 21
323.04669
  0
LINE
  8
0
  6
CONTINUOUS
 62
     7
 10
461.85641
 20
323.04669
 11
462.25644
 21
323.04669
  0
LINE
  8
0
  6
CONTINUOUS
 62
     3
 10
496.45642
 20
347.04669
 11
496.45642
 21
312.04669
  0
LINE
  8
0
  6
CONTINUOUS
 62
     3
 10
456.45642
 20
347.04669
 11
456.45642
 21
312.04669
  0
LINE
  8
0
  6
CONTINUOUS
 62
     3
 10
495.65643
 20
313.04669
 11
457.25644
 21
313.04669
  0
LINE
  8
0
  6
CONTINUOUS
 62
     3
 10
456.45642
 20
313.04669
 11
441.98923
 21
313.04669
  0
LINE
  8
0
  6
CONTINUOUS
 62
     7
 10
496.05643
 20
313.04669
 11
495.65643
 21
313.04669
  0
LINE
  8
0
  6
CONTINUOUS
 62
     7
 10
456.85641
 20
313.04669
 11
457.25644
 21
313.04669
  0
CIRCLE
  8
0
  6
CONTINUOUS
 62
     7
 10
476.45642
 20
523.04669
 40
9
  0
CIRCLE
  8
0
  6
CONTINUOUS
 62
     7
 10
476.45642
 20
523.04669
 40
22.5
  0
ARC
  8
0
  6
CONTINUOUS
 62
     7
 10
455.95642
 20
467.04669
 40
2
 50
90
 51
180
  0
ARC
  8
0
  6
CONTINUOUS
 62
     7
 10
496.95642
 20
467.04669
 40
2
 50
0
 51
90
  0
TEXT
  8
0
  6
CONTINUOUS
 62
     2
 10
259.60799
 20
268.78256
 40
2.5
 41
1.09375
  1
!GENTITLE-LL
  0
TEXT
  8
0
  6
CONTINUOUS
 62
     2
 10
660.10799
 20
553.78259
 40
2.5
 41
1.09375
  1
!GENTITLE-RU
  0
TEXT
  8
0
  6
CONTINUOUS
 62
     2
 10
279.108
 20
553.78259
 40
2.5
 41
1.0930233
  1
!GENTITLE-INSERT
  0
TEXT
  8
0
  6
CONTINUOUS
 62
     2
 10
679.60797
 20
565.78259
 40
2.5
 41
1.0857143
  1
!GENTITLE-MAX
  0
TEXT
  8
0
  6
CONTINUOUS
 62
     7
 10
285.33648
 20
549.78254
 40
3.2
 41
0.60999997
  1
品　名
  0
TEXT
  8
0
  6
CONTINUOUS
 62
     7
 10
285.33648
 20
541.78254
 40
3.2
 41
0.60999997
  1
品　番
  0
TEXT
  8
0
  6
CONTINUOUS
 62
     7
 10
285.33648
 20
533.78254
 40
3.2
 41
0.60999997
  1
材　質
  0
TEXT
  8
0
  6
CONTINUOUS
 62
     7
 10
285.33648
 20
525.78254
 40
3.2
 41
0.60999997
  1
仕上げ
  0
TEXT
  8
0
  6
CONTINUOUS
 62
     7
 10
282.13647
 20
501.78257
 40
3.2
 41
0.60999999
  1
セットビス
  0
TEXT
  8
0
  6
CONTINUOUS
 62
     7
 10
286.93647
 20
477.78257
 40
3.2
 41
0.61
  1
備考
  0
TEXT
  8
0
  6
CONTINUOUS
 62
     7
 10
285.33648
 20
517.78254
 40
3.2
 41
0.60999997
  1
定　尺
  0
TEXT
  8
0
  6
CONTINUOUS
 62
     7
 10
283.73647
 20
509.78257
 40
3.2
 41
0.60999998
  1
左右勝手
  0
TEXT
  8
0
  6
CONTINUOUS
 62
     7
 10
302.53647
 20
548.18257
 40
3.2
 41
0.75000003
  1
ドアースットプ
  0
TEXT
  8
0
  6
CONTINUOUS
 62
     7
 10
302.53648
 20
540.18257
 40
3.2
 41
0.78614458
  1
DCA-56-120
  0
TEXT
  8
0
  6
CONTINUOUS
 62
     7
 10
302.53647
 20
532.18257
 40
3.2
 41
0.74999999
  1
真鍮
  0
TEXT
  8
0
  6
CONTINUOUS
 62
     7
 10
302.53649
 20
524.18257
 40
3.2
 41
0.75000003
  1
サーチライトニッケルクロム
  0
TEXT
  8
0
  6
CONTINUOUS
 62
     7
 10
302.53647
 20
508.18257
 40
3.2
 41
0.74999999
  1
無し
  0
TEXT
  8
0
  6
CONTINUOUS
 62
     7
 10
302.53649
 20
476.18257
 40
3.2
 41
0.71495181
  1
オールアンカーＭ１２×９０付
  0
TEXT
  8
0
  6
CONTINUOUS
 62
     3
 10
471.88575
 20
480.5467
 40
3.2
 41
0.90021012
  1
%%C４５
  0
TEXT
  8
0
  6
CONTINUOUS
 62
     3
 10
512.45611
 20
460.38003
 40
3.2
 41
1.25
  1
12
 50
90.000003
  0
TEXT
  8
0
  6
CONTINUOUS
 62
     3
 10
512.45642
 20
398.28003
 40
3.2
 41
1.2307692
  1
109
 50
90.000003
  0
TEXT
  8
0
  6
CONTINUOUS
 62
     3
 10
522.45614
 20
403.73291
 40
3.2
 41
1.2631579
  1
121
 50
90.000003
  0
TEXT
  8
0
  6
CONTINUOUS
 62
     3
 10
512.45641
 20
315.38003
 40
3.2
 41
1.0714286
  1
60
 50
90.000003
  0
TEXT
  8
0
  6
CONTINUOUS
 62
     3
 10
420.4256
 20
334.7067
 40
3.2
 41
0.91517854
  1
（ドリル径%%C１２．７）
  0
TEXT
  8
0
  6
CONTINUOUS
 62
     3
 10
442.27983
 20
324.5467
 40
3.2
 41
0.90021012
  1
%%C３０
  0
TEXT
  8
0
  6
CONTINUOUS
 62
     3
 10
442.27983
 20
314.5467
 40
3.2
 41
0.90021012
  1
%%C４０
  0
INSERT
  8
0
  6
CONTINUOUS
 62
     7
  2
KOZU0001
 10
453.95642
 20
479.04669
  0
INSERT
  8
0
  6
CONTINUOUS
 62
     7
  2
KOZU0002
 10
498.95642
 20
479.04669
  0
INSERT
  8
0
  6
CONTINUOUS
 62
     7
  2
KOZU0003
 10
513.95642
 20
469.04669
  0
INSERT
  8
0
  6
CONTINUOUS
 62
     7
  2
KOZU0004
 10
513.95642
 20
457.04669
  0
INSERT
  8
0
  6
CONTINUOUS
 62
     7
  2
KOZU0005
 10
513.95642
 20
457.04669
  0
INSERT
  8
0
  6
CONTINUOUS
 62
     7
  2
KOZU0006
 10
513.95642
 20
348.04669
  0
INSERT
  8
0
  6
CONTINUOUS
 62
     7
  2
KOZU0007
 10
523.95642
 20
469.04669
  0
INSERT
  8
0
  6
CONTINUOUS
 62
     7
  2
KOZU0008
 10
523.95642
 20
348.04669
  0
INSERT
  8
0
  6
CONTINUOUS
 62
     7
  2
KOZU0009
 10
513.95642
 20
348.04669
  0
INSERT
  8
0
  6
CONTINUOUS
 62
     7
  2
KOZU0010
 10
513.95642
 20
288.04669
  0
INSERT
  8
0
  6
CONTINUOUS
 62
     7
  2
KOZU0011
 10
482.80643
 20
333.04669
  0
INSERT
  8
0
  6
CONTINUOUS
 62
     7
  2
KOZU0012
 10
470.10641
 20
333.04669
  0
INSERT
  8
0
  6
CONTINUOUS
 62
     7
  2
KOZU0013
 10
491.45642
 20
323.04669
  0
INSERT
  8
0
  6
CONTINUOUS
 62
     7
  2
KOZU0014
 10
461.45642
 20
323.04669
  0
INSERT
  8
0
  6
CONTINUOUS
 62
     7
  2
KOZU0015
 10
496.45642
 20
313.04669
  0
INSERT
  8
0
  6
CONTINUOUS
 62
     7
  2
KOZU0016
 10
456.45642
 20
313.04669
  0
ENDSEC
  0
EOF
