  0
SECTION
  2
HEADER
  9
$EXTMAX
 10
1604.9001
 20
840.37091
 30
0
  9
$EXTMIN
 10
1010.9001
 20
420.37091
 30
0
  9
$LIMMAX
 10
1604.9001
 20
840.37091
  9
$LIMMIN
 10
1010.9001
 20
420.37091
  9
$PLIMMAX
 10
1604.9001
 20
840.37091
  9
$PLIMMIN
 10
1010.9001
 20
420.37091
  9
$TEXTSIZE
 40
3.2
  9
$DIMSHO
 70
     0
  9
$DIMASZ
 40
1.0
  9
$DIMTAD
 70
     1
  9
$DIMTIH
 70
     0
  9
$DIMTOH
 70
     0
  9
$DIMEXE
 40
2.54
  9
$DIMEXO
 40
2.54
  9
$DIMTVP
 40
1.0
  9
$DIMSAH
 70
     1
  9
$DIMDLE
 40
0.0
  9
$DIMTXT
 40
3.2
  9
$DIMGAP
 40
1.6
  0
ENDSEC
  0
SECTION
  2
TABLES
  0
TABLE
  2
LTYPE
 70
     6
  0
LTYPE
  2
CONTINUOUS
 70
    64
  3
Solid line
 72
    65
 73
     0
 40
0.0
  0
LTYPE
  2
DASHED
 70
    64
  3
__ __ __ __ __ __ __ __ __ __ __ __ __ __ __
 72
    65
 73
     2
 40
3.5
 49
2.0
 49
-1.5
  0
LTYPE
  2
CENTER
 70
    64
  3
____ _ ____ _ ____ _ ____ _ ____ _ ____ _ ____
 72
    65
 73
     4
 40
17.5
 49
13.0
 49
-1.5
 49
1.5
 49
-1.5
  0
LTYPE
  2
PHANTOM
 70
    64
  3
_____ _ _ _____ _ _ _____ _ _ _____ _ _ ____  
 72
    65
 73
     6
 40
15.5
 49
8.0
 49
-1.5
 49
1.5
 49
-1.5
 49
1.5
 49
-1.5
  0
LTYPE
  2
DOT
 70
    64
  3
. . . . . . . . . . . . . . . . . . . . . . . .
 72
    65
 73
     2
 40
0.25
 49
0.0
 49
-0.25
  0
LTYPE
  2
HIDDEN
 70
    64
  3
__ __ __ __ __ __ __ __ __ __ __ __ __ __ __
 72
    65
 73
     2
 40
3.5
 49
2.0
 49
-1.5
  0
ENDTAB
  0
TABLE
  2
LAYER
 70
     1
  0
LAYER
  2
0
 70
     0
 62
     7
  6
CONTINUOUS
  0
ENDTAB
  0
TABLE
  2
STYLE
 70
     1
  0
STYLE
  2
STANDARD
 70
     0
 40
0.0
 41
1.0
 50
0.0
 71
     0
 42
0.2
  3
txt
  4
BIGFONT
  0
ENDTAB
  0
TABLE
  2
DIMSTYLE
 70
     0
  0
ENDTAB
  0
ENDSEC
  0
SECTION
  2
BLOCKS
  0
BLOCK
  8
0
  2
KOZU0001
 70
    64
 10
0
 20
0
  0
POLYLINE
  8
0
  6
CONTINUOUS
 62
     7
 66
     1
 10
0
 20
0
 70
     1
 40
0.40000001
 41
0.40000001
  0
VERTEX
  8
0
  6
CONTINUOUS
 62
     7
 10
-0.2
 20
0
 42
1
  0
VERTEX
  8
0
  6
CONTINUOUS
 62
     7
 10
0.2
 20
0
 42
1
  0
SEQEND
  8
0
  6
CONTINUOUS
 62
     7
  0
ENDBLK
  8
0
  0
BLOCK
  8
0
  2
KOZU0002
 70
    64
 10
0
 20
0
  0
POLYLINE
  8
0
  6
CONTINUOUS
 62
     7
 66
     1
 10
0
 20
0
 70
     1
 40
0.40000001
 41
0.40000001
  0
VERTEX
  8
0
  6
CONTINUOUS
 62
     7
 10
-0.2
 20
0
 42
1
  0
VERTEX
  8
0
  6
CONTINUOUS
 62
     7
 10
0.2
 20
0
 42
1
  0
SEQEND
  8
0
  6
CONTINUOUS
 62
     7
  0
ENDBLK
  8
0
  0
BLOCK
  8
0
  2
KOZU0003
 70
    64
 10
0
 20
0
  0
POLYLINE
  8
0
  6
CONTINUOUS
 62
     7
 66
     1
 10
0
 20
0
 70
     1
 40
0.40000001
 41
0.40000001
  0
VERTEX
  8
0
  6
CONTINUOUS
 62
     7
 10
-0.2
 20
0
 42
1
  0
VERTEX
  8
0
  6
CONTINUOUS
 62
     7
 10
0.2
 20
0
 42
1
  0
SEQEND
  8
0
  6
CONTINUOUS
 62
     7
  0
ENDBLK
  8
0
  0
BLOCK
  8
0
  2
KOZU0004
 70
    64
 10
0
 20
0
  0
POLYLINE
  8
0
  6
CONTINUOUS
 62
     7
 66
     1
 10
0
 20
0
 70
     1
 40
0.40000001
 41
0.40000001
  0
VERTEX
  8
0
  6
CONTINUOUS
 62
     7
 10
-0.2
 20
0
 42
1
  0
VERTEX
  8
0
  6
CONTINUOUS
 62
     7
 10
0.2
 20
0
 42
1
  0
SEQEND
  8
0
  6
CONTINUOUS
 62
     7
  0
ENDBLK
  8
0
  0
BLOCK
  8
0
  2
KOZU0005
 70
    64
 10
0
 20
0
  0
POLYLINE
  8
0
  6
CONTINUOUS
 62
     7
 66
     1
 10
0
 20
0
 70
     1
 40
0.40000001
 41
0.40000001
  0
VERTEX
  8
0
  6
CONTINUOUS
 62
     7
 10
-0.2
 20
0
 42
1
  0
VERTEX
  8
0
  6
CONTINUOUS
 62
     7
 10
0.2
 20
0
 42
1
  0
SEQEND
  8
0
  6
CONTINUOUS
 62
     7
  0
ENDBLK
  8
0
  0
BLOCK
  8
0
  2
KOZU0006
 70
    64
 10
0
 20
0
  0
POLYLINE
  8
0
  6
CONTINUOUS
 62
     7
 66
     1
 10
0
 20
0
 70
     1
 40
0.40000001
 41
0.40000001
  0
VERTEX
  8
0
  6
CONTINUOUS
 62
     7
 10
-0.2
 20
0
 42
1
  0
VERTEX
  8
0
  6
CONTINUOUS
 62
     7
 10
0.2
 20
0
 42
1
  0
SEQEND
  8
0
  6
CONTINUOUS
 62
     7
  0
ENDBLK
  8
0
  0
BLOCK
  8
0
  2
KOZU0007
 70
    64
 10
0
 20
0
  0
POLYLINE
  8
0
  6
CONTINUOUS
 62
     7
 66
     1
 10
0
 20
0
 70
     1
 40
0.40000001
 41
0.40000001
  0
VERTEX
  8
0
  6
CONTINUOUS
 62
     7
 10
-0.2
 20
0
 42
1
  0
VERTEX
  8
0
  6
CONTINUOUS
 62
     7
 10
0.2
 20
0
 42
1
  0
SEQEND
  8
0
  6
CONTINUOUS
 62
     7
  0
ENDBLK
  8
0
  0
BLOCK
  8
0
  2
KOZU0008
 70
    64
 10
0
 20
0
  0
POLYLINE
  8
0
  6
CONTINUOUS
 62
     7
 66
     1
 10
0
 20
0
 70
     1
 40
0.40000001
 41
0.40000001
  0
VERTEX
  8
0
  6
CONTINUOUS
 62
     7
 10
-0.2
 20
0
 42
1
  0
VERTEX
  8
0
  6
CONTINUOUS
 62
     7
 10
0.2
 20
0
 42
1
  0
SEQEND
  8
0
  6
CONTINUOUS
 62
     7
  0
ENDBLK
  8
0
  0
BLOCK
  8
0
  2
KOZU0009
 70
    64
 10
0
 20
0
  0
POLYLINE
  8
0
  6
CONTINUOUS
 62
     7
 66
     1
 10
0
 20
0
 70
     1
 40
0.40000001
 41
0.40000001
  0
VERTEX
  8
0
  6
CONTINUOUS
 62
     7
 10
-0.2
 20
0
 42
1
  0
VERTEX
  8
0
  6
CONTINUOUS
 62
     7
 10
0.2
 20
0
 42
1
  0
SEQEND
  8
0
  6
CONTINUOUS
 62
     7
  0
ENDBLK
  8
0
  0
BLOCK
  8
0
  2
KOZU0010
 70
    64
 10
0
 20
0
  0
POLYLINE
  8
0
  6
CONTINUOUS
 62
     7
 66
     1
 10
0
 20
0
 70
     1
 40
0.40000001
 41
0.40000001
  0
VERTEX
  8
0
  6
CONTINUOUS
 62
     7
 10
-0.2
 20
0
 42
1
  0
VERTEX
  8
0
  6
CONTINUOUS
 62
     7
 10
0.2
 20
0
 42
1
  0
SEQEND
  8
0
  6
CONTINUOUS
 62
     7
  0
ENDBLK
  8
0
  0
BLOCK
  8
0
  2
KOZU0011
 70
    64
 10
0
 20
0
  0
POLYLINE
  8
0
  6
CONTINUOUS
 62
     7
 66
     1
 10
0
 20
0
 70
     1
 40
0.40000001
 41
0.40000001
  0
VERTEX
  8
0
  6
CONTINUOUS
 62
     7
 10
-0.2
 20
0
 42
1
  0
VERTEX
  8
0
  6
CONTINUOUS
 62
     7
 10
0.2
 20
0
 42
1
  0
SEQEND
  8
0
  6
CONTINUOUS
 62
     7
  0
ENDBLK
  8
0
  0
BLOCK
  8
0
  2
KOZU0012
 70
    64
 10
0
 20
0
  0
POLYLINE
  8
0
  6
CONTINUOUS
 62
     7
 66
     1
 10
0
 20
0
 70
     1
 40
0.40000001
 41
0.40000001
  0
VERTEX
  8
0
  6
CONTINUOUS
 62
     7
 10
-0.2
 20
0
 42
1
  0
VERTEX
  8
0
  6
CONTINUOUS
 62
     7
 10
0.2
 20
0
 42
1
  0
SEQEND
  8
0
  6
CONTINUOUS
 62
     7
  0
ENDBLK
  8
0
  0
BLOCK
  8
0
  2
KOZU0013
 70
    64
 10
0
 20
0
  0
POLYLINE
  8
0
  6
CONTINUOUS
 62
     7
 66
     1
 10
0
 20
0
 70
     1
 40
0.40000001
 41
0.40000001
  0
VERTEX
  8
0
  6
CONTINUOUS
 62
     7
 10
-0.2
 20
0
 42
1
  0
VERTEX
  8
0
  6
CONTINUOUS
 62
     7
 10
0.2
 20
0
 42
1
  0
SEQEND
  8
0
  6
CONTINUOUS
 62
     7
  0
ENDBLK
  8
0
  0
BLOCK
  8
0
  2
KOZU0014
 70
    64
 10
0
 20
0
  0
POLYLINE
  8
0
  6
CONTINUOUS
 62
     7
 66
     1
 10
0
 20
0
 70
     1
 40
0.40000001
 41
0.40000001
  0
VERTEX
  8
0
  6
CONTINUOUS
 62
     7
 10
-0.2
 20
0
 42
1
  0
VERTEX
  8
0
  6
CONTINUOUS
 62
     7
 10
0.2
 20
0
 42
1
  0
SEQEND
  8
0
  6
CONTINUOUS
 62
     7
  0
ENDBLK
  8
0
  0
BLOCK
  8
0
  2
KOZU0015
 70
    64
 10
0
 20
0
  0
POLYLINE
  8
0
  6
CONTINUOUS
 62
     7
 66
     1
 10
0
 20
0
 70
     1
 40
0.40000001
 41
0.40000001
  0
VERTEX
  8
0
  6
CONTINUOUS
 62
     7
 10
-0.2
 20
0
 42
1
  0
VERTEX
  8
0
  6
CONTINUOUS
 62
     7
 10
0.2
 20
0
 42
1
  0
SEQEND
  8
0
  6
CONTINUOUS
 62
     7
  0
ENDBLK
  8
0
  0
BLOCK
  8
0
  2
KOZU0016
 70
    64
 10
0
 20
0
  0
POLYLINE
  8
0
  6
CONTINUOUS
 62
     7
 66
     1
 10
0
 20
0
 70
     1
 40
0.40000001
 41
0.40000001
  0
VERTEX
  8
0
  6
CONTINUOUS
 62
     7
 10
-0.2
 20
0
 42
1
  0
VERTEX
  8
0
  6
CONTINUOUS
 62
     7
 10
0.2
 20
0
 42
1
  0
SEQEND
  8
0
  6
CONTINUOUS
 62
     7
  0
ENDBLK
  8
0
  0
BLOCK
  8
0
  2
KOZU0017
 70
    64
 10
0
 20
0
  0
POLYLINE
  8
0
  6
CONTINUOUS
 62
     7
 66
     1
 10
0
 20
0
 70
     1
 40
0.40000001
 41
0.40000001
  0
VERTEX
  8
0
  6
CONTINUOUS
 62
     7
 10
-0.2
 20
0
 42
1
  0
VERTEX
  8
0
  6
CONTINUOUS
 62
     7
 10
0.2
 20
0
 42
1
  0
SEQEND
  8
0
  6
CONTINUOUS
 62
     7
  0
ENDBLK
  8
0
  0
BLOCK
  8
0
  2
KOZU0018
 70
    64
 10
0
 20
0
  0
POLYLINE
  8
0
  6
CONTINUOUS
 62
     7
 66
     1
 10
0
 20
0
 70
     1
 40
0.40000001
 41
0.40000001
  0
VERTEX
  8
0
  6
CONTINUOUS
 62
     7
 10
-0.2
 20
0
 42
1
  0
VERTEX
  8
0
  6
CONTINUOUS
 62
     7
 10
0.2
 20
0
 42
1
  0
SEQEND
  8
0
  6
CONTINUOUS
 62
     7
  0
ENDBLK
  8
0
  0
BLOCK
  8
0
  2
KOZU0019
 70
    64
 10
0
 20
0
  0
POLYLINE
  8
0
  6
CONTINUOUS
 62
     7
 66
     1
 10
0
 20
0
 70
     1
 40
0.40000001
 41
0.40000001
  0
VERTEX
  8
0
  6
CONTINUOUS
 62
     7
 10
-0.2
 20
0
 42
1
  0
VERTEX
  8
0
  6
CONTINUOUS
 62
     7
 10
0.2
 20
0
 42
1
  0
SEQEND
  8
0
  6
CONTINUOUS
 62
     7
  0
ENDBLK
  8
0
  0
BLOCK
  8
0
  2
KOZU0020
 70
    64
 10
0
 20
0
  0
POLYLINE
  8
0
  6
CONTINUOUS
 62
     7
 66
     1
 10
0
 20
0
 70
     1
 40
0.40000001
 41
0.40000001
  0
VERTEX
  8
0
  6
CONTINUOUS
 62
     7
 10
-0.2
 20
0
 42
1
  0
VERTEX
  8
0
  6
CONTINUOUS
 62
     7
 10
0.2
 20
0
 42
1
  0
SEQEND
  8
0
  6
CONTINUOUS
 62
     7
  0
ENDBLK
  8
0
  0
BLOCK
  8
0
  2
KOZU0021
 70
    64
 10
0
 20
0
  0
POLYLINE
  8
0
  6
CONTINUOUS
 62
     7
 66
     1
 10
0
 20
0
 70
     1
 40
0.40000001
 41
0.40000001
  0
VERTEX
  8
0
  6
CONTINUOUS
 62
     7
 10
-0.2
 20
0
 42
1
  0
VERTEX
  8
0
  6
CONTINUOUS
 62
     7
 10
0.2
 20
0
 42
1
  0
SEQEND
  8
0
  6
CONTINUOUS
 62
     7
  0
ENDBLK
  8
0
  0
BLOCK
  8
0
  2
KOZU0022
 70
    64
 10
0
 20
0
  0
POLYLINE
  8
0
  6
CONTINUOUS
 62
     7
 66
     1
 10
0
 20
0
 70
     1
 40
0.40000001
 41
0.40000001
  0
VERTEX
  8
0
  6
CONTINUOUS
 62
     7
 10
-0.2
 20
0
 42
1
  0
VERTEX
  8
0
  6
CONTINUOUS
 62
     7
 10
0.2
 20
0
 42
1
  0
SEQEND
  8
0
  6
CONTINUOUS
 62
     7
  0
ENDBLK
  8
0
  0
BLOCK
  8
0
  2
KOZU0023
 70
    64
 10
0
 20
0
  0
POLYLINE
  8
0
  6
CONTINUOUS
 62
     7
 66
     1
 10
0
 20
0
 70
     1
 40
0.40000001
 41
0.40000001
  0
VERTEX
  8
0
  6
CONTINUOUS
 62
     7
 10
-0.2
 20
0
 42
1
  0
VERTEX
  8
0
  6
CONTINUOUS
 62
     7
 10
0.2
 20
0
 42
1
  0
SEQEND
  8
0
  6
CONTINUOUS
 62
     7
  0
ENDBLK
  8
0
  0
BLOCK
  8
0
  2
KOZU0024
 70
    64
 10
0
 20
0
  0
POLYLINE
  8
0
  6
CONTINUOUS
 62
     7
 66
     1
 10
0
 20
0
 70
     1
 40
0.40000001
 41
0.40000001
  0
VERTEX
  8
0
  6
CONTINUOUS
 62
     7
 10
-0.2
 20
0
 42
1
  0
VERTEX
  8
0
  6
CONTINUOUS
 62
     7
 10
0.2
 20
0
 42
1
  0
SEQEND
  8
0
  6
CONTINUOUS
 62
     7
  0
ENDBLK
  8
0
  0
BLOCK
  8
0
  2
KOZU0025
 70
    64
 10
0
 20
0
  0
POLYLINE
  8
0
  6
CONTINUOUS
 62
     7
 66
     1
 10
0
 20
0
 70
     1
 40
0.40000001
 41
0.40000001
  0
VERTEX
  8
0
  6
CONTINUOUS
 62
     7
 10
-0.2
 20
0
 42
1
  0
VERTEX
  8
0
  6
CONTINUOUS
 62
     7
 10
0.2
 20
0
 42
1
  0
SEQEND
  8
0
  6
CONTINUOUS
 62
     7
  0
ENDBLK
  8
0
  0
BLOCK
  8
0
  2
KOZU0026
 70
    64
 10
0
 20
0
  0
POLYLINE
  8
0
  6
CONTINUOUS
 62
     7
 66
     1
 10
0
 20
0
 70
     1
 40
0.40000001
 41
0.40000001
  0
VERTEX
  8
0
  6
CONTINUOUS
 62
     7
 10
-0.2
 20
0
 42
1
  0
VERTEX
  8
0
  6
CONTINUOUS
 62
     7
 10
0.2
 20
0
 42
1
  0
SEQEND
  8
0
  6
CONTINUOUS
 62
     7
  0
ENDBLK
  8
0
  0
BLOCK
  8
0
  2
KOZU0027
 70
    64
 10
0
 20
0
  0
POLYLINE
  8
0
  6
CONTINUOUS
 62
     7
 66
     1
 10
0
 20
0
 70
     1
 40
0.40000001
 41
0.40000001
  0
VERTEX
  8
0
  6
CONTINUOUS
 62
     7
 10
-0.2
 20
0
 42
1
  0
VERTEX
  8
0
  6
CONTINUOUS
 62
     7
 10
0.2
 20
0
 42
1
  0
SEQEND
  8
0
  6
CONTINUOUS
 62
     7
  0
ENDBLK
  8
0
  0
BLOCK
  8
0
  2
KOZU0028
 70
    64
 10
0
 20
0
  0
POLYLINE
  8
0
  6
CONTINUOUS
 62
     7
 66
     1
 10
0
 20
0
 70
     1
 40
0.40000001
 41
0.40000001
  0
VERTEX
  8
0
  6
CONTINUOUS
 62
     7
 10
-0.2
 20
0
 42
1
  0
VERTEX
  8
0
  6
CONTINUOUS
 62
     7
 10
0.2
 20
0
 42
1
  0
SEQEND
  8
0
  6
CONTINUOUS
 62
     7
  0
ENDBLK
  8
0
  0
BLOCK
  8
0
  2
KOZU0029
 70
    64
 10
0
 20
0
  0
POLYLINE
  8
0
  6
CONTINUOUS
 62
     7
 66
     1
 10
0
 20
0
 70
     1
 40
0.40000001
 41
0.40000001
  0
VERTEX
  8
0
  6
CONTINUOUS
 62
     7
 10
-0.2
 20
0
 42
1
  0
VERTEX
  8
0
  6
CONTINUOUS
 62
     7
 10
0.2
 20
0
 42
1
  0
SEQEND
  8
0
  6
CONTINUOUS
 62
     7
  0
ENDBLK
  8
0
  0
BLOCK
  8
0
  2
KOZU0030
 70
    64
 10
0
 20
0
  0
POLYLINE
  8
0
  6
CONTINUOUS
 62
     7
 66
     1
 10
0
 20
0
 70
     1
 40
0.40000001
 41
0.40000001
  0
VERTEX
  8
0
  6
CONTINUOUS
 62
     7
 10
-0.2
 20
0
 42
1
  0
VERTEX
  8
0
  6
CONTINUOUS
 62
     7
 10
0.2
 20
0
 42
1
  0
SEQEND
  8
0
  6
CONTINUOUS
 62
     7
  0
ENDBLK
  8
0
  0
BLOCK
  8
0
  2
KOZU0031
 70
    64
 10
0
 20
0
  0
POLYLINE
  8
0
  6
CONTINUOUS
 62
     7
 66
     1
 10
0
 20
0
 70
     1
 40
0.40000001
 41
0.40000001
  0
VERTEX
  8
0
  6
CONTINUOUS
 62
     7
 10
-0.2
 20
0
 42
1
  0
VERTEX
  8
0
  6
CONTINUOUS
 62
     7
 10
0.2
 20
0
 42
1
  0
SEQEND
  8
0
  6
CONTINUOUS
 62
     7
  0
ENDBLK
  8
0
  0
BLOCK
  8
0
  2
KOZU0032
 70
    64
 10
0
 20
0
  0
POLYLINE
  8
0
  6
CONTINUOUS
 62
     7
 66
     1
 10
0
 20
0
 70
     1
 40
0.40000001
 41
0.40000001
  0
VERTEX
  8
0
  6
CONTINUOUS
 62
     7
 10
-0.2
 20
0
 42
1
  0
VERTEX
  8
0
  6
CONTINUOUS
 62
     7
 10
0.2
 20
0
 42
1
  0
SEQEND
  8
0
  6
CONTINUOUS
 62
     7
  0
ENDBLK
  8
0
  0
BLOCK
  8
0
  2
KOZU0033
 70
    64
 10
0
 20
0
  0
POLYLINE
  8
0
  6
CONTINUOUS
 62
     7
 66
     1
 10
0
 20
0
 70
     1
 40
0.40000001
 41
0.40000001
  0
VERTEX
  8
0
  6
CONTINUOUS
 62
     7
 10
-0.2
 20
0
 42
1
  0
VERTEX
  8
0
  6
CONTINUOUS
 62
     7
 10
0.2
 20
0
 42
1
  0
SEQEND
  8
0
  6
CONTINUOUS
 62
     7
  0
ENDBLK
  8
0
  0
BLOCK
  8
0
  2
KOZU0034
 70
    64
 10
0
 20
0
  0
POLYLINE
  8
0
  6
CONTINUOUS
 62
     7
 66
     1
 10
0
 20
0
 70
     1
 40
0.40000001
 41
0.40000001
  0
VERTEX
  8
0
  6
CONTINUOUS
 62
     7
 10
-0.2
 20
0
 42
1
  0
VERTEX
  8
0
  6
CONTINUOUS
 62
     7
 10
0.2
 20
0
 42
1
  0
SEQEND
  8
0
  6
CONTINUOUS
 62
     7
  0
ENDBLK
  8
0
  0
BLOCK
  8
0
  2
KOZU0035
 70
    64
 10
0
 20
0
  0
POLYLINE
  8
0
  6
CONTINUOUS
 62
     7
 66
     1
 10
0
 20
0
 70
     1
 40
0.40000001
 41
0.40000001
  0
VERTEX
  8
0
  6
CONTINUOUS
 62
     7
 10
-0.2
 20
0
 42
1
  0
VERTEX
  8
0
  6
CONTINUOUS
 62
     7
 10
0.2
 20
0
 42
1
  0
SEQEND
  8
0
  6
CONTINUOUS
 62
     7
  0
ENDBLK
  8
0
  0
BLOCK
  8
0
  2
KOZU0036
 70
    64
 10
0
 20
0
  0
POLYLINE
  8
0
  6
CONTINUOUS
 62
     7
 66
     1
 10
0
 20
0
 70
     1
 40
0.40000001
 41
0.40000001
  0
VERTEX
  8
0
  6
CONTINUOUS
 62
     7
 10
-0.2
 20
0
 42
1
  0
VERTEX
  8
0
  6
CONTINUOUS
 62
     7
 10
0.2
 20
0
 42
1
  0
SEQEND
  8
0
  6
CONTINUOUS
 62
     7
  0
ENDBLK
  8
0
  0
BLOCK
  8
0
  2
KOZU0037
 70
    64
 10
0
 20
0
  0
POLYLINE
  8
0
  6
CONTINUOUS
 62
     7
 66
     1
 10
0
 20
0
 70
     1
 40
0.40000001
 41
0.40000001
  0
VERTEX
  8
0
  6
CONTINUOUS
 62
     7
 10
-0.2
 20
0
 42
1
  0
VERTEX
  8
0
  6
CONTINUOUS
 62
     7
 10
0.2
 20
0
 42
1
  0
SEQEND
  8
0
  6
CONTINUOUS
 62
     7
  0
ENDBLK
  8
0
  0
BLOCK
  8
0
  2
KOZU0038
 70
    64
 10
0
 20
0
  0
POLYLINE
  8
0
  6
CONTINUOUS
 62
     7
 66
     1
 10
0
 20
0
 70
     1
 40
0.40000001
 41
0.40000001
  0
VERTEX
  8
0
  6
CONTINUOUS
 62
     7
 10
-0.2
 20
0
 42
1
  0
VERTEX
  8
0
  6
CONTINUOUS
 62
     7
 10
0.2
 20
0
 42
1
  0
SEQEND
  8
0
  6
CONTINUOUS
 62
     7
  0
ENDBLK
  8
0
  0
BLOCK
  8
0
  2
KOZU0039
 70
    64
 10
0
 20
0
  0
POLYLINE
  8
0
  6
CONTINUOUS
 62
     7
 66
     1
 10
0
 20
0
 70
     1
 40
0.40000001
 41
0.40000001
  0
VERTEX
  8
0
  6
CONTINUOUS
 62
     7
 10
-0.2
 20
0
 42
1
  0
VERTEX
  8
0
  6
CONTINUOUS
 62
     7
 10
0.2
 20
0
 42
1
  0
SEQEND
  8
0
  6
CONTINUOUS
 62
     7
  0
ENDBLK
  8
0
  0
BLOCK
  8
0
  2
KOZU0040
 70
    64
 10
0
 20
0
  0
POLYLINE
  8
0
  6
CONTINUOUS
 62
     7
 66
     1
 10
0
 20
0
 70
     1
 40
0.40000001
 41
0.40000001
  0
VERTEX
  8
0
  6
CONTINUOUS
 62
     7
 10
-0.2
 20
0
 42
1
  0
VERTEX
  8
0
  6
CONTINUOUS
 62
     7
 10
0.2
 20
0
 42
1
  0
SEQEND
  8
0
  6
CONTINUOUS
 62
     7
  0
ENDBLK
  8
0
  0
BLOCK
  8
0
  2
KOZU0041
 70
    64
 10
0
 20
0
  0
POLYLINE
  8
0
  6
CONTINUOUS
 62
     7
 66
     1
 10
0
 20
0
 70
     1
 40
0.40000001
 41
0.40000001
  0
VERTEX
  8
0
  6
CONTINUOUS
 62
     7
 10
-0.2
 20
0
 42
1
  0
VERTEX
  8
0
  6
CONTINUOUS
 62
     7
 10
0.2
 20
0
 42
1
  0
SEQEND
  8
0
  6
CONTINUOUS
 62
     7
  0
ENDBLK
  8
0
  0
BLOCK
  8
0
  2
KOZU0042
 70
    64
 10
0
 20
0
  0
POLYLINE
  8
0
  6
CONTINUOUS
 62
     7
 66
     1
 10
0
 20
0
 70
     1
 40
0.40000001
 41
0.40000001
  0
VERTEX
  8
0
  6
CONTINUOUS
 62
     7
 10
-0.2
 20
0
 42
1
  0
VERTEX
  8
0
  6
CONTINUOUS
 62
     7
 10
0.2
 20
0
 42
1
  0
SEQEND
  8
0
  6
CONTINUOUS
 62
     7
  0
ENDBLK
  8
0
  0
BLOCK
  8
0
  2
KOZU0043
 70
    64
 10
0
 20
0
  0
POLYLINE
  8
0
  6
CONTINUOUS
 62
     7
 66
     1
 10
0
 20
0
 70
     1
 40
0.40000001
 41
0.40000001
  0
VERTEX
  8
0
  6
CONTINUOUS
 62
     7
 10
-0.2
 20
0
 42
1
  0
VERTEX
  8
0
  6
CONTINUOUS
 62
     7
 10
0.2
 20
0
 42
1
  0
SEQEND
  8
0
  6
CONTINUOUS
 62
     7
  0
ENDBLK
  8
0
  0
BLOCK
  8
0
  2
KOZU0044
 70
    64
 10
0
 20
0
  0
POLYLINE
  8
0
  6
CONTINUOUS
 62
     7
 66
     1
 10
0
 20
0
 70
     1
 40
0.40000001
 41
0.40000001
  0
VERTEX
  8
0
  6
CONTINUOUS
 62
     7
 10
-0.2
 20
0
 42
1
  0
VERTEX
  8
0
  6
CONTINUOUS
 62
     7
 10
0.2
 20
0
 42
1
  0
SEQEND
  8
0
  6
CONTINUOUS
 62
     7
  0
ENDBLK
  8
0
  0
ENDSEC
  0
SECTION
  2
ENTITIES
  0
POINT
  8
0
  6
CONTINUOUS
 62
     3
 10
1351.8745
 20
702.14801
  0
POINT
  8
0
  6
CONTINUOUS
 62
     3
 10
1366.8745
 20
717.14801
  0
POINT
  8
0
  6
CONTINUOUS
 62
     3
 10
1381.8745
 20
717.14801
  0
POINT
  8
0
  6
CONTINUOUS
 62
     3
 10
1351.8745
 20
602.14801
  0
POINT
  8
0
  6
CONTINUOUS
 62
     3
 10
1351.8745
 20
702.14801
  0
POINT
  8
0
  6
CONTINUOUS
 62
     3
 10
1381.8745
 20
702.14801
  0
POINT
  8
0
  6
CONTINUOUS
 62
     3
 10
1366.8745
 20
587.14801
  0
POINT
  8
0
  6
CONTINUOUS
 62
     3
 10
1351.8745
 20
602.14801
  0
POINT
  8
0
  6
CONTINUOUS
 62
     3
 10
1381.8745
 20
602.14801
  0
POINT
  8
0
  6
CONTINUOUS
 62
     3
 10
1201.8745
 20
602.14801
  0
POINT
  8
0
  6
CONTINUOUS
 62
     3
 10
1351.8745
 20
602.14801
  0
POINT
  8
0
  6
CONTINUOUS
 62
     3
 10
1351.8745
 20
572.14801
  0
POINT
  8
0
  6
CONTINUOUS
 62
     3
 10
1186.8745
 20
587.14801
  0
POINT
  8
0
  6
CONTINUOUS
 62
     3
 10
1201.8745
 20
602.14801
  0
POINT
  8
0
  6
CONTINUOUS
 62
     3
 10
1201.8745
 20
572.14801
  0
POINT
  8
0
  6
CONTINUOUS
 62
     3
 10
1351.8745
 20
602.14801
  0
POINT
  8
0
  6
CONTINUOUS
 62
     3
 10
1366.8745
 20
587.14801
  0
POINT
  8
0
  6
CONTINUOUS
 62
     3
 10
1366.8745
 20
572.14801
  0
POINT
  8
0
  6
CONTINUOUS
 62
     3
 10
1411.8745
 20
557.14801
  0
POINT
  8
0
  6
CONTINUOUS
 62
     3
 10
1428.8745
 20
632.14801
  0
POINT
  8
0
  6
CONTINUOUS
 62
     3
 10
1401.8745
 20
632.14801
  0
POINT
  8
0
  6
CONTINUOUS
 62
     3
 10
1425.3745
 20
507.14801
  0
POINT
  8
0
  6
CONTINUOUS
 62
     3
 10
1411.8745
 20
542.14801
  0
POINT
  8
0
  6
CONTINUOUS
 62
     3
 10
1401.8745
 20
542.14801
  0
POINT
  8
0
  6
CONTINUOUS
 62
     3
 10
1425.3745
 20
507.14801
  0
POINT
  8
0
  6
CONTINUOUS
 62
     3
 10
1411.8745
 20
557.14801
  0
POINT
  8
0
  6
CONTINUOUS
 62
     3
 10
1391.8745
 20
557.14801
  0
POINT
  8
0
  6
CONTINUOUS
 62
     3
 10
1411.8745
 20
542.14801
  0
POINT
  8
0
  6
CONTINUOUS
 62
     3
 10
1411.8745
 20
557.14801
  0
POINT
  8
0
  6
CONTINUOUS
 62
     3
 10
1401.8745
 20
557.14801
  0
POINT
  8
0
  6
CONTINUOUS
 62
     3
 10
1505.8745
 20
632.14801
  0
POINT
  8
0
  6
CONTINUOUS
 62
     3
 10
1503.8745
 20
630.14801
  0
POINT
  8
0
  6
CONTINUOUS
 62
     3
 10
1503.8745
 20
642.14801
  0
POINT
  8
0
  6
CONTINUOUS
 62
     3
 10
1524.8745
 20
632.14801
  0
POINT
  8
0
  6
CONTINUOUS
 62
     3
 10
1505.8745
 20
632.14801
  0
POINT
  8
0
  6
CONTINUOUS
 62
     3
 10
1505.8745
 20
642.14801
  0
POINT
  8
0
  6
CONTINUOUS
 62
     3
 10
1447.8745
 20
632.14801
  0
POINT
  8
0
  6
CONTINUOUS
 62
     3
 10
1449.8745
 20
630.14801
  0
POINT
  8
0
  6
CONTINUOUS
 62
     3
 10
1449.8745
 20
642.14801
  0
POINT
  8
0
  6
CONTINUOUS
 62
     3
 10
1447.8745
 20
632.14801
  0
POINT
  8
0
  6
CONTINUOUS
 62
     3
 10
1428.8745
 20
632.14801
  0
POINT
  8
0
  6
CONTINUOUS
 62
     3
 10
1428.8745
 20
642.14801
  0
POINT
  8
0
  6
CONTINUOUS
 62
     3
 10
1503.8745
 20
630.14801
  0
POINT
  8
0
  6
CONTINUOUS
 62
     3
 10
1449.8745
 20
630.14801
  0
POINT
  8
0
  6
CONTINUOUS
 62
     3
 10
1449.8745
 20
642.14801
  0
POINT
  8
0
  6
CONTINUOUS
 62
     3
 10
1541.8745
 20
542.14801
  0
POINT
  8
0
  6
CONTINUOUS
 62
     3
 10
1528.3745
 20
507.14801
  0
POINT
  8
0
  6
CONTINUOUS
 62
     3
 10
1528.3745
 20
492.14801
  0
POINT
  8
0
  6
CONTINUOUS
 62
     3
 10
1528.3745
 20
507.14801
  0
POINT
  8
0
  6
CONTINUOUS
 62
     3
 10
1425.3745
 20
507.14801
  0
POINT
  8
0
  6
CONTINUOUS
 62
     3
 10
1425.3745
 20
492.14801
  0
POINT
  8
0
  6
CONTINUOUS
 62
     3
 10
1425.3745
 20
507.14801
  0
POINT
  8
0
  6
CONTINUOUS
 62
     3
 10
1411.8745
 20
542.14801
  0
POINT
  8
0
  6
CONTINUOUS
 62
     3
 10
1411.8745
 20
492.14801
  0
POINT
  8
0
  6
CONTINUOUS
 62
     3
 10
1541.8745
 20
542.14801
  0
POINT
  8
0
  6
CONTINUOUS
 62
     3
 10
1411.8745
 20
542.14801
  0
POINT
  8
0
  6
CONTINUOUS
 62
     3
 10
1411.8745
 20
482.14801
  0
POINT
  8
0
  6
CONTINUOUS
 62
     7
 10
0
 20
0
  0
POINT
  8
0
  6
CONTINUOUS
 62
     3
 10
1366.8745
 20
542.14801
  0
POINT
  8
0
  6
CONTINUOUS
 62
     3
 10
1353.3745
 20
507.14801
  0
POINT
  8
0
  6
CONTINUOUS
 62
     3
 10
1353.3745
 20
492.14801
  0
POINT
  8
0
  6
CONTINUOUS
 62
     3
 10
1353.3745
 20
507.14801
  0
POINT
  8
0
  6
CONTINUOUS
 62
     3
 10
1200.3745
 20
507.14801
  0
POINT
  8
0
  6
CONTINUOUS
 62
     3
 10
1200.3745
 20
492.14801
  0
POINT
  8
0
  6
CONTINUOUS
 62
     3
 10
1186.8745
 20
542.14801
  0
POINT
  8
0
  6
CONTINUOUS
 62
     3
 10
1200.3745
 20
507.14801
  0
POINT
  8
0
  6
CONTINUOUS
 62
     3
 10
1200.3745
 20
492.14801
  0
POINT
  8
0
  6
CONTINUOUS
 62
     3
 10
1366.8745
 20
542.14801
  0
POINT
  8
0
  6
CONTINUOUS
 62
     3
 10
1186.8745
 20
542.14801
  0
POINT
  8
0
  6
CONTINUOUS
 62
     3
 10
1186.8745
 20
482.14801
  0
LINE
  8
0
  6
CONTINUOUS
 62
     3
 10
1352.8745
 20
702.14801
 11
1382.8745
 21
702.14801
  0
LINE
  8
0
  6
CONTINUOUS
 62
     3
 10
1367.8745
 20
717.14801
 11
1382.8745
 21
717.14801
  0
LINE
  8
0
  6
CONTINUOUS
 62
     3
 10
1381.8745
 20
702.948
 11
1381.8745
 21
716.34802
  0
LINE
  8
0
  6
CONTINUOUS
 62
     7
 10
1381.8745
 20
702.54803
 11
1381.8745
 21
702.948
  0
LINE
  8
0
  6
CONTINUOUS
 62
     7
 10
1381.8745
 20
716.74805
 11
1381.8745
 21
716.34802
  0
LINE
  8
0
  6
CONTINUOUS
 62
     3
 10
1352.8745
 20
602.14801
 11
1382.8745
 21
602.14801
  0
LINE
  8
0
  6
CONTINUOUS
 62
     3
 10
1352.8745
 20
702.14801
 11
1382.8745
 21
702.14801
  0
LINE
  8
0
  6
CONTINUOUS
 62
     3
 10
1381.8745
 20
602.948
 11
1381.8745
 21
701.34802
  0
LINE
  8
0
  6
CONTINUOUS
 62
     7
 10
1381.8745
 20
602.54803
 11
1381.8745
 21
602.948
  0
LINE
  8
0
  6
CONTINUOUS
 62
     7
 10
1381.8745
 20
701.74805
 11
1381.8745
 21
701.34802
  0
LINE
  8
0
  6
CONTINUOUS
 62
     3
 10
1367.8745
 20
587.14801
 11
1382.8745
 21
587.14801
  0
LINE
  8
0
  6
CONTINUOUS
 62
     3
 10
1352.8745
 20
602.14801
 11
1382.8745
 21
602.14801
  0
LINE
  8
0
  6
CONTINUOUS
 62
     3
 10
1381.8745
 20
587.948
 11
1381.8745
 21
601.34802
  0
LINE
  8
0
  6
CONTINUOUS
 62
     7
 10
1381.8745
 20
587.54803
 11
1381.8745
 21
587.948
  0
LINE
  8
0
  6
CONTINUOUS
 62
     7
 10
1381.8745
 20
601.74805
 11
1381.8745
 21
601.34802
  0
LINE
  8
0
  6
CONTINUOUS
 62
     7
 10
1201.8745
 20
702.14801
 11
1201.8745
 21
602.14801
  0
LINE
  8
0
  6
CONTINUOUS
 62
     7
 10
1351.8745
 20
702.14801
 11
1351.8745
 21
602.14801
  0
LINE
  8
0
  6
CONTINUOUS
 62
     7
 10
1366.8745
 20
717.14801
 11
1366.8745
 21
587.14801
  0
LINE
  8
0
  6
CONTINUOUS
 62
     7
 10
1186.8745
 20
717.14801
 11
1186.8745
 21
587.14801
  0
LINE
  8
0
  6
CONTINUOUS
 62
     7
 10
1201.8745
 20
602.14801
 11
1351.8745
 21
602.14801
  0
LINE
  8
0
  6
CONTINUOUS
 62
     7
 10
1186.8745
 20
587.14801
 11
1366.8745
 21
587.14801
  0
LINE
  8
0
  6
CONTINUOUS
 62
     7
 10
1188.3745
 20
557.14801
 11
1365.3745
 21
557.14801
  0
LINE
  8
0
  6
CONTINUOUS
 62
     7
 10
1186.8745
 20
542.14801
 11
1366.8745
 21
542.14801
  0
LINE
  8
0
  6
CONTINUOUS
 62
     7
 10
1200.3745
 20
507.14801
 11
1353.3745
 21
507.14801
  0
LINE
  8
0
  6
CONTINUOUS
 62
     3
 10
1201.8745
 20
601.14801
 11
1201.8745
 21
571.14801
  0
LINE
  8
0
  6
CONTINUOUS
 62
     3
 10
1351.8745
 20
601.14801
 11
1351.8745
 21
571.14801
  0
LINE
  8
0
  6
CONTINUOUS
 62
     3
 10
1202.6746
 20
572.14801
 11
1351.0745
 21
572.14801
  0
LINE
  8
0
  6
CONTINUOUS
 62
     7
 10
1202.2745
 20
572.14801
 11
1202.6746
 21
572.14801
  0
LINE
  8
0
  6
CONTINUOUS
 62
     7
 10
1351.4745
 20
572.14801
 11
1351.0745
 21
572.14801
  0
LINE
  8
0
  6
CONTINUOUS
 62
     7
 10
1200.3745
 20
542.14801
 11
1200.3745
 21
507.14801
  0
LINE
  8
0
  6
CONTINUOUS
 62
     3
 10
1186.8745
 20
586.14801
 11
1186.8745
 21
571.14801
  0
LINE
  8
0
  6
CONTINUOUS
 62
     3
 10
1201.8745
 20
601.14801
 11
1201.8745
 21
571.14801
  0
LINE
  8
0
  6
CONTINUOUS
 62
     3
 10
1187.6746
 20
572.14801
 11
1201.0745
 21
572.14801
  0
LINE
  8
0
  6
CONTINUOUS
 62
     7
 10
1187.2745
 20
572.14801
 11
1187.6746
 21
572.14801
  0
LINE
  8
0
  6
CONTINUOUS
 62
     7
 10
1201.4745
 20
572.14801
 11
1201.0745
 21
572.14801
  0
LINE
  8
0
  6
CONTINUOUS
 62
     7
 10
1186.8745
 20
555.64801
 11
1186.8745
 21
542.14801
  0
LINE
  8
0
  6
CONTINUOUS
 62
     7
 10
1353.3745
 20
542.14801
 11
1353.3745
 21
507.14801
  0
LINE
  8
0
  6
CONTINUOUS
 62
     7
 10
1366.8745
 20
555.64801
 11
1366.8745
 21
542.14801
  0
LINE
  8
0
  6
CONTINUOUS
 62
     3
 10
1351.8745
 20
601.14801
 11
1351.8745
 21
571.14801
  0
LINE
  8
0
  6
CONTINUOUS
 62
     3
 10
1366.8745
 20
586.14801
 11
1366.8745
 21
571.14801
  0
LINE
  8
0
  6
CONTINUOUS
 62
     3
 10
1352.6746
 20
572.14801
 11
1366.0745
 21
572.14801
  0
LINE
  8
0
  6
CONTINUOUS
 62
     7
 10
1352.2745
 20
572.14801
 11
1352.6746
 21
572.14801
  0
LINE
  8
0
  6
CONTINUOUS
 62
     7
 10
1366.4745
 20
572.14801
 11
1366.0745
 21
572.14801
  0
LINE
  8
0
  6
CONTINUOUS
 62
     7
 10
1201.8745
 20
627.14801
 11
1306.8745
 21
627.14801
  0
LINE
  8
0
  6
CONTINUOUS
 62
     7
 10
1201.8745
 20
677.14801
 11
1306.8745
 21
677.14801
  0
LINE
  8
0
  6
CONTINUOUS
 62
     7
 10
1205.8745
 20
625.14801
 11
1308.8745
 21
625.14801
  0
LINE
  8
0
  6
CONTINUOUS
 62
     7
 10
1205.8745
 20
679.14801
 11
1308.8745
 21
679.14801
  0
LINE
  8
0
  6
CONTINUOUS
 62
     7
 10
1203.8745
 20
681.14801
 11
1308.8745
 21
681.14801
  0
LINE
  8
0
  6
CONTINUOUS
 62
     7
 10
1203.8745
 20
623.14801
 11
1308.8745
 21
623.14801
  0
LINE
  8
0
  6
CONTINUOUS
 62
     7
 10
1203.8745
 20
604.14801
 11
1349.8745
 21
604.14801
  0
LINE
  8
0
  6
CONTINUOUS
 62
     7
 10
1203.8745
 20
700.14801
 11
1349.8745
 21
700.14801
  0
LINE
  8
0
  6
CONTINUOUS
 62
     7
 10
1201.8745
 20
702.14801
 11
1351.8745
 21
702.14801
  0
LINE
  8
0
  6
CONTINUOUS
 62
     7
 10
1186.8745
 20
717.14801
 11
1366.8745
 21
717.14801
  0
LINE
  8
0
  6
CONTINUOUS
 62
     7
 10
1203.8745
 20
700.14801
 11
1203.8745
 21
681.14801
  0
LINE
  8
0
  6
CONTINUOUS
 62
     7
 10
1205.8745
 20
625.14801
 11
1205.8745
 21
623.14801
  0
LINE
  8
0
  6
CONTINUOUS
 62
     7
 10
1203.8745
 20
623.14801
 11
1203.8745
 21
604.14801
  0
LINE
  8
0
  6
CONTINUOUS
 62
     7
 10
1217.6245
 20
651.39801
 11
1219.2594
 21
651.39801
  0
LINE
  8
0
  6
CONTINUOUS
 62
     7
 10
1217.6245
 20
652.89801
 11
1219.2594
 21
652.89801
  0
LINE
  8
0
  6
CONTINUOUS
 62
     7
 10
1214.4896
 20
651.39801
 11
1216.1245
 21
651.39801
  0
LINE
  8
0
  6
CONTINUOUS
 62
     7
 10
1216.1245
 20
651.39801
 11
1216.1245
 21
649.76318
  0
LINE
  8
0
  6
CONTINUOUS
 62
     7
 10
1217.6245
 20
651.39801
 11
1217.6245
 21
649.76318
  0
LINE
  8
0
  6
CONTINUOUS
 62
     7
 10
1214.4896
 20
652.89801
 11
1216.1245
 21
652.89801
  0
LINE
  8
0
  6
CONTINUOUS
 62
     7
 10
1217.6245
 20
654.53284
 11
1217.6245
 21
652.89801
  0
LINE
  8
0
  6
CONTINUOUS
 62
     7
 10
1216.1245
 20
654.53284
 11
1216.1245
 21
652.89801
  0
LINE
  8
0
  6
CONTINUOUS
 62
     7
 10
1205.8745
 20
681.14801
 11
1205.8745
 21
679.14801
  0
LINE
  8
0
  6
CONTINUOUS
 62
     7
 10
1349.8745
 20
700.14801
 11
1349.8745
 21
604.14801
  0
LINE
  8
0
  6
CONTINUOUS
 62
     7
 10
1306.8745
 20
677.14801
 11
1306.8745
 21
627.14801
  0
LINE
  8
0
  6
CONTINUOUS
 62
     7
 10
1271.8745
 20
627.14801
 11
1271.8745
 21
625.14801
  0
LINE
  8
0
  6
CONTINUOUS
 62
     7
 10
1279.8745
 20
626.14801
 11
1293.8745
 21
626.14801
  0
LINE
  8
0
  6
CONTINUOUS
 62
     7
 10
1279.8745
 20
627.14801
 11
1279.8745
 21
625.14801
  0
LINE
  8
0
  6
CONTINUOUS
 62
     7
 10
1293.8745
 20
627.14801
 11
1293.8745
 21
625.14801
  0
LINE
  8
0
  6
CONTINUOUS
 62
     7
 10
1271.8745
 20
679.14801
 11
1271.8745
 21
677.14801
  0
LINE
  8
0
  6
CONTINUOUS
 62
     7
 10
1281.1245
 20
651.39801
 11
1281.1245
 21
649.76318
  0
LINE
  8
0
  6
CONTINUOUS
 62
     7
 10
1279.4896
 20
651.39801
 11
1281.1245
 21
651.39801
  0
LINE
  8
0
  6
CONTINUOUS
 62
     7
 10
1282.6245
 20
651.39801
 11
1284.2594
 21
651.39801
  0
LINE
  8
0
  6
CONTINUOUS
 62
     7
 10
1282.6245
 20
651.39801
 11
1282.6245
 21
649.76318
  0
LINE
  8
0
  6
CONTINUOUS
 62
     7
 10
1281.1245
 20
654.53284
 11
1281.1245
 21
652.89801
  0
LINE
  8
0
  6
CONTINUOUS
 62
     7
 10
1279.4896
 20
652.89801
 11
1281.1245
 21
652.89801
  0
LINE
  8
0
  6
CONTINUOUS
 62
     7
 10
1282.6245
 20
652.89801
 11
1284.2594
 21
652.89801
  0
LINE
  8
0
  6
CONTINUOUS
 62
     7
 10
1282.6245
 20
654.53284
 11
1282.6245
 21
652.89801
  0
LINE
  8
0
  6
CONTINUOUS
 62
     7
 10
1279.8745
 20
678.14801
 11
1293.8745
 21
678.14801
  0
LINE
  8
0
  6
CONTINUOUS
 62
     7
 10
1279.8745
 20
679.14801
 11
1279.8745
 21
677.14801
  0
LINE
  8
0
  6
CONTINUOUS
 62
     7
 10
1293.8745
 20
679.14801
 11
1293.8745
 21
677.14801
  0
LINE
  8
0
  6
CONTINUOUS
 62
     7
 10
1308.8745
 20
681.14801
 11
1308.8745
 21
623.14801
  0
LINE
  8
0
  6
PHANTOM
 62
     3
 10
1428.8745
 20
632.14801
 11
1428.8745
 21
557.14801
  0
LINE
  8
0
  6
PHANTOM
 62
     3
 10
1524.8745
 20
632.14801
 11
1524.8745
 21
557.14801
  0
LINE
  8
0
  6
PHANTOM
 62
     3
 10
1505.8745
 20
632.14801
 11
1505.8745
 21
557.14801
  0
LINE
  8
0
  6
PHANTOM
 62
     3
 10
1447.8745
 20
632.14801
 11
1447.8745
 21
557.14801
  0
LINE
  8
0
  6
PHANTOM
 62
     3
 10
1449.8745
 20
630.14801
 11
1449.8745
 21
557.14801
  0
LINE
  8
0
  6
PHANTOM
 62
     3
 10
1503.8745
 20
630.14801
 11
1503.8745
 21
557.14801
  0
LINE
  8
0
  6
CENTER
 62
     4
 10
1476.8745
 20
637.14801
 11
1476.8745
 21
502.14801
  0
LINE
  8
0
  6
CONTINUOUS
 62
     3
 10
1410.8745
 20
557.14801
 11
1400.8745
 21
557.14801
  0
LINE
  8
0
  6
CONTINUOUS
 62
     3
 10
1427.8745
 20
632.14801
 11
1400.8745
 21
632.14801
  0
LINE
  8
0
  6
CONTINUOUS
 62
     3
 10
1401.8745
 20
557.948
 11
1401.8745
 21
631.34802
  0
LINE
  8
0
  6
CONTINUOUS
 62
     7
 10
1401.8745
 20
557.54803
 11
1401.8745
 21
557.948
  0
LINE
  8
0
  6
CONTINUOUS
 62
     7
 10
1401.8745
 20
631.74805
 11
1401.8745
 21
631.34802
  0
LINE
  8
0
  6
CONTINUOUS
 62
     7
 10
1425.3745
 20
507.14801
 11
1528.3745
 21
507.14801
  0
LINE
  8
0
  6
CONTINUOUS
 62
     7
 10
1411.8745
 20
542.14801
 11
1541.8745
 21
542.14801
  0
LINE
  8
0
  6
CONTINUOUS
 62
     7
 10
1413.3745
 20
557.14801
 11
1540.3745
 21
557.14801
  0
LINE
  8
0
  6
CONTINUOUS
 62
     7
 10
1425.3745
 20
542.14801
 11
1425.3745
 21
507.14801
  0
LINE
  8
0
  6
CONTINUOUS
 62
     3
 10
1424.3745
 20
507.14801
 11
1400.8745
 21
507.14801
  0
LINE
  8
0
  6
CONTINUOUS
 62
     3
 10
1410.8745
 20
542.14801
 11
1400.8745
 21
542.14801
  0
LINE
  8
0
  6
CONTINUOUS
 62
     3
 10
1401.8745
 20
507.94803
 11
1401.8745
 21
541.34802
  0
LINE
  8
0
  6
CONTINUOUS
 62
     7
 10
1401.8745
 20
507.548
 11
1401.8745
 21
507.94803
  0
LINE
  8
0
  6
CONTINUOUS
 62
     7
 10
1401.8745
 20
541.74805
 11
1401.8745
 21
541.34802
  0
LINE
  8
0
  6
CONTINUOUS
 62
     3
 10
1424.3745
 20
507.14801
 11
1390.8745
 21
507.14801
  0
LINE
  8
0
  6
CONTINUOUS
 62
     3
 10
1410.8745
 20
557.14801
 11
1390.8745
 21
557.14801
  0
LINE
  8
0
  6
CONTINUOUS
 62
     3
 10
1391.8745
 20
507.94803
 11
1391.8745
 21
556.34802
  0
LINE
  8
0
  6
CONTINUOUS
 62
     7
 10
1391.8745
 20
507.548
 11
1391.8745
 21
507.94803
  0
LINE
  8
0
  6
CONTINUOUS
 62
     7
 10
1391.8745
 20
556.74805
 11
1391.8745
 21
556.34802
  0
LINE
  8
0
  6
CONTINUOUS
 62
     3
 10
1410.8745
 20
542.14801
 11
1400.8745
 21
542.14801
  0
LINE
  8
0
  6
CONTINUOUS
 62
     3
 10
1410.8745
 20
557.14801
 11
1400.8745
 21
557.14801
  0
LINE
  8
0
  6
CONTINUOUS
 62
     3
 10
1401.8745
 20
542.948
 11
1401.8745
 21
556.34802
  0
LINE
  8
0
  6
CONTINUOUS
 62
     7
 10
1401.8745
 20
542.54803
 11
1401.8745
 21
542.948
  0
LINE
  8
0
  6
CONTINUOUS
 62
     7
 10
1401.8745
 20
556.74805
 11
1401.8745
 21
556.34802
  0
LINE
  8
0
  6
CONTINUOUS
 62
     7
 10
1411.8745
 20
555.64801
 11
1411.8745
 21
542.14801
  0
LINE
  8
0
  6
CONTINUOUS
 62
     7
 10
1528.3745
 20
542.14801
 11
1528.3745
 21
507.14801
  0
LINE
  8
0
  6
CONTINUOUS
 62
     7
 10
1541.8745
 20
555.64801
 11
1541.8745
 21
542.14801
  0
LINE
  8
0
  6
CONTINUOUS
 62
     7
 10
1437.8745
 20
707.01605
 11
1517.8745
 21
707.01605
  0
LINE
  8
0
  6
CONTINUOUS
 62
     7
 10
1437.8745
 20
712.01605
 11
1517.8745
 21
712.01605
  0
LINE
  8
0
  6
CONTINUOUS
 62
     7
 10
1437.8745
 20
717.01605
 11
1517.8745
 21
717.01605
  0
LINE
  8
0
  6
CONTINUOUS
 62
     7
 10
1437.8745
 20
722.01605
 11
1517.8745
 21
722.01605
  0
LINE
  8
0
  6
PHANTOM
 62
     3
 10
1428.8745
 20
630.64801
 11
1447.8745
 21
630.64801
  0
LINE
  8
0
  6
PHANTOM
 62
     3
 10
1428.8745
 20
632.14801
 11
1447.8745
 21
632.14801
  0
LINE
  8
0
  6
PHANTOM
 62
     3
 10
1447.8745
 20
630.14801
 11
1449.8745
 21
630.14801
  0
LINE
  8
0
  6
CONTINUOUS
 62
     7
 10
1437.8745
 20
722.01605
 11
1437.8745
 21
707.01605
  0
LINE
  8
0
  6
CONTINUOUS
 62
     7
 10
1477.8745
 20
722.01605
 11
1477.8745
 21
707.01605
  0
LINE
  8
0
  6
PHANTOM
 62
     3
 10
1505.8745
 20
630.64801
 11
1524.8745
 21
630.64801
  0
LINE
  8
0
  6
PHANTOM
 62
     3
 10
1505.8745
 20
632.14801
 11
1524.8745
 21
632.14801
  0
LINE
  8
0
  6
PHANTOM
 62
     3
 10
1503.8745
 20
630.14801
 11
1505.8745
 21
630.14801
  0
LINE
  8
0
  6
CONTINUOUS
 62
     7
 10
1487.8745
 20
722.01605
 11
1487.8745
 21
707.01605
  0
LINE
  8
0
  6
CONTINUOUS
 62
     7
 10
1497.8745
 20
722.01605
 11
1497.8745
 21
707.01605
  0
LINE
  8
0
  6
CONTINUOUS
 62
     7
 10
1507.8745
 20
722.01605
 11
1507.8745
 21
707.01605
  0
LINE
  8
0
  6
CONTINUOUS
 62
     7
 10
1517.8745
 20
722.01605
 11
1517.8745
 21
707.01605
  0
LINE
  8
0
  6
CONTINUOUS
 62
     3
 10
1505.8745
 20
633.14801
 11
1505.8745
 21
643.14801
  0
LINE
  8
0
  6
CONTINUOUS
 62
     3
 10
1503.8745
 20
631.14801
 11
1503.8745
 21
643.14801
  0
LINE
  8
0
  6
CONTINUOUS
 62
     3
 10
1506.6746
 20
642.14801
 11
1507.4745
 21
642.14801
  0
LINE
  8
0
  6
CONTINUOUS
 62
     3
 10
1503.0745
 20
642.14801
 11
1502.2745
 21
642.14801
  0
LINE
  8
0
  6
CONTINUOUS
 62
     3
 10
1505.8745
 20
642.14801
 11
1503.8745
 21
642.14801
  0
LINE
  8
0
  6
CONTINUOUS
 62
     7
 10
1505.8745
 20
642.14801
 11
1506.6746
 21
642.14801
  0
LINE
  8
0
  6
CONTINUOUS
 62
     7
 10
1503.4745
 20
642.14801
 11
1503.0745
 21
642.14801
  0
LINE
  8
0
  6
CONTINUOUS
 62
     3
 10
1524.8745
 20
633.14801
 11
1524.8745
 21
643.14801
  0
LINE
  8
0
  6
CONTINUOUS
 62
     3
 10
1505.8745
 20
633.14801
 11
1505.8745
 21
643.14801
  0
LINE
  8
0
  6
CONTINUOUS
 62
     3
 10
1524.0745
 20
642.14801
 11
1506.6746
 21
642.14801
  0
LINE
  8
0
  6
CONTINUOUS
 62
     7
 10
1524.4745
 20
642.14801
 11
1524.0745
 21
642.14801
  0
LINE
  8
0
  6
CONTINUOUS
 62
     7
 10
1506.2745
 20
642.14801
 11
1506.6746
 21
642.14801
  0
LINE
  8
0
  6
CONTINUOUS
 62
     3
 10
1447.8745
 20
633.14801
 11
1447.8745
 21
643.14801
  0
LINE
  8
0
  6
CONTINUOUS
 62
     3
 10
1449.8745
 20
631.14801
 11
1449.8745
 21
643.14801
  0
LINE
  8
0
  6
CONTINUOUS
 62
     3
 10
1447.0745
 20
642.14801
 11
1446.2745
 21
642.14801
  0
LINE
  8
0
  6
CONTINUOUS
 62
     3
 10
1450.6746
 20
642.14801
 11
1451.4745
 21
642.14801
  0
LINE
  8
0
  6
CONTINUOUS
 62
     3
 10
1447.8745
 20
642.14801
 11
1449.8745
 21
642.14801
  0
LINE
  8
0
  6
CONTINUOUS
 62
     7
 10
1447.8745
 20
642.14801
 11
1447.0745
 21
642.14801
  0
LINE
  8
0
  6
CONTINUOUS
 62
     7
 10
1450.2745
 20
642.14801
 11
1450.6746
 21
642.14801
  0
LINE
  8
0
  6
CONTINUOUS
 62
     3
 10
1447.8745
 20
633.14801
 11
1447.8745
 21
643.14801
  0
LINE
  8
0
  6
CONTINUOUS
 62
     3
 10
1428.8745
 20
633.14801
 11
1428.8745
 21
643.14801
  0
LINE
  8
0
  6
CONTINUOUS
 62
     3
 10
1447.0745
 20
642.14801
 11
1429.6746
 21
642.14801
  0
LINE
  8
0
  6
CONTINUOUS
 62
     7
 10
1447.4745
 20
642.14801
 11
1447.0745
 21
642.14801
  0
LINE
  8
0
  6
CONTINUOUS
 62
     7
 10
1429.2745
 20
642.14801
 11
1429.6746
 21
642.14801
  0
LINE
  8
0
  6
CONTINUOUS
 62
     3
 10
1503.8745
 20
631.14801
 11
1503.8745
 21
643.14801
  0
LINE
  8
0
  6
CONTINUOUS
 62
     3
 10
1449.8745
 20
631.14801
 11
1449.8745
 21
643.14801
  0
LINE
  8
0
  6
CONTINUOUS
 62
     3
 10
1503.0745
 20
642.14801
 11
1450.6746
 21
642.14801
  0
LINE
  8
0
  6
CONTINUOUS
 62
     7
 10
1503.4745
 20
642.14801
 11
1503.0745
 21
642.14801
  0
LINE
  8
0
  6
CONTINUOUS
 62
     7
 10
1450.2745
 20
642.14801
 11
1450.6746
 21
642.14801
  0
LINE
  8
0
  6
CONTINUOUS
 62
     3
 10
1541.8745
 20
541.14801
 11
1541.8745
 21
491.14801
  0
LINE
  8
0
  6
CONTINUOUS
 62
     3
 10
1528.3745
 20
506.14801
 11
1528.3745
 21
491.14801
  0
LINE
  8
0
  6
CONTINUOUS
 62
     3
 10
1541.0745
 20
492.14801
 11
1529.1746
 21
492.14801
  0
LINE
  8
0
  6
CONTINUOUS
 62
     7
 10
1541.4745
 20
492.14801
 11
1541.0745
 21
492.14801
  0
LINE
  8
0
  6
CONTINUOUS
 62
     7
 10
1528.7745
 20
492.14801
 11
1529.1746
 21
492.14801
  0
LINE
  8
0
  6
CONTINUOUS
 62
     3
 10
1528.3745
 20
506.14801
 11
1528.3745
 21
491.14801
  0
LINE
  8
0
  6
CONTINUOUS
 62
     3
 10
1425.3745
 20
506.14801
 11
1425.3745
 21
491.14801
  0
LINE
  8
0
  6
CONTINUOUS
 62
     3
 10
1527.5745
 20
492.14801
 11
1426.1746
 21
492.14801
  0
LINE
  8
0
  6
CONTINUOUS
 62
     7
 10
1527.9745
 20
492.14801
 11
1527.5745
 21
492.14801
  0
LINE
  8
0
  6
CONTINUOUS
 62
     7
 10
1425.7745
 20
492.14801
 11
1426.1746
 21
492.14801
  0
LINE
  8
0
  6
CONTINUOUS
 62
     3
 10
1425.3745
 20
506.14801
 11
1425.3745
 21
491.14801
  0
LINE
  8
0
  6
CONTINUOUS
 62
     3
 10
1411.8745
 20
541.14801
 11
1411.8745
 21
491.14801
  0
LINE
  8
0
  6
CONTINUOUS
 62
     3
 10
1424.5745
 20
492.14801
 11
1412.6746
 21
492.14801
  0
LINE
  8
0
  6
CONTINUOUS
 62
     7
 10
1424.9745
 20
492.14801
 11
1424.5745
 21
492.14801
  0
LINE
  8
0
  6
CONTINUOUS
 62
     7
 10
1412.2745
 20
492.14801
 11
1412.6746
 21
492.14801
  0
LINE
  8
0
  6
CONTINUOUS
 62
     3
 10
1541.8745
 20
541.14801
 11
1541.8745
 21
481.14801
  0
LINE
  8
0
  6
CONTINUOUS
 62
     3
 10
1411.8745
 20
541.14801
 11
1411.8745
 21
481.14801
  0
LINE
  8
0
  6
CONTINUOUS
 62
     3
 10
1541.0745
 20
482.14801
 11
1412.6746
 21
482.14801
  0
LINE
  8
0
  6
CONTINUOUS
 62
     7
 10
1541.4745
 20
482.14801
 11
1541.0745
 21
482.14801
  0
LINE
  8
0
  6
CONTINUOUS
 62
     7
 10
1412.2745
 20
482.14801
 11
1412.6746
 21
482.14801
  0
LINE
  8
0
  6
CENTER
 62
     4
 10
1369.8745
 20
652.14801
 11
1183.8745
 21
652.14801
  0
LINE
  8
0
  6
CONTINUOUS
 62
     7
 10
1010.9001
 20
420.37091
 11
1604.9001
 21
420.37091
  0
LINE
  8
0
  6
CONTINUOUS
 62
     7
 10
1010.9001
 20
840.37091
 11
1010.9001
 21
420.37091
  0
LINE
  8
0
  6
CONTINUOUS
 62
     7
 10
1585.4001
 20
433.12091
 11
1585.4001
 21
827.62091
  0
LINE
  8
0
  6
CONTINUOUS
 62
     7
 10
1030.4001
 20
731.62091
 11
1030.4001
 21
433.12091
  0
LINE
  8
0
  6
CONTINUOUS
 62
     7
 10
1585.4001
 20
827.62091
 11
1140.4001
 21
827.62091
  0
LINE
  8
0
  6
CONTINUOUS
 62
     7
 10
1030.4001
 20
433.12091
 11
1585.4001
 21
433.12091
  0
LINE
  8
0
  6
CONTINUOUS
 62
     7
 10
1604.9001
 20
840.37091
 11
1604.9001
 21
420.37091
  0
LINE
  8
0
  6
CONTINUOUS
 62
     7
 10
1010.9001
 20
840.37091
 11
1604.9001
 21
840.37091
  0
LINE
  8
0
  6
CONTINUOUS
 62
     7
 10
1030.4001
 20
827.62091
 11
1140.4001
 21
827.62091
  0
LINE
  8
0
  6
CONTINUOUS
 62
     7
 10
1030.4001
 20
827.62091
 11
1030.4001
 21
731.62091
  0
LINE
  8
0
  6
CONTINUOUS
 62
     7
 10
1050.4001
 20
827.62091
 11
1050.4001
 21
731.62091
  0
LINE
  8
0
  6
CONTINUOUS
 62
     7
 10
1030.4001
 20
819.62091
 11
1140.4001
 21
819.62091
  0
LINE
  8
0
  6
CONTINUOUS
 62
     7
 10
1030.4001
 20
811.62091
 11
1140.4001
 21
811.62091
  0
LINE
  8
0
  6
CONTINUOUS
 62
     7
 10
1030.4001
 20
803.62091
 11
1140.4001
 21
803.62091
  0
LINE
  8
0
  6
CONTINUOUS
 62
     7
 10
1030.4001
 20
795.62091
 11
1140.4001
 21
795.62091
  0
LINE
  8
0
  6
CONTINUOUS
 62
     7
 10
1050.4001
 20
771.62091
 11
1140.4001
 21
771.62091
  0
LINE
  8
0
  6
CONTINUOUS
 62
     7
 10
1050.4001
 20
763.62091
 11
1140.4001
 21
763.62091
  0
LINE
  8
0
  6
CONTINUOUS
 62
     7
 10
1030.4001
 20
755.62091
 11
1140.4001
 21
755.62091
  0
LINE
  8
0
  6
CONTINUOUS
 62
     7
 10
1050.4001
 20
747.62091
 11
1140.4001
 21
747.62091
  0
LINE
  8
0
  6
CONTINUOUS
 62
     7
 10
1050.4001
 20
739.62091
 11
1140.4001
 21
739.62091
  0
LINE
  8
0
  6
CONTINUOUS
 62
     7
 10
1030.4001
 20
731.62091
 11
1140.4001
 21
731.62091
  0
LINE
  8
0
  6
CONTINUOUS
 62
     7
 10
1030.4001
 20
827.62091
 11
1030.4001
 21
731.62091
  0
LINE
  8
0
  6
CONTINUOUS
 62
     7
 10
1030.4001
 20
827.62091
 11
1140.4001
 21
827.62091
  0
LINE
  8
0
  6
CONTINUOUS
 62
     7
 10
1140.4001
 20
827.62091
 11
1140.4001
 21
731.62091
  0
LINE
  8
0
  6
CONTINUOUS
 62
     7
 10
1030.4001
 20
787.62091
 11
1140.4001
 21
787.62091
  0
LINE
  8
0
  6
CONTINUOUS
 62
     7
 10
1030.4001
 20
779.62091
 11
1140.4001
 21
779.62091
  0
LINE
  8
0
  6
CONTINUOUS
 62
     7
 10
1050.4001
 20
771.62091
 11
1140.4001
 21
771.62091
  0
LINE
  8
0
  6
CONTINUOUS
 62
     3
 10
1366.8745
 20
541.14801
 11
1366.8745
 21
491.14801
  0
LINE
  8
0
  6
CONTINUOUS
 62
     3
 10
1353.3745
 20
506.14801
 11
1353.3745
 21
491.14801
  0
LINE
  8
0
  6
CONTINUOUS
 62
     3
 10
1366.0745
 20
492.14801
 11
1354.1746
 21
492.14801
  0
LINE
  8
0
  6
CONTINUOUS
 62
     7
 10
1366.4745
 20
492.14801
 11
1366.0745
 21
492.14801
  0
LINE
  8
0
  6
CONTINUOUS
 62
     7
 10
1353.7745
 20
492.14801
 11
1354.1746
 21
492.14801
  0
LINE
  8
0
  6
CONTINUOUS
 62
     3
 10
1353.3745
 20
506.14801
 11
1353.3745
 21
491.14801
  0
LINE
  8
0
  6
CONTINUOUS
 62
     3
 10
1200.3745
 20
506.14801
 11
1200.3745
 21
491.14801
  0
LINE
  8
0
  6
CONTINUOUS
 62
     3
 10
1352.5745
 20
492.14801
 11
1201.1746
 21
492.14801
  0
LINE
  8
0
  6
CONTINUOUS
 62
     7
 10
1352.9745
 20
492.14801
 11
1352.5745
 21
492.14801
  0
LINE
  8
0
  6
CONTINUOUS
 62
     7
 10
1200.7745
 20
492.14801
 11
1201.1746
 21
492.14801
  0
LINE
  8
0
  6
CONTINUOUS
 62
     3
 10
1186.8745
 20
541.14801
 11
1186.8745
 21
491.14801
  0
LINE
  8
0
  6
CONTINUOUS
 62
     3
 10
1200.3745
 20
506.14801
 11
1200.3745
 21
491.14801
  0
LINE
  8
0
  6
CONTINUOUS
 62
     3
 10
1187.6746
 20
492.14801
 11
1199.5745
 21
492.14801
  0
LINE
  8
0
  6
CONTINUOUS
 62
     7
 10
1187.2745
 20
492.14801
 11
1187.6746
 21
492.14801
  0
LINE
  8
0
  6
CONTINUOUS
 62
     7
 10
1199.9745
 20
492.14801
 11
1199.5745
 21
492.14801
  0
LINE
  8
0
  6
CONTINUOUS
 62
     3
 10
1366.8745
 20
541.14801
 11
1366.8745
 21
481.14801
  0
LINE
  8
0
  6
CONTINUOUS
 62
     3
 10
1186.8745
 20
541.14801
 11
1186.8745
 21
481.14801
  0
LINE
  8
0
  6
CONTINUOUS
 62
     3
 10
1366.0745
 20
482.14801
 11
1187.6746
 21
482.14801
  0
LINE
  8
0
  6
CONTINUOUS
 62
     7
 10
1366.4745
 20
482.14801
 11
1366.0745
 21
482.14801
  0
LINE
  8
0
  6
CONTINUOUS
 62
     7
 10
1187.2745
 20
482.14801
 11
1187.6746
 21
482.14801
  0
ARC
  8
0
  6
CONTINUOUS
 62
     7
 10
1188.3745
 20
555.64801
 40
1.5
 50
90
 51
180
  0
ARC
  8
0
  6
CONTINUOUS
 62
     7
 10
1365.3745
 20
555.64801
 40
1.5
 50
0
 51
90
  0
CIRCLE
  8
0
  6
CONTINUOUS
 62
     7
 10
1216.8745
 20
652.14801
 40
3.5
  0
ARC
  8
0
  6
CONTINUOUS
 62
     7
 10
1216.8745
 20
652.14801
 40
2.5
 50
162.54267
 51
197.45733
  0
ARC
  8
0
  6
CONTINUOUS
 62
     7
 10
1216.8745
 20
652.14801
 40
2.5
 50
252.54225
 51
287.45775
  0
ARC
  8
0
  6
CONTINUOUS
 62
     7
 10
1216.8745
 20
652.14801
 40
2.5
 50
72.54225
 51
107.45775
  0
ARC
  8
0
  6
CONTINUOUS
 62
     7
 10
1216.8745
 20
652.14801
 40
2.5
 50
342.54267
 51
17.45733
  0
ARC
  8
0
  6
CONTINUOUS
 62
     7
 10
1281.8745
 20
652.14801
 40
2.5
 50
162.54267
 51
197.45733
  0
ARC
  8
0
  6
CONTINUOUS
 62
     7
 10
1281.8745
 20
652.14801
 40
2.5
 50
342.54267
 51
17.45733
  0
CIRCLE
  8
0
  6
CONTINUOUS
 62
     7
 10
1281.8745
 20
652.14801
 40
3.5
  0
ARC
  8
0
  6
CONTINUOUS
 62
     7
 10
1281.8745
 20
652.14801
 40
2.5
 50
252.54225
 51
287.45775
  0
ARC
  8
0
  6
CONTINUOUS
 62
     7
 10
1281.8745
 20
652.14801
 40
2.5
 50
72.54225
 51
107.45775
  0
ARC
  8
0
  6
CONTINUOUS
 62
     7
 10
1413.3745
 20
555.64801
 40
1.5
 50
90
 51
180
  0
ARC
  8
0
  6
CONTINUOUS
 62
     7
 10
1540.3745
 20
555.64801
 40
1.5
 50
0
 51
90
  0
POLYLINE
  8
0
  6
CONTINUOUS
 62
     7
 66
     1
 10
0
 20
0
 70
     1
 40
0.25
 41
0.25
  0
VERTEX
  8
0
  6
CONTINUOUS
 62
     7
 10
1505.7745
 20
642.14801
 42
1
  0
VERTEX
  8
0
  6
CONTINUOUS
 62
     7
 10
1505.9745
 20
642.14801
 42
1
  0
SEQEND
  8
0
  6
CONTINUOUS
 62
     7
  0
POLYLINE
  8
0
  6
CONTINUOUS
 62
     7
 66
     1
 10
0
 20
0
 70
     1
 40
0.25
 41
0.25
  0
VERTEX
  8
0
  6
CONTINUOUS
 62
     7
 10
1447.7745
 20
642.14801
 42
1
  0
VERTEX
  8
0
  6
CONTINUOUS
 62
     7
 10
1447.9745
 20
642.14801
 42
1
  0
SEQEND
  8
0
  6
CONTINUOUS
 62
     7
  0
TEXT
  8
0
  6
CONTINUOUS
 62
     3
 10
1380.3745
 20
706.98134
 40
3.2
 41
1.25
  1
15
 50
90.000003
  0
TEXT
  8
0
  6
CONTINUOUS
 62
     3
 10
1380.3745
 20
647.88134
 40
3.2
 41
1.2972973
  1
100
 50
90.000003
  0
TEXT
  8
0
  6
CONTINUOUS
 62
     3
 10
1380.3745
 20
591.98134
 40
3.2
 41
1.25
  1
15
 50
90.000003
  0
TEXT
  8
0
  6
CONTINUOUS
 62
     3
 10
1275.8078
 20
573.64805
 40
3.2
 41
1
  1
C
  0
TEXT
  8
0
  6
CONTINUOUS
 62
     3
 10
1191.7078
 20
573.64805
 40
3.2
 41
1.25
  1
15
  0
TEXT
  8
0
  6
CONTINUOUS
 62
     3
 10
1356.7078
 20
573.64805
 40
3.2
 41
1.25
  1
15
  0
TEXT
  8
0
  6
CONTINUOUS
 62
     3
 10
1400.3523
 20
593.58134
 40
3.2
 41
1
  1
D
 50
90.000003
  0
TEXT
  8
0
  6
CONTINUOUS
 62
     3
 10
1400.3745
 20
521.98134
 40
3.2
 41
1
  1
35
 50
90.000003
  0
TEXT
  8
0
  6
CONTINUOUS
 62
     3
 10
1390.3745
 20
529.48134
 40
3.2
 41
1.0714286
  1
50
 50
90.000003
  0
TEXT
  8
0
  6
CONTINUOUS
 62
     3
 10
1400.3745
 20
546.98134
 40
3.2
 41
1.25
  1
15
 50
90.000003
  0
TEXT
  8
0
  6
CONTINUOUS
 62
     2
 10
1479.1031
 20
708.01606
 40
3.2
 41
0.60999997
  1
２００
  0
TEXT
  8
0
  6
CONTINUOUS
 62
     2
 10
1479.1031
 20
713.01606
 40
3.2
 41
0.60999997
  1
１５０
  0
TEXT
  8
0
  6
CONTINUOUS
 62
     2
 10
1444.5031
 20
708.01606
 40
3.2
 41
0.60999998
  1
ＤＣ－９０－１２５
  0
TEXT
  8
0
  6
CONTINUOUS
 62
     2
 10
1446.1031
 20
713.01606
 40
3.2
 41
0.61
  1
ＤＣ－９０－７５
  0
TEXT
  8
0
  6
CONTINUOUS
 62
     2
 10
1455.7031
 20
718.01606
 40
3.2
 41
0.61
  1
品番
  0
TEXT
  8
0
  6
CONTINUOUS
 62
     2
 10
1482.3032
 20
718.01606
 40
3.2
 41
0.61000001
  1
Ａ
  0
TEXT
  8
0
  6
CONTINUOUS
 62
     2
 10
1509.1031
 20
708.01606
 40
3.2
 41
0.60999997
  1
１２５
  0
TEXT
  8
0
  6
CONTINUOUS
 62
     2
 10
1499.1031
 20
708.01606
 40
3.2
 41
0.60999997
  1
１７０
  0
TEXT
  8
0
  6
CONTINUOUS
 62
     2
 10
1499.1031
 20
713.01606
 40
3.2
 41
0.60999997
  1
１２０
  0
TEXT
  8
0
  6
CONTINUOUS
 62
     2
 10
1489.1031
 20
708.01606
 40
3.2
 41
0.60999997
  1
１７３
  0
TEXT
  8
0
  6
CONTINUOUS
 62
     2
 10
1489.1031
 20
713.01606
 40
3.2
 41
0.60999997
  1
１２３
  0
TEXT
  8
0
  6
CONTINUOUS
 62
     2
 10
1510.7031
 20
713.01606
 40
3.2
 41
0.61
  1
７５
  0
TEXT
  8
0
  6
CONTINUOUS
 62
     2
 10
1492.3032
 20
718.01606
 40
3.2
 41
0.61000001
  1
Ｂ
  0
TEXT
  8
0
  6
CONTINUOUS
 62
     2
 10
1502.3032
 20
718.01606
 40
3.2
 41
0.61000001
  1
Ｃ
  0
TEXT
  8
0
  6
CONTINUOUS
 62
     2
 10
1512.3032
 20
718.01606
 40
3.2
 41
0.61000001
  1
Ｄ
  0
TEXT
  8
0
  6
CONTINUOUS
 62
     3
 10
1503.8078
 20
643.64835
 40
3.2
 41
1
  1
2
  0
TEXT
  8
0
  6
CONTINUOUS
 62
     3
 10
1512.7078
 20
643.64805
 40
3.2
 41
1.25
  1
19
  0
TEXT
  8
0
  6
CONTINUOUS
 62
     3
 10
1447.8078
 20
643.64835
 40
3.2
 41
1
  1
2
  0
TEXT
  8
0
  6
CONTINUOUS
 62
     3
 10
1435.7078
 20
643.64805
 40
3.2
 41
1.25
  1
19
  0
TEXT
  8
0
  6
CONTINUOUS
 62
     3
 10
1474.2078
 20
643.64805
 40
3.2
 41
1
  1
54
  0
TEXT
  8
0
  6
CONTINUOUS
 62
     3
 10
1529.2578
 20
493.64802
 40
3.2
 41
1.375
  1
13.5
  0
TEXT
  8
0
  6
CONTINUOUS
 62
     3
 10
1472.6078
 20
493.64802
 40
3.2
 41
1.2307692
  1
103
  0
TEXT
  8
0
  6
CONTINUOUS
 62
     3
 10
1412.7578
 20
493.64802
 40
3.2
 41
1.375
  1
13.5
  0
TEXT
  8
0
  6
CONTINUOUS
 62
     3
 10
1472.6078
 20
483.64802
 40
3.2
 41
1.2
  1
130
  0
TEXT
  8
0
  6
CONTINUOUS
 62
     2
 10
1010.9001
 20
420.37091
 40
2.5
 41
1.09375
  1
!GENTITLE-LL
  0
TEXT
  8
0
  6
CONTINUOUS
 62
     2
 10
1585.4001
 20
827.62091
 40
2.5
 41
1.09375
  1
!GENTITLE-RU
  0
TEXT
  8
0
  6
CONTINUOUS
 62
     2
 10
1604.9001
 20
840.37091
 40
2.5
 41
1.0857143
  1
!GENTITLE-MAX
  0
TEXT
  8
0
  6
CONTINUOUS
 62
     2
 10
1030.4001
 20
827.62091
 40
2.5
 41
1.0930233
  1
!GENTITLE-INSERT
  0
TEXT
  8
0
  6
CONTINUOUS
 62
     7
 10
1036.6286
 20
823.62092
 40
3.2
 41
0.60999997
  1
品　名
  0
TEXT
  8
0
  6
CONTINUOUS
 62
     7
 10
1036.6286
 20
815.62092
 40
3.2
 41
0.60999997
  1
品　番
  0
TEXT
  8
0
  6
CONTINUOUS
 62
     7
 10
1036.6286
 20
807.62092
 40
3.2
 41
0.60999997
  1
材　質
  0
TEXT
  8
0
  6
CONTINUOUS
 62
     7
 10
1036.6286
 20
799.62092
 40
3.2
 41
0.60999997
  1
仕上げ
  0
TEXT
  8
0
  6
CONTINUOUS
 62
     7
 10
1033.4286
 20
775.62092
 40
3.2
 41
0.60999999
  1
セットビス
  0
TEXT
  8
0
  6
CONTINUOUS
 62
     7
 10
1038.2286
 20
751.62092
 40
3.2
 41
0.61
  1
備考
  0
TEXT
  8
0
  6
CONTINUOUS
 62
     7
 10
1036.6286
 20
791.62092
 40
3.2
 41
0.60999997
  1
定　尺
  0
TEXT
  8
0
  6
CONTINUOUS
 62
     7
 10
1035.0286
 20
783.62092
 40
3.2
 41
0.60999998
  1
左右勝手
  0
TEXT
  8
0
  6
CONTINUOUS
 62
     7
 10
1053.8286
 20
822.02089
 40
3.2
 41
0.74999997
  1
ドアーホルダー（起倒式）
  0
TEXT
  8
0
  6
CONTINUOUS
 62
     7
 10
1053.8286
 20
814.02089
 40
3.2
 41
0.75
  1
ＤＣ－９０－７５，ＤＣ－９０－１２５
  0
TEXT
  8
0
  6
CONTINUOUS
 62
     7
 10
1053.8286
 20
806.02089
 40
3.2
 41
0.74999999
  1
ステンレス
  0
TEXT
  8
0
  6
CONTINUOUS
 62
     7
 10
1053.8286
 20
798.02089
 40
3.2
 41
0.75
  1
ヘアーライン
  0
TEXT
  8
0
  6
CONTINUOUS
 62
     7
 10
1053.8286
 20
782.02089
 40
3.2
 41
0.74999999
  1
無し
  0
TEXT
  8
0
  6
CONTINUOUS
 62
     3
 10
1354.2578
 20
493.64802
 40
3.2
 41
1.375
  1
13.5
  0
TEXT
  8
0
  6
CONTINUOUS
 62
     3
 10
1275.6052
 20
493.64802
 40
3.2
 41
1
  1
Ｂ
  0
TEXT
  8
0
  6
CONTINUOUS
 62
     3
 10
1187.7578
 20
493.64802
 40
3.2
 41
1.375
  1
13.5
  0
TEXT
  8
0
  6
CONTINUOUS
 62
     3
 10
1275.6052
 20
483.64802
 40
3.2
 41
1
  1
Ａ
  0
INSERT
  8
0
  6
CONTINUOUS
 62
     7
  2
KOZU0001
 10
1381.8745
 20
702.14801
  0
INSERT
  8
0
  6
CONTINUOUS
 62
     7
  2
KOZU0002
 10
1381.8745
 20
717.14801
  0
INSERT
  8
0
  6
CONTINUOUS
 62
     7
  2
KOZU0003
 10
1381.8745
 20
602.14801
  0
INSERT
  8
0
  6
CONTINUOUS
 62
     7
  2
KOZU0004
 10
1381.8745
 20
702.14801
  0
INSERT
  8
0
  6
CONTINUOUS
 62
     7
  2
KOZU0005
 10
1381.8745
 20
587.14801
  0
INSERT
  8
0
  6
CONTINUOUS
 62
     7
  2
KOZU0006
 10
1381.8745
 20
602.14801
  0
INSERT
  8
0
  6
CONTINUOUS
 62
     7
  2
KOZU0007
 10
1201.8745
 20
572.14801
  0
INSERT
  8
0
  6
CONTINUOUS
 62
     7
  2
KOZU0008
 10
1351.8745
 20
572.14801
  0
INSERT
  8
0
  6
CONTINUOUS
 62
     7
  2
KOZU0009
 10
1186.8745
 20
572.14801
  0
INSERT
  8
0
  6
CONTINUOUS
 62
     7
  2
KOZU0010
 10
1201.8745
 20
572.14801
  0
INSERT
  8
0
  6
CONTINUOUS
 62
     7
  2
KOZU0011
 10
1351.8745
 20
572.14801
  0
INSERT
  8
0
  6
CONTINUOUS
 62
     7
  2
KOZU0012
 10
1366.8745
 20
572.14801
  0
INSERT
  8
0
  6
CONTINUOUS
 62
     7
  2
KOZU0013
 10
1401.8745
 20
557.14801
  0
INSERT
  8
0
  6
CONTINUOUS
 62
     7
  2
KOZU0014
 10
1401.8745
 20
632.14801
  0
INSERT
  8
0
  6
CONTINUOUS
 62
     7
  2
KOZU0015
 10
1401.8745
 20
507.14801
  0
INSERT
  8
0
  6
CONTINUOUS
 62
     7
  2
KOZU0016
 10
1401.8745
 20
542.14801
  0
INSERT
  8
0
  6
CONTINUOUS
 62
     7
  2
KOZU0017
 10
1391.8745
 20
507.14801
  0
INSERT
  8
0
  6
CONTINUOUS
 62
     7
  2
KOZU0018
 10
1391.8745
 20
557.14801
  0
INSERT
  8
0
  6
CONTINUOUS
 62
     7
  2
KOZU0019
 10
1401.8745
 20
542.14801
  0
INSERT
  8
0
  6
CONTINUOUS
 62
     7
  2
KOZU0020
 10
1401.8745
 20
557.14801
  0
INSERT
  8
0
  6
CONTINUOUS
 62
     7
  2
KOZU0021
 10
1503.8745
 20
642.14801
  0
INSERT
  8
0
  6
CONTINUOUS
 62
     7
  2
KOZU0022
 10
1524.8745
 20
642.14801
  0
INSERT
  8
0
  6
CONTINUOUS
 62
     7
  2
KOZU0023
 10
1505.8745
 20
642.14801
  0
INSERT
  8
0
  6
CONTINUOUS
 62
     7
  2
KOZU0024
 10
1449.8745
 20
642.14801
  0
INSERT
  8
0
  6
CONTINUOUS
 62
     7
  2
KOZU0025
 10
1447.8745
 20
642.14801
  0
INSERT
  8
0
  6
CONTINUOUS
 62
     7
  2
KOZU0026
 10
1428.8745
 20
642.14801
  0
INSERT
  8
0
  6
CONTINUOUS
 62
     7
  2
KOZU0027
 10
1503.8745
 20
642.14801
  0
INSERT
  8
0
  6
CONTINUOUS
 62
     7
  2
KOZU0028
 10
1449.8745
 20
642.14801
  0
INSERT
  8
0
  6
CONTINUOUS
 62
     7
  2
KOZU0029
 10
1541.8745
 20
492.14801
  0
INSERT
  8
0
  6
CONTINUOUS
 62
     7
  2
KOZU0030
 10
1528.3745
 20
492.14801
  0
INSERT
  8
0
  6
CONTINUOUS
 62
     7
  2
KOZU0031
 10
1528.3745
 20
492.14801
  0
INSERT
  8
0
  6
CONTINUOUS
 62
     7
  2
KOZU0032
 10
1425.3745
 20
492.14801
  0
INSERT
  8
0
  6
CONTINUOUS
 62
     7
  2
KOZU0033
 10
1425.3745
 20
492.14801
  0
INSERT
  8
0
  6
CONTINUOUS
 62
     7
  2
KOZU0034
 10
1411.8745
 20
492.14801
  0
INSERT
  8
0
  6
CONTINUOUS
 62
     7
  2
KOZU0035
 10
1541.8745
 20
482.14801
  0
INSERT
  8
0
  6
CONTINUOUS
 62
     7
  2
KOZU0036
 10
1411.8745
 20
482.14801
  0
INSERT
  8
0
  6
CONTINUOUS
 62
     7
  2
KOZU0037
 10
1366.8745
 20
492.14801
  0
INSERT
  8
0
  6
CONTINUOUS
 62
     7
  2
KOZU0038
 10
1353.3745
 20
492.14801
  0
INSERT
  8
0
  6
CONTINUOUS
 62
     7
  2
KOZU0039
 10
1353.3745
 20
492.14801
  0
INSERT
  8
0
  6
CONTINUOUS
 62
     7
  2
KOZU0040
 10
1200.3745
 20
492.14801
  0
INSERT
  8
0
  6
CONTINUOUS
 62
     7
  2
KOZU0041
 10
1186.8745
 20
492.14801
  0
INSERT
  8
0
  6
CONTINUOUS
 62
     7
  2
KOZU0042
 10
1200.3745
 20
492.14801
  0
INSERT
  8
0
  6
CONTINUOUS
 62
     7
  2
KOZU0043
 10
1366.8745
 20
482.14801
  0
INSERT
  8
0
  6
CONTINUOUS
 62
     7
  2
KOZU0044
 10
1186.8745
 20
482.14801
  0
ENDSEC
  0
EOF
