  0
SECTION
  2
HEADER
  9
$EXTMAX
 10
470.45688
 20
1782.9956
 30
0
  9
$EXTMIN
 10
50.456879
 20
1485.9956
 30
0
  9
$LIMMAX
 10
470.45688
 20
1782.9956
  9
$LIMMIN
 10
50.456879
 20
1485.9956
  9
$PLIMMAX
 10
470.45688
 20
1782.9956
  9
$PLIMMIN
 10
50.456879
 20
1485.9956
  9
$TEXTSIZE
 40
3.2
  9
$DIMSHO
 70
     0
  9
$DIMASZ
 40
1.0
  9
$DIMTAD
 70
     1
  9
$DIMTIH
 70
     0
  9
$DIMTOH
 70
     0
  9
$DIMEXE
 40
2.54
  9
$DIMEXO
 40
2.54
  9
$DIMTVP
 40
1.0
  9
$DIMSAH
 70
     1
  9
$DIMDLE
 40
0.0
  9
$DIMTXT
 40
3.2
  9
$DIMGAP
 40
1.6
  0
ENDSEC
  0
SECTION
  2
TABLES
  0
TABLE
  2
LTYPE
 70
     6
  0
LTYPE
  2
CONTINUOUS
 70
    64
  3
Solid line
 72
    65
 73
     0
 40
0.0
  0
LTYPE
  2
DASHED
 70
    64
  3
__ __ __ __ __ __ __ __ __ __ __ __ __ __ __
 72
    65
 73
     2
 40
3.5
 49
2.0
 49
-1.5
  0
LTYPE
  2
CENTER
 70
    64
  3
____ _ ____ _ ____ _ ____ _ ____ _ ____ _ ____
 72
    65
 73
     4
 40
17.5
 49
13.0
 49
-1.5
 49
1.5
 49
-1.5
  0
LTYPE
  2
PHANTOM
 70
    64
  3
_____ _ _ _____ _ _ _____ _ _ _____ _ _ ____  
 72
    65
 73
     6
 40
15.5
 49
8.0
 49
-1.5
 49
1.5
 49
-1.5
 49
1.5
 49
-1.5
  0
LTYPE
  2
DOT
 70
    64
  3
. . . . . . . . . . . . . . . . . . . . . . . .
 72
    65
 73
     2
 40
0.25
 49
0.0
 49
-0.25
  0
LTYPE
  2
HIDDEN
 70
    64
  3
__ __ __ __ __ __ __ __ __ __ __ __ __ __ __
 72
    65
 73
     2
 40
3.5
 49
2.0
 49
-1.5
  0
ENDTAB
  0
TABLE
  2
LAYER
 70
     1
  0
LAYER
  2
0
 70
     0
 62
     7
  6
CONTINUOUS
  0
ENDTAB
  0
TABLE
  2
STYLE
 70
     1
  0
STYLE
  2
STANDARD
 70
     0
 40
0.0
 41
1.0
 50
0.0
 71
     0
 42
0.2
  3
txt
  4
BIGFONT
  0
ENDTAB
  0
TABLE
  2
DIMSTYLE
 70
     0
  0
ENDTAB
  0
ENDSEC
  0
SECTION
  2
BLOCKS
  0
BLOCK
  8
0
  2
KOZU0001
 70
    64
 10
0
 20
0
  0
POLYLINE
  8
0
  6
CONTINUOUS
 62
     7
 66
     1
 10
0
 20
0
 70
     1
 40
0.40000001
 41
0.40000001
  0
VERTEX
  8
0
  6
CONTINUOUS
 62
     7
 10
-0.2
 20
0
 42
1
  0
VERTEX
  8
0
  6
CONTINUOUS
 62
     7
 10
0.2
 20
0
 42
1
  0
SEQEND
  8
0
  6
CONTINUOUS
 62
     7
  0
ENDBLK
  8
0
  0
BLOCK
  8
0
  2
KOZU0002
 70
    64
 10
0
 20
0
  0
POLYLINE
  8
0
  6
CONTINUOUS
 62
     7
 66
     1
 10
0
 20
0
 70
     1
 40
0.40000001
 41
0.40000001
  0
VERTEX
  8
0
  6
CONTINUOUS
 62
     7
 10
-0.2
 20
0
 42
1
  0
VERTEX
  8
0
  6
CONTINUOUS
 62
     7
 10
0.2
 20
0
 42
1
  0
SEQEND
  8
0
  6
CONTINUOUS
 62
     7
  0
ENDBLK
  8
0
  0
BLOCK
  8
0
  2
KOZU0003
 70
    64
 10
0
 20
0
  0
POLYLINE
  8
0
  6
CONTINUOUS
 62
     7
 66
     1
 10
0
 20
0
 70
     1
 40
0.40000001
 41
0.40000001
  0
VERTEX
  8
0
  6
CONTINUOUS
 62
     7
 10
-0.2
 20
0
 42
1
  0
VERTEX
  8
0
  6
CONTINUOUS
 62
     7
 10
0.2
 20
0
 42
1
  0
SEQEND
  8
0
  6
CONTINUOUS
 62
     7
  0
ENDBLK
  8
0
  0
BLOCK
  8
0
  2
KOZU0004
 70
    64
 10
0
 20
0
  0
POLYLINE
  8
0
  6
CONTINUOUS
 62
     7
 66
     1
 10
0
 20
0
 70
     1
 40
0.40000001
 41
0.40000001
  0
VERTEX
  8
0
  6
CONTINUOUS
 62
     7
 10
-0.2
 20
0
 42
1
  0
VERTEX
  8
0
  6
CONTINUOUS
 62
     7
 10
0.2
 20
0
 42
1
  0
SEQEND
  8
0
  6
CONTINUOUS
 62
     7
  0
ENDBLK
  8
0
  0
BLOCK
  8
0
  2
KOZU0005
 70
    64
 10
0
 20
0
  0
POLYLINE
  8
0
  6
CONTINUOUS
 62
     7
 66
     1
 10
0
 20
0
 70
     1
 40
0.40000001
 41
0.40000001
  0
VERTEX
  8
0
  6
CONTINUOUS
 62
     7
 10
-0.2
 20
0
 42
1
  0
VERTEX
  8
0
  6
CONTINUOUS
 62
     7
 10
0.2
 20
0
 42
1
  0
SEQEND
  8
0
  6
CONTINUOUS
 62
     7
  0
ENDBLK
  8
0
  0
BLOCK
  8
0
  2
KOZU0006
 70
    64
 10
0
 20
0
  0
POLYLINE
  8
0
  6
CONTINUOUS
 62
     7
 66
     1
 10
0
 20
0
 70
     1
 40
0.40000001
 41
0.40000001
  0
VERTEX
  8
0
  6
CONTINUOUS
 62
     7
 10
-0.2
 20
0
 42
1
  0
VERTEX
  8
0
  6
CONTINUOUS
 62
     7
 10
0.2
 20
0
 42
1
  0
SEQEND
  8
0
  6
CONTINUOUS
 62
     7
  0
ENDBLK
  8
0
  0
BLOCK
  8
0
  2
KOZU0007
 70
    64
 10
0
 20
0
  0
POLYLINE
  8
0
  6
CONTINUOUS
 62
     7
 66
     1
 10
0
 20
0
 70
     1
 40
0.40000001
 41
0.40000001
  0
VERTEX
  8
0
  6
CONTINUOUS
 62
     7
 10
-0.2
 20
0
 42
1
  0
VERTEX
  8
0
  6
CONTINUOUS
 62
     7
 10
0.2
 20
0
 42
1
  0
SEQEND
  8
0
  6
CONTINUOUS
 62
     7
  0
ENDBLK
  8
0
  0
BLOCK
  8
0
  2
KOZU0008
 70
    64
 10
0
 20
0
  0
POLYLINE
  8
0
  6
CONTINUOUS
 62
     7
 66
     1
 10
0
 20
0
 70
     1
 40
0.40000001
 41
0.40000001
  0
VERTEX
  8
0
  6
CONTINUOUS
 62
     7
 10
-0.2
 20
0
 42
1
  0
VERTEX
  8
0
  6
CONTINUOUS
 62
     7
 10
0.2
 20
0
 42
1
  0
SEQEND
  8
0
  6
CONTINUOUS
 62
     7
  0
ENDBLK
  8
0
  0
BLOCK
  8
0
  2
KOZU0009
 70
    64
 10
0
 20
0
  0
POLYLINE
  8
0
  6
CONTINUOUS
 62
     7
 66
     1
 10
0
 20
0
 70
     1
 40
0.40000001
 41
0.40000001
  0
VERTEX
  8
0
  6
CONTINUOUS
 62
     7
 10
-0.2
 20
0
 42
1
  0
VERTEX
  8
0
  6
CONTINUOUS
 62
     7
 10
0.2
 20
0
 42
1
  0
SEQEND
  8
0
  6
CONTINUOUS
 62
     7
  0
ENDBLK
  8
0
  0
BLOCK
  8
0
  2
KOZU0010
 70
    64
 10
0
 20
0
  0
POLYLINE
  8
0
  6
CONTINUOUS
 62
     7
 66
     1
 10
0
 20
0
 70
     1
 40
0.40000001
 41
0.40000001
  0
VERTEX
  8
0
  6
CONTINUOUS
 62
     7
 10
-0.2
 20
0
 42
1
  0
VERTEX
  8
0
  6
CONTINUOUS
 62
     7
 10
0.2
 20
0
 42
1
  0
SEQEND
  8
0
  6
CONTINUOUS
 62
     7
  0
ENDBLK
  8
0
  0
BLOCK
  8
0
  2
KOZU0011
 70
    64
 10
0
 20
0
  0
POLYLINE
  8
0
  6
CONTINUOUS
 62
     7
 66
     1
 10
0
 20
0
 70
     1
 40
0.40000001
 41
0.40000001
  0
VERTEX
  8
0
  6
CONTINUOUS
 62
     7
 10
-0.2
 20
0
 42
1
  0
VERTEX
  8
0
  6
CONTINUOUS
 62
     7
 10
0.2
 20
0
 42
1
  0
SEQEND
  8
0
  6
CONTINUOUS
 62
     7
  0
ENDBLK
  8
0
  0
BLOCK
  8
0
  2
KOZU0012
 70
    64
 10
0
 20
0
  0
POLYLINE
  8
0
  6
CONTINUOUS
 62
     7
 66
     1
 10
0
 20
0
 70
     1
 40
0.40000001
 41
0.40000001
  0
VERTEX
  8
0
  6
CONTINUOUS
 62
     7
 10
-0.2
 20
0
 42
1
  0
VERTEX
  8
0
  6
CONTINUOUS
 62
     7
 10
0.2
 20
0
 42
1
  0
SEQEND
  8
0
  6
CONTINUOUS
 62
     7
  0
ENDBLK
  8
0
  0
BLOCK
  8
0
  2
KOZU0013
 70
    64
 10
0
 20
0
  0
POLYLINE
  8
0
  6
CONTINUOUS
 62
     7
 66
     1
 10
0
 20
0
 70
     1
 40
0.40000001
 41
0.40000001
  0
VERTEX
  8
0
  6
CONTINUOUS
 62
     7
 10
-0.2
 20
0
 42
1
  0
VERTEX
  8
0
  6
CONTINUOUS
 62
     7
 10
0.2
 20
0
 42
1
  0
SEQEND
  8
0
  6
CONTINUOUS
 62
     7
  0
ENDBLK
  8
0
  0
BLOCK
  8
0
  2
KOZU0014
 70
    64
 10
0
 20
0
  0
POLYLINE
  8
0
  6
CONTINUOUS
 62
     7
 66
     1
 10
0
 20
0
 70
     1
 40
0.40000001
 41
0.40000001
  0
VERTEX
  8
0
  6
CONTINUOUS
 62
     7
 10
-0.2
 20
0
 42
1
  0
VERTEX
  8
0
  6
CONTINUOUS
 62
     7
 10
0.2
 20
0
 42
1
  0
SEQEND
  8
0
  6
CONTINUOUS
 62
     7
  0
ENDBLK
  8
0
  0
BLOCK
  8
0
  2
KOZU0015
 70
    64
 10
0
 20
0
  0
POLYLINE
  8
0
  6
CONTINUOUS
 62
     7
 66
     1
 10
0
 20
0
 70
     1
 40
0.40000001
 41
0.40000001
  0
VERTEX
  8
0
  6
CONTINUOUS
 62
     7
 10
-0.2
 20
0
 42
1
  0
VERTEX
  8
0
  6
CONTINUOUS
 62
     7
 10
0.2
 20
0
 42
1
  0
SEQEND
  8
0
  6
CONTINUOUS
 62
     7
  0
ENDBLK
  8
0
  0
BLOCK
  8
0
  2
KOZU0016
 70
    64
 10
0
 20
0
  0
POLYLINE
  8
0
  6
CONTINUOUS
 62
     7
 66
     1
 10
0
 20
0
 70
     1
 40
0.40000001
 41
0.40000001
  0
VERTEX
  8
0
  6
CONTINUOUS
 62
     7
 10
-0.2
 20
0
 42
1
  0
VERTEX
  8
0
  6
CONTINUOUS
 62
     7
 10
0.2
 20
0
 42
1
  0
SEQEND
  8
0
  6
CONTINUOUS
 62
     7
  0
ENDBLK
  8
0
  0
BLOCK
  8
0
  2
KOZU0017
 70
    64
 10
0
 20
0
  0
POLYLINE
  8
0
  6
CONTINUOUS
 62
     7
 66
     1
 10
0
 20
0
 70
     1
 40
0.40000001
 41
0.40000001
  0
VERTEX
  8
0
  6
CONTINUOUS
 62
     7
 10
-0.2
 20
0
 42
1
  0
VERTEX
  8
0
  6
CONTINUOUS
 62
     7
 10
0.2
 20
0
 42
1
  0
SEQEND
  8
0
  6
CONTINUOUS
 62
     7
  0
ENDBLK
  8
0
  0
BLOCK
  8
0
  2
KOZU0018
 70
    64
 10
0
 20
0
  0
POLYLINE
  8
0
  6
CONTINUOUS
 62
     7
 66
     1
 10
0
 20
0
 70
     1
 40
0.40000001
 41
0.40000001
  0
VERTEX
  8
0
  6
CONTINUOUS
 62
     7
 10
-0.2
 20
0
 42
1
  0
VERTEX
  8
0
  6
CONTINUOUS
 62
     7
 10
0.2
 20
0
 42
1
  0
SEQEND
  8
0
  6
CONTINUOUS
 62
     7
  0
ENDBLK
  8
0
  0
BLOCK
  8
0
  2
KOZU0019
 70
    64
 10
0
 20
0
  0
POLYLINE
  8
0
  6
CONTINUOUS
 62
     7
 66
     1
 10
0
 20
0
 70
     1
 40
0.40000001
 41
0.40000001
  0
VERTEX
  8
0
  6
CONTINUOUS
 62
     7
 10
-0.2
 20
0
 42
1
  0
VERTEX
  8
0
  6
CONTINUOUS
 62
     7
 10
0.2
 20
0
 42
1
  0
SEQEND
  8
0
  6
CONTINUOUS
 62
     7
  0
ENDBLK
  8
0
  0
BLOCK
  8
0
  2
KOZU0020
 70
    64
 10
0
 20
0
  0
POLYLINE
  8
0
  6
CONTINUOUS
 62
     7
 66
     1
 10
0
 20
0
 70
     1
 40
0.40000001
 41
0.40000001
  0
VERTEX
  8
0
  6
CONTINUOUS
 62
     7
 10
-0.2
 20
0
 42
1
  0
VERTEX
  8
0
  6
CONTINUOUS
 62
     7
 10
0.2
 20
0
 42
1
  0
SEQEND
  8
0
  6
CONTINUOUS
 62
     7
  0
ENDBLK
  8
0
  0
BLOCK
  8
0
  2
KOZU0021
 70
    64
 10
0
 20
0
  0
POLYLINE
  8
0
  6
CONTINUOUS
 62
     7
 66
     1
 10
0
 20
0
 70
     1
 40
0.40000001
 41
0.40000001
  0
VERTEX
  8
0
  6
CONTINUOUS
 62
     7
 10
-0.2
 20
0
 42
1
  0
VERTEX
  8
0
  6
CONTINUOUS
 62
     7
 10
0.2
 20
0
 42
1
  0
SEQEND
  8
0
  6
CONTINUOUS
 62
     7
  0
ENDBLK
  8
0
  0
BLOCK
  8
0
  2
KOZU0022
 70
    64
 10
0
 20
0
  0
POLYLINE
  8
0
  6
CONTINUOUS
 62
     7
 66
     1
 10
0
 20
0
 70
     1
 40
0.40000001
 41
0.40000001
  0
VERTEX
  8
0
  6
CONTINUOUS
 62
     7
 10
-0.2
 20
0
 42
1
  0
VERTEX
  8
0
  6
CONTINUOUS
 62
     7
 10
0.2
 20
0
 42
1
  0
SEQEND
  8
0
  6
CONTINUOUS
 62
     7
  0
ENDBLK
  8
0
  0
ENDSEC
  0
SECTION
  2
ENTITIES
  0
POINT
  8
0
  6
CONTINUOUS
 62
     7
 10
0
 20
0
  0
POINT
  8
0
  6
CONTINUOUS
 62
     7
 10
0
 20
0
  0
POINT
  8
0
  6
CONTINUOUS
 62
     7
 10
0
 20
0
  0
POINT
  8
0
  6
CONTINUOUS
 62
     7
 10
0
 20
0
  0
POINT
  8
0
  6
CONTINUOUS
 62
     7
 10
0
 20
0
  0
POINT
  8
0
  6
CONTINUOUS
 62
     7
 10
0
 20
0
  0
POINT
  8
0
  6
CONTINUOUS
 62
     7
 10
0
 20
0
  0
POINT
  8
0
  6
CONTINUOUS
 62
     7
 10
0
 20
0
  0
POINT
  8
0
  6
CONTINUOUS
 62
     7
 10
0
 20
0
  0
POINT
  8
0
  6
CONTINUOUS
 62
     7
 10
0
 20
0
  0
POINT
  8
0
  6
CONTINUOUS
 62
     7
 10
0
 20
0
  0
POINT
  8
0
  6
CONTINUOUS
 62
     7
 10
0
 20
0
  0
POINT
  8
0
  6
CONTINUOUS
 62
     7
 10
0
 20
0
  0
POINT
  8
0
  6
CONTINUOUS
 62
     3
 10
206.61201
 20
1573.5748
  0
POINT
  8
0
  6
CONTINUOUS
 62
     3
 10
209.61201
 20
1573.5748
  0
POINT
  8
0
  6
CONTINUOUS
 62
     3
 10
209.61201
 20
1558.5748
  0
POINT
  8
0
  6
CONTINUOUS
 62
     3
 10
291.612
 20
1631.6895
  0
POINT
  8
0
  6
CONTINUOUS
 62
     3
 10
291.612
 20
1611.4602
  0
POINT
  8
0
  6
CONTINUOUS
 62
     3
 10
306.612
 20
1611.4602
  0
POINT
  8
0
  6
CONTINUOUS
 62
     3
 10
206.61201
 20
1669.5748
  0
POINT
  8
0
  6
CONTINUOUS
 62
     3
 10
261.612
 20
1636.9244
  0
POINT
  8
0
  6
CONTINUOUS
 62
     3
 10
261.612
 20
1679.5748
  0
POINT
  8
0
  6
CONTINUOUS
 62
     3
 10
261.612
 20
1636.9244
  0
POINT
  8
0
  6
CONTINUOUS
 62
     3
 10
291.612
 20
1631.6516
  0
POINT
  8
0
  6
CONTINUOUS
 62
     3
 10
291.612
 20
1679.5748
  0
POINT
  8
0
  6
CONTINUOUS
 62
     3
 10
206.61201
 20
1669.5748
  0
POINT
  8
0
  6
CONTINUOUS
 62
     3
 10
291.612
 20
1631.6895
  0
POINT
  8
0
  6
CONTINUOUS
 62
     3
 10
291.612
 20
1689.5748
  0
POINT
  8
0
  6
CONTINUOUS
 62
     3
 10
360.60703
 20
1669.5748
  0
POINT
  8
0
  6
CONTINUOUS
 62
     3
 10
382.60703
 20
1669.5748
  0
POINT
  8
0
  6
CONTINUOUS
 62
     3
 10
382.60703
 20
1679.5748
  0
POINT
  8
0
  6
CONTINUOUS
 62
     3
 10
360.60703
 20
1669.5748
  0
POINT
  8
0
  6
CONTINUOUS
 62
     3
 10
365.99203
 20
1659.0748
  0
POINT
  8
0
  6
CONTINUOUS
 62
     3
 10
350.60703
 20
1659.0748
  0
POINT
  8
0
  6
CONTINUOUS
 62
     3
 10
365.99203
 20
1659.0748
  0
POINT
  8
0
  6
CONTINUOUS
 62
     3
 10
366.00705
 20
1584.0748
  0
POINT
  8
0
  6
CONTINUOUS
 62
     3
 10
350.60703
 20
1584.0748
  0
POINT
  8
0
  6
CONTINUOUS
 62
     3
 10
366.00705
 20
1584.0748
  0
POINT
  8
0
  6
CONTINUOUS
 62
     3
 10
360.60703
 20
1573.5748
  0
POINT
  8
0
  6
CONTINUOUS
 62
     3
 10
350.60703
 20
1573.5748
  0
POINT
  8
0
  6
CONTINUOUS
 62
     3
 10
360.60703
 20
1669.5748
  0
POINT
  8
0
  6
CONTINUOUS
 62
     3
 10
360.60703
 20
1573.5748
  0
POINT
  8
0
  6
CONTINUOUS
 62
     3
 10
340.60703
 20
1573.5748
  0
POINT
  8
0
  6
CONTINUOUS
 62
     3
 10
369.62064
 20
1660.7756
  0
POINT
  8
0
  6
CONTINUOUS
 62
     3
 10
373.59341
 20
1657.3741
  0
LINE
  8
0
  6
CONTINUOUS
 62
     7
 10
50.456886
 20
1485.9956
 11
470.45688
 21
1485.9956
  0
LINE
  8
0
  6
CONTINUOUS
 62
     7
 10
50.456886
 20
1782.9956
 11
50.456886
 21
1485.9956
  0
LINE
  8
0
  6
CONTINUOUS
 62
     7
 10
450.95688
 20
1497.9956
 11
450.95688
 21
1770.9956
  0
LINE
  8
0
  6
CONTINUOUS
 62
     7
 10
69.956886
 20
1674.9956
 11
69.956886
 21
1498.7456
  0
LINE
  8
0
  6
CONTINUOUS
 62
     7
 10
450.95688
 20
1770.9956
 11
179.95689
 21
1770.9956
  0
LINE
  8
0
  6
CONTINUOUS
 62
     7
 10
69.956886
 20
1497.9956
 11
450.95688
 21
1497.9956
  0
LINE
  8
0
  6
CONTINUOUS
 62
     7
 10
470.45688
 20
1782.9956
 11
470.45688
 21
1485.9956
  0
LINE
  8
0
  6
CONTINUOUS
 62
     7
 10
50.456886
 20
1782.9956
 11
470.45688
 21
1782.9956
  0
LINE
  8
0
  6
CONTINUOUS
 62
     7
 10
69.956886
 20
1770.9956
 11
179.95689
 21
1770.9956
  0
LINE
  8
0
  6
CONTINUOUS
 62
     7
 10
69.956886
 20
1770.9956
 11
69.956886
 21
1674.9956
  0
LINE
  8
0
  6
CONTINUOUS
 62
     7
 10
89.956886
 20
1770.9956
 11
89.956886
 21
1674.9956
  0
LINE
  8
0
  6
CONTINUOUS
 62
     7
 10
69.956886
 20
1762.9956
 11
179.95689
 21
1762.9956
  0
LINE
  8
0
  6
CONTINUOUS
 62
     7
 10
69.956886
 20
1754.9956
 11
179.95689
 21
1754.9956
  0
LINE
  8
0
  6
CONTINUOUS
 62
     7
 10
69.956886
 20
1746.9956
 11
179.95689
 21
1746.9956
  0
LINE
  8
0
  6
CONTINUOUS
 62
     7
 10
69.956886
 20
1738.9956
 11
179.95689
 21
1738.9956
  0
LINE
  8
0
  6
CONTINUOUS
 62
     7
 10
89.956886
 20
1714.9956
 11
179.95689
 21
1714.9956
  0
LINE
  8
0
  6
CONTINUOUS
 62
     7
 10
89.956886
 20
1706.9956
 11
179.95689
 21
1706.9956
  0
LINE
  8
0
  6
CONTINUOUS
 62
     7
 10
69.956886
 20
1698.9956
 11
179.95689
 21
1698.9956
  0
LINE
  8
0
  6
CONTINUOUS
 62
     7
 10
89.956886
 20
1690.9956
 11
179.95689
 21
1690.9956
  0
LINE
  8
0
  6
CONTINUOUS
 62
     7
 10
89.956886
 20
1682.9956
 11
179.95689
 21
1682.9956
  0
LINE
  8
0
  6
CONTINUOUS
 62
     7
 10
69.956886
 20
1674.9956
 11
179.95689
 21
1674.9956
  0
LINE
  8
0
  6
CONTINUOUS
 62
     7
 10
69.956886
 20
1770.9956
 11
69.956886
 21
1674.9956
  0
LINE
  8
0
  6
CONTINUOUS
 62
     7
 10
69.956886
 20
1770.9956
 11
179.95689
 21
1770.9956
  0
LINE
  8
0
  6
CONTINUOUS
 62
     7
 10
179.95689
 20
1770.9956
 11
179.95689
 21
1674.9956
  0
LINE
  8
0
  6
CONTINUOUS
 62
     7
 10
69.956886
 20
1730.9956
 11
179.95689
 21
1730.9956
  0
LINE
  8
0
  6
CONTINUOUS
 62
     7
 10
69.956886
 20
1722.9956
 11
179.95689
 21
1722.9956
  0
LINE
  8
0
  6
CONTINUOUS
 62
     7
 10
89.956886
 20
1714.9956
 11
179.95689
 21
1714.9956
  0
LINE
  8
0
  6
CONTINUOUS
 62
     7
 10
360.60703
 20
1669.5748
 11
382.60703
 21
1669.5748
  0
LINE
  8
0
  6
CONTINUOUS
 62
     7
 10
382.60703
 20
1669.5748
 11
382.60703
 21
1627.5121
  0
LINE
  8
0
  6
CONTINUOUS
 62
     7
 10
382.60703
 20
1573.5748
 11
360.60703
 21
1573.5748
  0
LINE
  8
0
  6
CONTINUOUS
 62
     7
 10
360.60703
 20
1573.5748
 11
360.60703
 21
1615.6377
  0
LINE
  8
0
  6
CENTER
 62
     4
 10
371.60703
 20
1672.5748
 11
371.60703
 21
1570.5748
  0
LINE
  8
0
  6
CONTINUOUS
 62
     7
 10
382.60703
 20
1615.6377
 11
382.60703
 21
1573.5748
  0
LINE
  8
0
  6
CONTINUOUS
 62
     7
 10
360.60703
 20
1627.5121
 11
360.60703
 21
1669.5748
  0
LINE
  8
0
  6
CENTER
 62
     4
 10
365.99203
 20
1659.0748
 11
377.22205
 21
1659.0748
  0
LINE
  8
0
  6
CENTER
 62
     4
 10
366.00705
 20
1584.0748
 11
377.20703
 21
1584.0748
  0
LINE
  8
0
  6
CENTER
 62
     4
 10
356.10703
 20
1621.5748
 11
387.10703
 21
1621.5748
  0
LINE
  8
0
  6
CONTINUOUS
 62
     7
 10
361.10703
 20
1650.5748
 11
382.10703
 21
1650.5748
  0
LINE
  8
0
  6
CONTINUOUS
 62
     7
 10
361.10703
 20
1636.5748
 11
382.10703
 21
1636.5748
  0
LINE
  8
0
  6
CONTINUOUS
 62
     7
 10
361.10703
 20
1606.5748
 11
382.10703
 21
1606.5748
  0
LINE
  8
0
  6
CONTINUOUS
 62
     7
 10
361.10703
 20
1592.5748
 11
382.10703
 21
1592.5748
  0
LINE
  8
0
  6
CONTINUOUS
 62
     7
 10
209.61201
 20
1669.5748
 11
206.61201
 21
1669.5748
  0
LINE
  8
0
  6
CONTINUOUS
 62
     7
 10
206.61201
 20
1669.5748
 11
206.61201
 21
1650.5748
  0
LINE
  8
0
  6
CONTINUOUS
 62
     7
 10
209.61201
 20
1669.5748
 11
209.61201
 21
1650.5748
  0
LINE
  8
0
  6
CONTINUOUS
 62
     7
 10
209.61201
 20
1650.575
 11
259.39194
 21
1637.1726
  0
LINE
  8
0
  6
CONTINUOUS
 62
     7
 10
261.612
 20
1634.2758
 11
261.612
 21
1608.874
  0
LINE
  8
0
  6
CONTINUOUS
 62
     7
 10
259.39194
 20
1605.9771
 11
209.61203
 21
1592.5748
  0
LINE
  8
0
  6
CONTINUOUS
 62
     7
 10
209.61201
 20
1592.5748
 11
209.61201
 21
1573.5748
  0
LINE
  8
0
  6
CONTINUOUS
 62
     7
 10
209.61201
 20
1573.5748
 11
206.61201
 21
1573.5748
  0
LINE
  8
0
  6
CONTINUOUS
 62
     7
 10
206.61201
 20
1573.5748
 11
206.61201
 21
1592.5748
  0
LINE
  8
0
  6
CONTINUOUS
 62
     7
 10
208.83209
 20
1647.6781
 11
258.612
 21
1634.2758
  0
LINE
  8
0
  6
CONTINUOUS
 62
     7
 10
258.612
 20
1608.8739
 11
208.83211
 21
1595.4717
  0
LINE
  8
0
  6
CONTINUOUS
 62
     7
 10
258.612
 20
1634.2758
 11
258.612
 21
1608.874
  0
LINE
  8
0
  6
CONTINUOUS
 62
     7
 10
261.61203
 20
1634.075
 11
290.2366
 21
1631.6896
  0
LINE
  8
0
  6
CONTINUOUS
 62
     7
 10
291.612
 20
1630.1947
 11
291.612
 21
1612.9551
  0
LINE
  8
0
  6
CONTINUOUS
 62
     7
 10
290.23657
 20
1611.4602
 11
261.61203
 21
1609.0748
  0
LINE
  8
0
  6
CENTER
 62
     4
 10
203.61201
 20
1621.5748
 11
294.612
 21
1621.5748
  0
LINE
  8
0
  6
CONTINUOUS
 62
     7
 10
250.0271
 20
1619.5748
 11
250.0271
 21
1623.5748
  0
LINE
  8
0
  6
CONTINUOUS
 62
     7
 10
250.02707
 20
1619.5748
 11
249.59764
 21
1620.0043
  0
LINE
  8
0
  6
CONTINUOUS
 62
     7
 10
250.02711
 20
1623.5748
 11
249.59769
 21
1623.1454
  0
LINE
  8
0
  6
CONTINUOUS
 62
     7
 10
249.59767
 20
1620.0043
 11
255.11201
 21
1620.0043
  0
LINE
  8
0
  6
CONTINUOUS
 62
     7
 10
249.59767
 20
1623.1455
 11
255.11201
 21
1623.1455
  0
LINE
  8
0
  6
CONTINUOUS
 62
     7
 10
255.11201
 20
1623.5748
 11
250.0271
 21
1623.5748
  0
LINE
  8
0
  6
CONTINUOUS
 62
     7
 10
249.59767
 20
1620.0043
 11
249.59767
 21
1623.1455
  0
LINE
  8
0
  6
CONTINUOUS
 62
     7
 10
255.11201
 20
1619.5748
 11
250.0271
 21
1619.5748
  0
LINE
  8
0
  6
CONTINUOUS
 62
     7
 10
255.61201
 20
1619.5748
 11
258.612
 21
1619.5748
  0
LINE
  8
0
  6
CONTINUOUS
 62
     7
 10
255.61201
 20
1623.5748
 11
258.612
 21
1623.5748
  0
LINE
  8
0
  6
CONTINUOUS
 62
     7
 10
255.11201
 20
1625.5748
 11
258.612
 21
1625.5748
  0
LINE
  8
0
  6
CONTINUOUS
 62
     7
 10
255.11201
 20
1617.5748
 11
258.612
 21
1617.5748
  0
LINE
  8
0
  6
CONTINUOUS
 62
     7
 10
255.11201
 20
1625.5748
 11
255.11201
 21
1617.5748
  0
LINE
  8
0
  6
CONTINUOUS
 62
     3
 10
206.61201
 20
1572.5748
 11
206.61201
 21
1557.5748
  0
LINE
  8
0
  6
CONTINUOUS
 62
     3
 10
209.61201
 20
1572.5748
 11
209.61201
 21
1557.5748
  0
LINE
  8
0
  6
CONTINUOUS
 62
     3
 10
205.81201
 20
1558.5748
 11
205.01201
 21
1558.5748
  0
LINE
  8
0
  6
CONTINUOUS
 62
     3
 10
210.412
 20
1558.5748
 11
214.62456
 21
1558.5748
  0
LINE
  8
0
  6
CONTINUOUS
 62
     3
 10
206.61201
 20
1558.5748
 11
209.61201
 21
1558.5748
  0
LINE
  8
0
  6
CONTINUOUS
 62
     7
 10
206.21201
 20
1558.5748
 11
205.81201
 21
1558.5748
  0
LINE
  8
0
  6
CONTINUOUS
 62
     7
 10
210.01201
 20
1558.5748
 11
210.412
 21
1558.5748
  0
LINE
  8
0
  6
CONTINUOUS
 62
     3
 10
292.612
 20
1631.6895
 11
307.612
 21
1631.6895
  0
LINE
  8
0
  6
CONTINUOUS
 62
     3
 10
292.612
 20
1611.4602
 11
307.612
 21
1611.4602
  0
LINE
  8
0
  6
CONTINUOUS
 62
     3
 10
306.612
 20
1630.8895
 11
306.612
 21
1612.2603
  0
LINE
  8
0
  6
CONTINUOUS
 62
     7
 10
306.612
 20
1631.2896
 11
306.612
 21
1630.8895
  0
LINE
  8
0
  6
CONTINUOUS
 62
     7
 10
306.612
 20
1611.8602
 11
306.612
 21
1612.2603
  0
LINE
  8
0
  6
CONTINUOUS
 62
     3
 10
206.61201
 20
1670.5748
 11
206.61201
 21
1680.5748
  0
LINE
  8
0
  6
CONTINUOUS
 62
     3
 10
261.612
 20
1637.9244
 11
261.612
 21
1680.5748
  0
LINE
  8
0
  6
CONTINUOUS
 62
     3
 10
207.412
 20
1679.5748
 11
260.81201
 21
1679.5748
  0
LINE
  8
0
  6
CONTINUOUS
 62
     7
 10
207.01201
 20
1679.5748
 11
207.412
 21
1679.5748
  0
LINE
  8
0
  6
CONTINUOUS
 62
     7
 10
261.21201
 20
1679.5748
 11
260.81201
 21
1679.5748
  0
LINE
  8
0
  6
CONTINUOUS
 62
     3
 10
261.612
 20
1637.9244
 11
261.612
 21
1680.5748
  0
LINE
  8
0
  6
CONTINUOUS
 62
     3
 10
291.612
 20
1632.6516
 11
291.612
 21
1680.5748
  0
LINE
  8
0
  6
CONTINUOUS
 62
     3
 10
262.41202
 20
1679.5748
 11
290.81201
 21
1679.5748
  0
LINE
  8
0
  6
CONTINUOUS
 62
     7
 10
262.01202
 20
1679.5748
 11
262.41202
 21
1679.5748
  0
LINE
  8
0
  6
CONTINUOUS
 62
     7
 10
291.21201
 20
1679.5748
 11
290.81201
 21
1679.5748
  0
LINE
  8
0
  6
CONTINUOUS
 62
     3
 10
206.61201
 20
1670.5748
 11
206.61201
 21
1690.5748
  0
LINE
  8
0
  6
CONTINUOUS
 62
     3
 10
291.612
 20
1632.6895
 11
291.612
 21
1690.5748
  0
LINE
  8
0
  6
CONTINUOUS
 62
     3
 10
207.412
 20
1689.5748
 11
290.81201
 21
1689.5748
  0
LINE
  8
0
  6
CONTINUOUS
 62
     7
 10
207.01201
 20
1689.5748
 11
207.412
 21
1689.5748
  0
LINE
  8
0
  6
CONTINUOUS
 62
     7
 10
291.21201
 20
1689.5748
 11
290.81201
 21
1689.5748
  0
LINE
  8
0
  6
CONTINUOUS
 62
     3
 10
360.60703
 20
1670.5748
 11
360.60703
 21
1680.5748
  0
LINE
  8
0
  6
CONTINUOUS
 62
     3
 10
382.60703
 20
1670.5748
 11
382.60703
 21
1680.5748
  0
LINE
  8
0
  6
CONTINUOUS
 62
     3
 10
361.40704
 20
1679.5748
 11
381.80704
 21
1679.5748
  0
LINE
  8
0
  6
CONTINUOUS
 62
     7
 10
361.00705
 20
1679.5748
 11
361.40704
 21
1679.5748
  0
LINE
  8
0
  6
CONTINUOUS
 62
     7
 10
382.20703
 20
1679.5748
 11
381.80704
 21
1679.5748
  0
LINE
  8
0
  6
CONTINUOUS
 62
     3
 10
359.60703
 20
1669.5748
 11
349.60703
 21
1669.5748
  0
LINE
  8
0
  6
CONTINUOUS
 62
     3
 10
364.99203
 20
1659.0748
 11
349.60703
 21
1659.0748
  0
LINE
  8
0
  6
CONTINUOUS
 62
     3
 10
350.60703
 20
1668.7749
 11
350.60703
 21
1659.8749
  0
LINE
  8
0
  6
CONTINUOUS
 62
     7
 10
350.60703
 20
1669.1749
 11
350.60703
 21
1668.7749
  0
LINE
  8
0
  6
CONTINUOUS
 62
     7
 10
350.60703
 20
1659.4749
 11
350.60703
 21
1659.8749
  0
LINE
  8
0
  6
CONTINUOUS
 62
     3
 10
364.99203
 20
1659.0748
 11
349.60703
 21
1659.0748
  0
LINE
  8
0
  6
CONTINUOUS
 62
     3
 10
365.00705
 20
1584.0748
 11
349.60703
 21
1584.0748
  0
LINE
  8
0
  6
CONTINUOUS
 62
     3
 10
350.60703
 20
1658.2749
 11
350.60703
 21
1584.8749
  0
LINE
  8
0
  6
CONTINUOUS
 62
     7
 10
350.60703
 20
1658.6749
 11
350.60703
 21
1658.2749
  0
LINE
  8
0
  6
CONTINUOUS
 62
     7
 10
350.60703
 20
1584.4749
 11
350.60703
 21
1584.8749
  0
LINE
  8
0
  6
CONTINUOUS
 62
     3
 10
365.00705
 20
1584.0748
 11
349.60703
 21
1584.0748
  0
LINE
  8
0
  6
CONTINUOUS
 62
     3
 10
359.60703
 20
1573.5748
 11
349.60703
 21
1573.5748
  0
LINE
  8
0
  6
CONTINUOUS
 62
     3
 10
350.60703
 20
1583.2749
 11
350.60703
 21
1574.3749
  0
LINE
  8
0
  6
CONTINUOUS
 62
     7
 10
350.60703
 20
1583.6749
 11
350.60703
 21
1583.2749
  0
LINE
  8
0
  6
CONTINUOUS
 62
     7
 10
350.60703
 20
1573.9749
 11
350.60703
 21
1574.3749
  0
LINE
  8
0
  6
CONTINUOUS
 62
     3
 10
359.60703
 20
1669.5748
 11
339.60703
 21
1669.5748
  0
LINE
  8
0
  6
CONTINUOUS
 62
     3
 10
359.60703
 20
1573.5748
 11
339.60703
 21
1573.5748
  0
LINE
  8
0
  6
CONTINUOUS
 62
     3
 10
340.60703
 20
1668.7749
 11
340.60703
 21
1574.3749
  0
LINE
  8
0
  6
CONTINUOUS
 62
     7
 10
340.60703
 20
1669.1749
 11
340.60703
 21
1668.7749
  0
LINE
  8
0
  6
CONTINUOUS
 62
     7
 10
340.60703
 20
1573.9749
 11
340.60703
 21
1574.3749
  0
LINE
  8
0
  6
CONTINUOUS
 62
     3
 10
372.98575
 20
1657.8945
 11
370.22833
 21
1660.2554
  0
LINE
  8
0
  6
CONTINUOUS
 62
     3
 10
369.62067
 20
1660.7756
 11
347.66376
 21
1679.575
  0
LINE
  8
0
  6
CONTINUOUS
 62
     3
 10
347.66376
 20
1679.5748
 11
334.55032
 21
1679.5748
  0
LINE
  8
0
  6
CONTINUOUS
 62
     7
 10
373.28961
 20
1657.6343
 11
372.98575
 21
1657.8945
  0
LINE
  8
0
  6
CONTINUOUS
 62
     7
 10
369.92453
 20
1660.5155
 11
370.22833
 21
1660.2554
  0
CIRCLE
  8
0
  6
CONTINUOUS
 62
     7
 10
371.60703
 20
1621.5748
 40
10
  0
CIRCLE
  8
0
  6
CONTINUOUS
 62
     7
 10
371.60703
 20
1621.5748
 40
12.5
  0
CIRCLE
  8
0
  6
CONTINUOUS
 62
     7
 10
371.60703
 20
1659.0748
 40
2.615
  0
CIRCLE
  8
0
  6
CONTINUOUS
 62
     7
 10
371.60703
 20
1584.0748
 40
2.5999999
  0
CIRCLE
  8
0
  6
CONTINUOUS
 62
     7
 10
371.60703
 20
1621.5748
 40
4.0999999
  0
ARC
  8
0
  6
CONTINUOUS
 62
     7
 10
258.612
 20
1634.2758
 40
3
 50
0
 51
74.931772
  0
ARC
  8
0
  6
CONTINUOUS
 62
     7
 10
258.612
 20
1608.874
 40
3
 50
285.06823
 51
360
  0
ARC
  8
0
  6
CONTINUOUS
 62
     7
 10
209.61201
 20
1650.5748
 40
3
 50
180
 51
254.93149
  0
ARC
  8
0
  6
CONTINUOUS
 62
     7
 10
209.61201
 20
1592.5748
 40
3
 50
105.06851
 51
180
  0
ARC
  8
0
  6
CONTINUOUS
 62
     7
 10
259.362
 20
1625.5748
 40
4.25
 50
180
 51
208.07249
  0
ARC
  8
0
  6
CONTINUOUS
 62
     7
 10
259.362
 20
1617.5748
 40
4.25
 50
151.92751
 51
180
  0
ARC
  8
0
  6
CONTINUOUS
 62
     7
 10
259.362
 20
1621.5748
 40
4.25
 50
151.92751
 51
208.07249
  0
ARC
  8
0
  6
CONTINUOUS
 62
     7
 10
290.112
 20
1630.1947
 40
1.5
 50
0
 51
85.236358
  0
ARC
  8
0
  6
CONTINUOUS
 62
     7
 10
290.112
 20
1612.9551
 40
1.5
 50
274.76364
 51
360
  0
TEXT
  8
0
  6
CONTINUOUS
 62
     2
 10
50.456888
 20
1485.9956
 40
2.5
 41
1.09375
  1
!GENTITLE-LL
  0
TEXT
  8
0
  6
CONTINUOUS
 62
     2
 10
450.9569
 20
1770.9956
 40
2.5
 41
1.09375
  1
!GENTITLE-RU
  0
TEXT
  8
0
  6
CONTINUOUS
 62
     2
 10
69.956887
 20
1770.9956
 40
2.5
 41
1.0930233
  1
!GENTITLE-INSERT
  0
TEXT
  8
0
  6
CONTINUOUS
 62
     2
 10
470.45688
 20
1782.9956
 40
2.5
 41
1.0857143
  1
!GENTITLE-MAX
  0
TEXT
  8
0
  6
CONTINUOUS
 62
     7
 10
76.185385
 20
1766.9956
 40
3.2
 41
0.60999997
  1
品　名
  0
TEXT
  8
0
  6
CONTINUOUS
 62
     7
 10
76.185385
 20
1758.9956
 40
3.2
 41
0.60999997
  1
品　番
  0
TEXT
  8
0
  6
CONTINUOUS
 62
     7
 10
76.185385
 20
1750.9956
 40
3.2
 41
0.60999997
  1
材　質
  0
TEXT
  8
0
  6
CONTINUOUS
 62
     7
 10
76.185385
 20
1742.9956
 40
3.2
 41
0.60999997
  1
仕上げ
  0
TEXT
  8
0
  6
CONTINUOUS
 62
     7
 10
72.985391
 20
1718.9956
 40
3.2
 41
0.60999999
  1
セットビス
  0
TEXT
  8
0
  6
CONTINUOUS
 62
     7
 10
77.785389
 20
1694.9956
 40
3.2
 41
0.61
  1
備考
  0
TEXT
  8
0
  6
CONTINUOUS
 62
     7
 10
76.185385
 20
1734.9956
 40
3.2
 41
0.60999997
  1
定　尺
  0
TEXT
  8
0
  6
CONTINUOUS
 62
     7
 10
74.585385
 20
1726.9956
 40
3.2
 41
0.60999998
  1
左右勝手
  0
TEXT
  8
0
  6
CONTINUOUS
 62
     7
 10
93.385385
 20
1765.3956
 40
3.2
 41
0.75000003
  1
ドアーストップ
  0
TEXT
  8
0
  6
CONTINUOUS
 62
     7
 10
93.38539
 20
1757.3956
 40
3.2
 41
0.68157264
  1
ＤＣ－２２
  0
TEXT
  8
0
  6
CONTINUOUS
 62
     7
 10
93.385387
 20
1749.3956
 40
3.2
 41
0.74999999
  1
ステンレス
  0
TEXT
  8
0
  6
CONTINUOUS
 62
     7
 10
93.385388
 20
1741.3956
 40
3.2
 41
0.74999998
  1
電解研磨
  0
TEXT
  8
0
  6
CONTINUOUS
 62
     7
 10
93.38539
 20
1725.3956
 40
3.2
 41
0.74999999
  1
なし
  0
TEXT
  8
0
  6
CONTINUOUS
 62
     7
 10
93.385389
 20
1717.3956
 40
3.2
 41
0.69649562
  1
Ｍ４×４５ナベ小ネジ＋Ｆｅ２本付
  0
TEXT
  8
0
  6
CONTINUOUS
 62
     7
 10
93.385387
 20
1709.3956
 40
3.2
 41
0.70854882
  1
Ｍ４袋ナット２ヶ付
  0
TEXT
  8
0
  6
CONTINUOUS
 62
     3
 10
211.85162
 20
1559.5749
 40
3.2
 41
1
  1
3
  0
TEXT
  8
0
  6
CONTINUOUS
 62
     3
 10
305.61169
 20
1617.0042
 40
3.2
 41
0.90021012
  1
%%C２０
 50
90.000003
  0
TEXT
  8
0
  6
CONTINUOUS
 62
     3
 10
231.44535
 20
1680.5749
 40
3.2
 41
1
  1
55
  0
TEXT
  8
0
  6
CONTINUOUS
 62
     3
 10
273.94533
 20
1680.5749
 40
3.2
 41
1.0714286
  1
30
  0
TEXT
  8
0
  6
CONTINUOUS
 62
     3
 10
246.44535
 20
1690.5749
 40
3.2
 41
1
  1
85
  0
TEXT
  8
0
  6
CONTINUOUS
 62
     3
 10
368.94036
 20
1680.5752
 40
3.2
 41
1
  1
22
  0
TEXT
  8
0
  6
CONTINUOUS
 62
     3
 10
349.60705
 20
1658.4582
 40
3.2
 41
1.4666667
  1
10.5
 50
90.000003
  0
TEXT
  8
0
  6
CONTINUOUS
 62
     3
 10
349.60705
 20
1618.9082
 40
3.2
 41
1
  1
75
 50
90.000003
  0
TEXT
  8
0
  6
CONTINUOUS
 62
     3
 10
349.60705
 20
1572.9582
 40
3.2
 41
1.4666667
  1
10.5
 50
90.000003
  0
TEXT
  8
0
  6
CONTINUOUS
 62
     3
 10
339.60705
 20
1618.9082
 40
3.2
 41
1
  1
96
 50
90.000003
  0
TEXT
  8
0
  6
CONTINUOUS
 62
     3
 10
331.23636
 20
1680.5752
 40
3.2
 41
0.86851206
  1
２－%%C５．２
  0
INSERT
  8
0
  6
CONTINUOUS
 62
     7
  2
KOZU0001
 10
206.61201
 20
1558.5748
  0
INSERT
  8
0
  6
CONTINUOUS
 62
     7
  2
KOZU0002
 10
209.61201
 20
1558.5748
  0
INSERT
  8
0
  6
CONTINUOUS
 62
     7
  2
KOZU0003
 10
306.612
 20
1631.6895
  0
INSERT
  8
0
  6
CONTINUOUS
 62
     7
  2
KOZU0004
 10
306.612
 20
1611.4602
  0
INSERT
  8
0
  6
CONTINUOUS
 62
     7
  2
KOZU0005
 10
206.61201
 20
1679.5748
  0
INSERT
  8
0
  6
CONTINUOUS
 62
     7
  2
KOZU0006
 10
261.612
 20
1679.5748
  0
INSERT
  8
0
  6
CONTINUOUS
 62
     7
  2
KOZU0007
 10
261.612
 20
1679.5748
  0
INSERT
  8
0
  6
CONTINUOUS
 62
     7
  2
KOZU0008
 10
291.612
 20
1679.5748
  0
INSERT
  8
0
  6
CONTINUOUS
 62
     7
  2
KOZU0009
 10
206.61201
 20
1689.5748
  0
INSERT
  8
0
  6
CONTINUOUS
 62
     7
  2
KOZU0010
 10
291.612
 20
1689.5748
  0
INSERT
  8
0
  6
CONTINUOUS
 62
     7
  2
KOZU0011
 10
360.60703
 20
1679.5748
  0
INSERT
  8
0
  6
CONTINUOUS
 62
     7
  2
KOZU0012
 10
382.60703
 20
1679.5748
  0
INSERT
  8
0
  6
CONTINUOUS
 62
     7
  2
KOZU0013
 10
350.60703
 20
1669.5748
  0
INSERT
  8
0
  6
CONTINUOUS
 62
     7
  2
KOZU0014
 10
350.60703
 20
1659.0748
  0
INSERT
  8
0
  6
CONTINUOUS
 62
     7
  2
KOZU0015
 10
350.60703
 20
1659.0748
  0
INSERT
  8
0
  6
CONTINUOUS
 62
     7
  2
KOZU0016
 10
350.60703
 20
1584.0748
  0
INSERT
  8
0
  6
CONTINUOUS
 62
     7
  2
KOZU0017
 10
350.60703
 20
1584.0748
  0
INSERT
  8
0
  6
CONTINUOUS
 62
     7
  2
KOZU0018
 10
350.60703
 20
1573.5748
  0
INSERT
  8
0
  6
CONTINUOUS
 62
     7
  2
KOZU0019
 10
340.60703
 20
1669.5748
  0
INSERT
  8
0
  6
CONTINUOUS
 62
     7
  2
KOZU0020
 10
340.60703
 20
1573.5748
  0
INSERT
  8
0
  6
CONTINUOUS
 62
     7
  2
KOZU0021
 10
373.59341
 20
1657.3741
  0
INSERT
  8
0
  6
CONTINUOUS
 62
     7
  2
KOZU0022
 10
369.62064
 20
1660.7756
  0
ENDSEC
  0
EOF
