  0
SECTION
  2
HEADER
  9
$ACADVER
  1
AC1027
  9
$ACADMAINTVER
 70
   105
  9
$DWGCODEPAGE
  3
ANSI_932
  9
$REQUIREDVERSIONS
160
                 0
  9
$LASTSAVEDBY
  1
G1032U
  9
$INSBASE
 10
0.0
 20
0.0
 30
0.0
  9
$EXTMIN
 10
167.70105
 20
-253659.94
 30
0.0
  9
$EXTMAX
 10
11500.007
 20
254340.06
 30
0.0
  9
$LIMMIN
 10
167.70105
 20
182.95929
  9
$LIMMAX
 10
587.70105
 20
479.95929
  9
$ORTHOMODE
 70
     0
  9
$REGENMODE
 70
     1
  9
$FILLMODE
 70
     1
  9
$QTEXTMODE
 70
     0
  9
$MIRRTEXT
 70
     1
  9
$LTSCALE
 40
1.0
  9
$ATTMODE
 70
     1
  9
$TEXTSIZE
 40
0.2
  9
$TRACEWID
 40
0.05
  9
$TEXTSTYLE
  7
STANDARD
  9
$CLAYER
  8
0
  9
$CELTYPE
  6
CONTINUOUS
  9
$CECOLOR
 62
   256
  9
$CELTSCALE
 40
1.0
  9
$DISPSILH
 70
     0
  9
$DIMSCALE
 40
1.0
  9
$DIMASZ
 40
1.0
  9
$DIMEXO
 40
2.54
  9
$DIMDLI
 40
0.38
  9
$DIMRND
 40
0.0
  9
$DIMDLE
 40
0.0
  9
$DIMEXE
 40
2.54
  9
$DIMTP
 40
0.0
  9
$DIMTM
 40
0.0
  9
$DIMTXT
 40
3.2
  9
$DIMCEN
 40
0.09
  9
$DIMTSZ
 40
0.0
  9
$DIMTOL
 70
     0
  9
$DIMLIM
 70
     0
  9
$DIMTIH
 70
     0
  9
$DIMTOH
 70
     0
  9
$DIMSE1
 70
     0
  9
$DIMSE2
 70
     0
  9
$DIMTAD
 70
     1
  9
$DIMZIN
 70
     0
  9
$DIMBLK
  1

  9
$DIMASO
 70
     1
  9
$DIMSHO
 70
     0
  9
$DIMPOST
  1

  9
$DIMAPOST
  1

  9
$DIMALT
 70
     0
  9
$DIMALTD
 70
     2
  9
$DIMALTF
 40
25.4
  9
$DIMLFAC
 40
1.0
  9
$DIMTOFL
 70
     0
  9
$DIMTVP
 40
1.0
  9
$DIMTIX
 70
     0
  9
$DIMSOXD
 70
     0
  9
$DIMSAH
 70
     1
  9
$DIMBLK1
  1

  9
$DIMBLK2
  1

  9
$DIMSTYLE
  2
Standard
  9
$DIMCLRD
 70
     0
  9
$DIMCLRE
 70
     0
  9
$DIMCLRT
 70
     0
  9
$DIMTFAC
 40
1.0
  9
$DIMGAP
 40
1.6
  9
$DIMJUST
 70
     0
  9
$DIMSD1
 70
     0
  9
$DIMSD2
 70
     0
  9
$DIMTOLJ
 70
     1
  9
$DIMTZIN
 70
     0
  9
$DIMALTZ
 70
     0
  9
$DIMALTTZ
 70
     0
  9
$DIMUPT
 70
     0
  9
$DIMDEC
 70
     4
  9
$DIMTDEC
 70
     4
  9
$DIMALTU
 70
     2
  9
$DIMALTTD
 70
     2
  9
$DIMTXSTY
  7
STANDARD
  9
$DIMAUNIT
 70
     0
  9
$DIMADEC
 70
     0
  9
$DIMALTRND
 40
0.0
  9
$DIMAZIN
 70
     0
  9
$DIMDSEP
 70
    46
  9
$DIMATFIT
 70
     3
  9
$DIMFRAC
 70
     0
  9
$DIMLDRBLK
  1

  9
$DIMLUNIT
 70
     2
  9
$DIMLWD
 70
    -2
  9
$DIMLWE
 70
    -2
  9
$DIMTMOVE
 70
     2
  9
$DIMFXL
 40
1.0
  9
$DIMFXLON
 70
     0
  9
$DIMJOGANG
 40
0.7853981633974483
  9
$DIMTFILL
 70
     0
  9
$DIMTFILLCLR
 70
     0
  9
$DIMARCSYM
 70
     0
  9
$DIMLTYPE
  6

  9
$DIMLTEX1
  6

  9
$DIMLTEX2
  6

  9
$DIMTXTDIRECTION
 70
     0
  9
$LUNITS
 70
     2
  9
$LUPREC
 70
     4
  9
$SKETCHINC
 40
0.1
  9
$FILLETRAD
 40
0.5
  9
$AUNITS
 70
     0
  9
$AUPREC
 70
     0
  9
$MENU
  1
.
  9
$ELEVATION
 40
0.0
  9
$PELEVATION
 40
0.0
  9
$THICKNESS
 40
0.0
  9
$LIMCHECK
 70
     0
  9
$CHAMFERA
 40
0.0
  9
$CHAMFERB
 40
0.0
  9
$CHAMFERC
 40
0.0
  9
$CHAMFERD
 40
0.0
  9
$SKPOLY
 70
     0
  9
$TDCREATE
 40
2459942.467388831
  9
$TDUCREATE
 40
2459942.092388831
  9
$TDUPDATE
 40
2459942.469803484
  9
$TDUUPDATE
 40
2459942.094803484
  9
$TDINDWG
 40
0.002053206
  9
$TDUSRTIMER
 40
0.0020525
  9
$USRTIMER
 70
     1
  9
$ANGBASE
 50
0.0
  9
$ANGDIR
 70
     0
  9
$PDMODE
 70
     0
  9
$PDSIZE
 40
0.0
  9
$PLINEWID
 40
0.0
  9
$SPLFRAME
 70
     0
  9
$SPLINETYPE
 70
     6
  9
$SPLINESEGS
 70
     8
  9
$HANDSEED
  5
34E
  9
$SURFTAB1
 70
     6
  9
$SURFTAB2
 70
     6
  9
$SURFTYPE
 70
     6
  9
$SURFU
 70
     6
  9
$SURFV
 70
     6
  9
$UCSBASE
  2

  9
$UCSNAME
  2

  9
$UCSORG
 10
0.0
 20
0.0
 30
0.0
  9
$UCSXDIR
 10
1.0
 20
0.0
 30
0.0
  9
$UCSYDIR
 10
0.0
 20
1.0
 30
0.0
  9
$UCSORTHOREF
  2

  9
$UCSORTHOVIEW
 70
     0
  9
$UCSORGTOP
 10
0.0
 20
0.0
 30
0.0
  9
$UCSORGBOTTOM
 10
0.0
 20
0.0
 30
0.0
  9
$UCSORGLEFT
 10
0.0
 20
0.0
 30
0.0
  9
$UCSORGRIGHT
 10
0.0
 20
0.0
 30
0.0
  9
$UCSORGFRONT
 10
0.0
 20
0.0
 30
0.0
  9
$UCSORGBACK
 10
0.0
 20
0.0
 30
0.0
  9
$PUCSBASE
  2

  9
$PUCSNAME
  2

  9
$PUCSORG
 10
0.0
 20
0.0
 30
0.0
  9
$PUCSXDIR
 10
1.0
 20
0.0
 30
0.0
  9
$PUCSYDIR
 10
0.0
 20
1.0
 30
0.0
  9
$PUCSORTHOREF
  2

  9
$PUCSORTHOVIEW
 70
     0
  9
$PUCSORGTOP
 10
0.0
 20
0.0
 30
0.0
  9
$PUCSORGBOTTOM
 10
0.0
 20
0.0
 30
0.0
  9
$PUCSORGLEFT
 10
0.0
 20
0.0
 30
0.0
  9
$PUCSORGRIGHT
 10
0.0
 20
0.0
 30
0.0
  9
$PUCSORGFRONT
 10
0.0
 20
0.0
 30
0.0
  9
$PUCSORGBACK
 10
0.0
 20
0.0
 30
0.0
  9
$USERI1
 70
     0
  9
$USERI2
 70
     0
  9
$USERI3
 70
     0
  9
$USERI4
 70
     0
  9
$USERI5
 70
     0
  9
$USERR1
 40
0.0
  9
$USERR2
 40
0.0
  9
$USERR3
 40
0.0
  9
$USERR4
 40
0.0
  9
$USERR5
 40
0.0
  9
$WORLDVIEW
 70
     1
  9
$SHADEDGE
 70
     3
  9
$SHADEDIF
 70
    70
  9
$TILEMODE
 70
     1
  9
$MAXACTVP
 70
    64
  9
$PINSBASE
 10
0.0
 20
0.0
 30
0.0
  9
$PLIMCHECK
 70
     0
  9
$PEXTMIN
 10
1.000000000000000E+20
 20
1.000000000000000E+20
 30
1.000000000000000E+20
  9
$PEXTMAX
 10
-1.000000000000000E+20
 20
-1.000000000000000E+20
 30
-1.000000000000000E+20
  9
$PLIMMIN
 10
167.70105
 20
182.95929
  9
$PLIMMAX
 10
587.70105
 20
479.95929
  9
$UNITMODE
 70
     0
  9
$VISRETAIN
 70
     1
  9
$PLINEGEN
 70
     0
  9
$PSLTSCALE
 70
     1
  9
$TREEDEPTH
 70
  3020
  9
$CMLSTYLE
  2
Standard
  9
$CMLJUST
 70
     0
  9
$CMLSCALE
 40
1.0
  9
$PROXYGRAPHICS
 70
     1
  9
$MEASUREMENT
 70
     0
  9
$CELWEIGHT
370
    -1
  9
$ENDCAPS
280
     0
  9
$JOINSTYLE
280
     0
  9
$LWDISPLAY
290
     0
  9
$INSUNITS
 70
     0
  9
$HYPERLINKBASE
  1

  9
$STYLESHEET
  1

  9
$XEDIT
290
     1
  9
$CEPSNTYPE
380
     3
  9
$CEPSNID
390
11
  9
$PSTYLEMODE
290
     1
  9
$FINGERPRINTGUID
  2
{C574CF82-66D7-437F-B54E-33A7B88C833E}
  9
$VERSIONGUID
  2
{FAEB1C32-E019-11D5-929B-00C0DF256EC4}
  9
$EXTNAMES
290
     1
  9
$PSVPSCALE
 40
0.0
  9
$OLESTARTUP
290
     0
  9
$SORTENTS
280
   127
  9
$INDEXCTL
280
     0
  9
$HIDETEXT
280
     1
  9
$XCLIPFRAME
280
     2
  9
$HALOGAP
280
     0
  9
$OBSCOLOR
 70
   257
  9
$OBSLTYPE
280
     0
  9
$INTERSECTIONDISPLAY
280
     0
  9
$INTERSECTIONCOLOR
 70
   257
  9
$DIMASSOC
280
     2
  9
$PROJECTNAME
  1

  9
$CAMERADISPLAY
290
     0
  9
$LENSLENGTH
 40
50.0
  9
$CAMERAHEIGHT
 40
0.0
  9
$STEPSPERSEC
 40
2.0
  9
$STEPSIZE
 40
6.0
  9
$3DDWFPREC
 40
2.0
  9
$PSOLWIDTH
 40
0.25
  9
$PSOLHEIGHT
 40
4.0
  9
$LOFTANG1
 40
1.570796326794897
  9
$LOFTANG2
 40
1.570796326794897
  9
$LOFTMAG1
 40
0.0
  9
$LOFTMAG2
 40
0.0
  9
$LOFTPARAM
 70
     7
  9
$LOFTNORMALS
280
     1
  9
$LATITUDE
 40
37.795
  9
$LONGITUDE
 40
-122.394
  9
$NORTHDIRECTION
 40
0.0
  9
$TIMEZONE
 70
 -8000
  9
$LIGHTGLYPHDISPLAY
280
     1
  9
$TILEMODELIGHTSYNCH
280
     1
  9
$CMATERIAL
347
28
  9
$SOLIDHIST
280
     1
  9
$SHOWHIST
280
     1
  9
$DWFFRAME
280
     2
  9
$DGNFRAME
280
     0
  9
$REALWORLDSCALE
290
     1
  9
$INTERFERECOLOR
 62
   256
  9
$INTERFEREOBJVS
345
284
  9
$INTERFEREVPVS
346
281
  9
$CSHADOW
280
     0
  9
$SHADOWPLANELOCATION
 40
0.0
  0
ENDSEC
  0
SECTION
  2
CLASSES
  0
CLASS
  1
ACDBDICTIONARYWDFLT
  2
AcDbDictionaryWithDefault
  3
ObjectDBX Classes
 90
        0
 91
        4
280
     0
281
     0
  0
CLASS
  1
MATERIAL
  2
AcDbMaterial
  3
ObjectDBX Classes
 90
     1153
 91
        4
280
     0
281
     0
  0
CLASS
  1
SCALE
  2
AcDbScale
  3
ObjectDBX Classes
 90
     1153
 91
        4
280
     0
281
     0
  0
CLASS
  1
VISUALSTYLE
  2
AcDbVisualStyle
  3
ObjectDBX Classes
 90
     4095
 91
        4
280
     0
281
     0
  0
CLASS
  1
TABLESTYLE
  2
AcDbTableStyle
  3
ObjectDBX Classes
 90
     4095
 91
        4
280
     0
281
     0
  0
CLASS
  1
ACMESCOPE
  2
AcMeScope
  3
AcMeScope|...|...
 90
        0
 91
        4
280
     0
281
     0
  0
CLASS
  1
ACMSTANDARDANSI
  2
AcmStandardANSI
  3
AcmStandardANSI|...|...
 90
        0
 91
        4
280
     0
281
     0
  0
CLASS
  1
ACMSURFSTANDARDANSI
  2
AcmSurfTextStdANSI
  3
AcmSurfTextStdANSI|...|...
 90
        0
 91
        4
280
     0
281
     0
  0
CLASS
  1
ACMFCFSTANDARDANSI
  2
AcmFCFStdANSI
  3
AcmFCFStdANSI|...|...
 90
        0
 91
        5
280
     0
281
     0
  0
CLASS
  1
ACMWELDSTANDARDANSI
  2
AcmWeldingStdANSI
  3
AcmWeldingStdANSI|...|...
 90
        0
 91
        4
280
     0
281
     0
  0
CLASS
  1
ACMIDSTANDARDANSI
  2
AcmIdStdANSI
  3
AcmIdStdANSI|...|...
 90
        0
 91
        5
280
     0
281
     0
  0
CLASS
  1
ACMDATUMSTANDARDANSI
  2
AcmDatumStdANSI
  3
AcmDatumStdANSI|...|...
 90
        0
 91
        4
280
     0
281
     0
  0
CLASS
  1
ACMBOMSTANDARDANSI
  2
AcmBOMStdANSI
  3
AcmBOMStdANSI|...|...
 90
        0
 91
        4
280
     0
281
     0
  0
CLASS
  1
ACMDETAILSTANDARDANSI
  2
AmdtDetailSymStdANSI
  3
AmdtDetailSymStdANSI|...|...
 90
        0
 91
        4
280
     0
281
     0
  0
CLASS
  1
ACDBDETAILVIEWSTYLE
  2
AcDbDetailViewStyle
  3
ObjectDBX Classes
 90
     1025
 91
        4
280
     0
281
     0
  0
CLASS
  1
FIELD
  2
AcDbField
  3
ObjectDBX Classes
 90
     1152
 91
        4
280
     0
281
     0
  0
CLASS
  1
ACMDETAILSTANDARDCUSTOM
  2
AmdtDetailSymStdCustom
  3
AmdtDetailSymStdCustom|...|...
 90
        0
 91
        4
280
     0
281
     0
  0
CLASS
  1
ACMSECTIONSTANDARDANSI
  2
AmdtSectionSymStdANSI
  3
AmdtSectionSymStdANSI|...|...
 90
        0
 91
        4
280
     0
281
     0
  0
CLASS
  1
ACDBSECTIONVIEWSTYLE
  2
AcDbSectionViewStyle
  3
ObjectDBX Classes
 90
     1025
 91
        4
280
     0
281
     0
  0
CLASS
  1
ACMSECTIONSTANDARDCUSTOM
  2
AmdtSectionSymStdCustom
  3
AmdtSectionSymStdCustom|...|...
 90
        0
 91
        4
280
     0
281
     0
  0
CLASS
  1
ACMCENTERLINESTANDARDANSI
  2
AmdtCenterLineStdANSI
  3
AmdtCenterLineStdANSI|...|...
 90
        0
 91
        4
280
     0
281
     0
  0
CLASS
  1
ACMTHREADLINESTANDARDANSI
  2
AmdtThreadLineStdANSI
  3
AmdtThreadLineStdANSI|...|...
 90
        0
 91
        4
280
     0
281
     0
  0
CLASS
  1
ACMNOTESTANDARDANSI
  2
AmdtNoteStdANSI
  3
AmdtNoteStdANSI|...|...
 90
        0
 91
        4
280
     0
281
     0
  0
CLASS
  1
AMDTNOTETEMPLATEDB
  2
AmdtNoteTemplateDB
  3
AmdtNoteTemplateDB|...|...
 90
        0
 91
        4
280
     0
281
     0
  0
CLASS
  1
ACMTAPERSTANDARDANSI
  2
AcmTaperStdANSI
  3
AcmTaperStdANSI|...|...
 90
        0
 91
        4
280
     0
281
     0
  0
CLASS
  1
ACMANOOTATIONVIEWSTANDARDANSI
  2
AmdtAnViewStdANSI
  3
AmdtAnViewStdANSI|...|...
 90
        0
 91
        4
280
     0
281
     0
  0
CLASS
  1
ACAMGLAYSTD
  2
AcAmgLayStd
  3
AcAmgLayStd|...|...
 90
        0
 91
        4
280
     0
281
     0
  0
CLASS
  1
AMGOBJPROPCFG
  2
AmgObjPropCfg
  3
AmgObjPropCfg|...|...
 90
        0
 91
        4
280
     0
281
     0
  0
CLASS
  1
ACAMGDIMSTD
  2
AcAmgDimStd
  3
AcAmgDimStd|...|...
 90
        0
 91
        4
280
     0
281
     0
  0
CLASS
  1
ACAMGHOLECHARTSTDANSI
  2
AcAmgHoleChartStdANSI
  3
AcAmgHoleChartStdANSI|...|...
 90
        0
 91
        4
280
     0
281
     0
  0
CLASS
  1
ACAMGTITLESTD
  2
AcAmgTitleStd
  3
AcAmgTitleStd|...|...
 90
        0
 91
        4
280
     0
281
     0
  0
CLASS
  1
FIELDLIST
  2
AcDbFieldList
  3
ObjectDBX Classes
 90
     1152
 91
        4
280
     0
281
     0
  0
CLASS
  1
ACIMSYSVARMAN
  2
AcImSysVarManager
  3
AcImSysVarManager|...|...
 90
        0
 91
        4
280
     0
281
     0
  0
CLASS
  1
ACIMSTRSYSVAR
  2
AcImStrSysVar
  3
AcImStrSysVar|...|...
 90
        0
 91
        4
280
     0
281
     0
  0
CLASS
  1
AMGSETTINGSOBJ
  2
AmgSettingsObj
  3
AmgSettingsObj|...|...
 90
        0
 91
        4
280
     0
281
     0
  0
CLASS
  1
AMDTFCFLIBRARY
  2
AmdtFCFLibrary
  3
AmdtFCFLibrary|...|...
 90
        0
 91
        4
280
     0
281
     0
  0
CLASS
  1
AMDTSURFTEXTLIBRARY
  2
AmdtSurfTextLibrary
  3
AmdtSurfTextLibrary|...|...
 90
        0
 91
        4
280
     0
281
     0
  0
CLASS
  1
AMDTWELDINGLIBRARY
  2
AmdtWeldingLibrary
  3
AmdtWeldingLibrary|...|...
 90
        0
 91
        4
280
     0
281
     0
  0
CLASS
  1
AMDTFCFLIBOBJECT
  2
AmdtFCFLibObject
  3
AmdtFCFLibObject|...|...
 90
        0
 91
        4
280
     0
281
     0
  0
CLASS
  1
AMDTSURFTEXTLIBOBJECT
  2
AmdtSurfTextLibObject
  3
AmdtSurfTextLibObject|...|...
 90
        0
 91
        4
280
     0
281
     0
  0
CLASS
  1
AMDTWELDINGLIBOBJECT
  2
AmdtWeldingLibObject
  3
AmdtWeldingLibObject|...|...
 90
        0
 91
        4
280
     0
281
     0
  0
CLASS
  1
ACIMINTSYSVAR
  2
AcImIntSysVar
  3
AcImIntSysVar|...|...
 90
        0
 91
        4
280
     0
281
     0
  0
CLASS
  1
ACMDATADICTIONARY
  2
AcmDataDictionary
  3
AcmDataDictionary|...|...
 90
        0
 91
        4
280
     0
281
     0
  0
CLASS
  1
ACMDATAENTRYBLOCK
  2
AcmDataEntryBlock
  3
AcmDataEntryBlock|...|...
 90
        0
 91
        4
280
     0
281
     0
  0
CLASS
  1
MLEADERSTYLE
  2
AcDbMLeaderStyle
  3
ACDB_MLEADERSTYLE_CLASS
 90
     4095
 91
        4
280
     0
281
     0
  0
CLASS
  1
AMDTSYSATTR
  2
AmdtSystemAttribute
  3
AmdtSystemAttribute|...|...
 90
        0
 91
        4
280
     0
281
     0
  0
CLASS
  1
DICTIONARYVAR
  2
AcDbDictionaryVar
  3
ObjectDBX Classes
 90
        0
 91
        4
280
     0
281
     0
  0
CLASS
  1
CELLSTYLEMAP
  2
AcDbCellStyleMap
  3
ObjectDBX Classes
 90
     1152
 91
        4
280
     0
281
     0
  0
ENDSEC
  0
SECTION
  2
TABLES
  0
TABLE
  2
VPORT
  5
8
330
0
100
AcDbSymbolTable
 70
     1
  0
VPORT
  5
264
330
8
100
AcDbSymbolTableRecord
100
AcDbViewportTableRecord
  2
*Active
 70
     0
 10
0.0
 20
0.0
 11
1.0
 21
1.0
 12
520.657294959167
 22
330.3895777129756
 13
0.0
 23
0.0
 14
0.5
 24
0.5
 15
0.5
 25
0.5
 16
0.0
 26
0.0
 36
1.0
 17
0.0
 27
0.0
 37
0.0
 40
499.9823611119253
 41
2.007225433526012
 42
50.0
 43
0.0
 44
0.0
 50
0.0
 51
0.0
 71
     0
 72
   100
 73
     1
 74
     3
 75
     0
 76
     0
 77
     0
 78
     0
281
     0
 65
     1
110
0.0
120
0.0
130
0.0
111
1.0
121
0.0
131
0.0
112
0.0
122
1.0
132
0.0
 79
     0
146
0.0
348
280
 60
     3
 61
     5
292
     1
282
     1
141
0.0
142
0.0
 63
   250
  0
ENDTAB
  0
TABLE
  2
LTYPE
  5
5
330
0
100
AcDbSymbolTable
 70
    13
  0
LTYPE
  5
14
330
5
100
AcDbSymbolTableRecord
100
AcDbLinetypeTableRecord
  2
ByBlock
 70
     0
  3

 72
    65
 73
     0
 40
0.0
  0
LTYPE
  5
15
330
5
100
AcDbSymbolTableRecord
100
AcDbLinetypeTableRecord
  2
ByLayer
 70
     0
  3

 72
    65
 73
     0
 40
0.0
  0
LTYPE
  5
16
330
5
100
AcDbSymbolTableRecord
100
AcDbLinetypeTableRecord
  2
CONTINUOUS
 70
     0
  3
Solid line
 72
    65
 73
     0
 40
0.0
  0
LTYPE
  5
21
330
5
100
AcDbSymbolTableRecord
100
AcDbLinetypeTableRecord
  2
DASHED
 70
     0
  3
__ __ __ __ __ __ __ __ __ __ __ __ __ __ __
 72
    65
 73
     2
 40
3.5
 49
2.0
 74
     0
 49
-1.5
 74
     0
  0
LTYPE
  5
22
330
5
100
AcDbSymbolTableRecord
100
AcDbLinetypeTableRecord
  2
CENTER
 70
     0
  3
____ _ ____ _ ____ _ ____ _ ____ _ ____ _ ____
 72
    65
 73
     4
 40
17.5
 49
13.0
 74
     0
 49
-1.5
 74
     0
 49
1.5
 74
     0
 49
-1.5
 74
     0
  0
LTYPE
  5
23
330
5
100
AcDbSymbolTableRecord
100
AcDbLinetypeTableRecord
  2
PHANTOM
 70
     0
  3
_____ _ _ _____ _ _ _____ _ _ _____ _ _ ____  
 72
    65
 73
     6
 40
15.5
 49
8.0
 74
     0
 49
-1.5
 74
     0
 49
1.5
 74
     0
 49
-1.5
 74
     0
 49
1.5
 74
     0
 49
-1.5
 74
     0
  0
LTYPE
  5
24
330
5
100
AcDbSymbolTableRecord
100
AcDbLinetypeTableRecord
  2
DOT
 70
     0
  3
. . . . . . . . . . . . . . . . . . . . . . . .
 72
    65
 73
     2
 40
0.25
 49
0.0
 74
     0
 49
-0.25
 74
     0
  0
LTYPE
  5
25
330
5
100
AcDbSymbolTableRecord
100
AcDbLinetypeTableRecord
  2
HIDDEN
 70
     0
  3
__ __ __ __ __ __ __ __ __ __ __ __ __ __ __
 72
    65
 73
     2
 40
3.5
 49
2.0
 74
     0
 49
-1.5
 74
     0
  0
LTYPE
  5
2CF
330
5
100
AcDbSymbolTableRecord
100
AcDbLinetypeTableRecord
  2
ACANSTGB
 70
     0
  3
__ . . __ . .
 72
    65
 73
     6
 40
0.35433070866
 49
0.15748031496
 74
     0
 49
-0.03937007874
 74
     0
 49
0.03937007874
 74
     0
 49
-0.03937007874
 74
     0
 49
0.03937007874
 74
     0
 49
-0.03937007874
 74
     0
  0
LTYPE
  5
2D0
330
5
100
AcDbSymbolTableRecord
100
AcDbLinetypeTableRecord
  2
ACANSTGL
 70
     0
  3
_ _ _ _ _
 72
    65
 73
     2
 40
0.11811023622
 49
0.07874015748
 74
     0
 49
-0.03937007874
 74
     0
  0
LTYPE
  5
2EA
330
5
100
AcDbSymbolTableRecord
100
AcDbLinetypeTableRecord
  2
PHANTOM2
 70
     0
  3
Phantom (.5x) ___ _ _ ___ _ _ ___ _ _ ___ _ _
 72
    65
 73
     6
 40
1.25
 49
0.625
 74
     0
 49
-0.125
 74
     0
 49
0.125
 74
     0
 49
-0.125
 74
     0
 49
0.125
 74
     0
 49
-0.125
 74
     0
  0
LTYPE
  5
302
330
5
100
AcDbSymbolTableRecord
100
AcDbLinetypeTableRecord
  2
Amconstr
 70
     0
  3
_______________________
 72
    65
 73
     2
 40
9999.0
 49
9999.0
 74
     0
 49
0.0
 74
     0
  0
LTYPE
  5
303
330
5
100
AcDbSymbolTableRecord
100
AcDbLinetypeTableRecord
  2
CENTER2
 70
     0
  3
Center (.5x) ___ _ ___ _ ___ _ ___ _ ___ _ ___
 72
    65
 73
     4
 40
1.125
 49
0.75
 74
     0
 49
-0.125
 74
     0
 49
0.125
 74
     0
 49
-0.125
 74
     0
  0
LTYPE
  5
304
330
5
100
AcDbSymbolTableRecord
100
AcDbLinetypeTableRecord
  2
HIDDEN2
 70
     0
  3
Hidden (.5x) _ _ _ _ _ _ _ _ _ _ _ _ _ _ _ _ _
 72
    65
 73
     2
 40
0.1875
 49
0.125
 74
     0
 49
-0.0625
 74
     0
  0
LTYPE
  5
305
330
5
100
AcDbSymbolTableRecord
100
AcDbLinetypeTableRecord
  2
Amzigzag2
 70
     0
  3
/\/-/\/-/\/-/\/-/\/-/\/
 72
    65
 73
     2
 40
0.4401
 49
0.0001
 74
     4
 75
   136
340
0
 46
0.0016
 50
0.0
 44
0.0
 45
0.0
 49
-0.44
 74
     0
  0
ENDTAB
  0
TABLE
  2
LAYER
  5
2
330
0
100
AcDbSymbolTable
 70
     1
  0
LAYER
  5
10
330
2
100
AcDbSymbolTableRecord
100
AcDbLayerTableRecord
  2
0
 70
     0
 62
     7
  6
CONTINUOUS
370
    -3
390
F
347
2A
348
0
  0
ENDTAB
  0
TABLE
  2
STYLE
  5
3
330
0
100
AcDbSymbolTable
 70
     3
  0
STYLE
  5
12
330
3
100
AcDbSymbolTableRecord
100
AcDbTextStyleTableRecord
  2
STANDARD
 70
     0
 40
0.0
 41
1.0
 50
0.0
 71
     0
 42
0.2
  3
txt
  4
BIGFONT
  0
STYLE
  5
2CB
330
3
100
AcDbSymbolTableRecord
100
AcDbTextStyleTableRecord
  2
ACANSGDT
 70
     0
 40
0.0
 41
1.0
 50
0.0
 71
     0
 42
0.2
  3
amgdt.shx
  4
extfont2.shx
  0
STYLE
  5
31D
330
3
100
AcDbSymbolTableRecord
100
AcDbTextStyleTableRecord
  2
ACANSTS
 70
     0
 40
0.0
 41
1.0
 50
0.0
 71
     0
 42
0.2
  3
romans.shx
  4
extfont2.shx
  0
ENDTAB
  0
TABLE
  2
VIEW
  5
6
330
0
100
AcDbSymbolTable
 70
     0
  0
ENDTAB
  0
TABLE
  2
UCS
  5
7
330
0
100
AcDbSymbolTable
 70
     0
  0
ENDTAB
  0
TABLE
  2
APPID
  5
9
330
0
100
AcDbSymbolTable
 70
    43
  0
APPID
  5
13
330
9
100
AcDbSymbolTableRecord
100
AcDbRegAppTableRecord
  2
ACAD
 70
     0
  0
APPID
  5
296
330
9
100
AcDbSymbolTableRecord
100
AcDbRegAppTableRecord
  2
HC_SUPERPART
 70
     0
  0
APPID
  5
297
330
9
100
AcDbSymbolTableRecord
100
AcDbRegAppTableRecord
  2
HC_SP4BLOCK
 70
     0
  0
APPID
  5
298
330
9
100
AcDbSymbolTableRecord
100
AcDbRegAppTableRecord
  2
HC_XDATA_SPRING
 70
     0
  0
APPID
  5
299
330
9
100
AcDbSymbolTableRecord
100
AcDbRegAppTableRecord
  2
HCCAD_FRAME
 70
     0
  0
APPID
  5
29A
330
9
100
AcDbSymbolTableRecord
100
AcDbRegAppTableRecord
  2
GENIUS_GENOLIS_13
 70
     0
  0
APPID
  5
29B
330
9
100
AcDbSymbolTableRecord
100
AcDbRegAppTableRecord
  2
GENIUS_GENOENT_13
 70
     0
  0
APPID
  5
29C
330
9
100
AcDbSymbolTableRecord
100
AcDbRegAppTableRecord
  2
GENIUS_GENODEF_13
 70
     0
  0
APPID
  5
29D
330
9
100
AcDbSymbolTableRecord
100
AcDbRegAppTableRecord
  2
GENIUS_GENOREF_13
 70
     0
  0
APPID
  5
29E
330
9
100
AcDbSymbolTableRecord
100
AcDbRegAppTableRecord
  2
GENIUS_GENOBJ-N-TIT_13
 70
     0
  0
APPID
  5
29F
330
9
100
AcDbSymbolTableRecord
100
AcDbRegAppTableRecord
  2
GENIUS_GENOBJ-N-SDF_13
 70
     0
  0
APPID
  5
2A0
330
9
100
AcDbSymbolTableRecord
100
AcDbRegAppTableRecord
  2
GENIUS_GENOBJ-N-ZOO_13
 70
     0
  0
APPID
  5
2A1
330
9
100
AcDbSymbolTableRecord
100
AcDbRegAppTableRecord
  2
GENIUS_GENTITLE_13
 70
     0
  0
APPID
  5
2A2
330
9
100
AcDbSymbolTableRecord
100
AcDbRegAppTableRecord
  2
GENIUS_GENSCREG_15
 70
     0
  0
APPID
  5
2A3
330
9
100
AcDbSymbolTableRecord
100
AcDbRegAppTableRecord
  2
GENIUS_GENSYMENT_13
 70
     0
  0
APPID
  5
2A4
330
9
100
AcDbSymbolTableRecord
100
AcDbRegAppTableRecord
  2
GENIUS_GENSCSYM_13
 70
     0
  0
APPID
  5
2A5
330
9
100
AcDbSymbolTableRecord
100
AcDbRegAppTableRecord
  2
GENIUS_GENOBJ-N-REV_13
 70
     0
  0
APPID
  5
2A6
330
9
100
AcDbSymbolTableRecord
100
AcDbRegAppTableRecord
  2
GENIUS_GENOBJ-N-RSSYM_13
 70
     0
  0
APPID
  5
2A7
330
9
100
AcDbSymbolTableRecord
100
AcDbRegAppTableRecord
  2
GENIUS_GENREV_15
 70
     0
  0
APPID
  5
2A8
330
9
100
AcDbSymbolTableRecord
100
AcDbRegAppTableRecord
  2
HRA
 70
     0
  0
APPID
  5
2A9
330
9
100
AcDbSymbolTableRecord
100
AcDbRegAppTableRecord
  2
HTIT
 70
     0
  0
APPID
  5
2AA
330
9
100
AcDbSymbolTableRecord
100
AcDbRegAppTableRecord
  2
GENIUS_GENZOO_17
 70
     0
  0
APPID
  5
2AB
330
9
100
AcDbSymbolTableRecord
100
AcDbRegAppTableRecord
  2
GENIUS_GENOBJ-N-CEN_13
 70
     0
  0
APPID
  5
2AC
330
9
100
AcDbSymbolTableRecord
100
AcDbRegAppTableRecord
  2
GENIUS_GENCEN_19
 70
     0
  0
APPID
  5
2AD
330
9
100
AcDbSymbolTableRecord
100
AcDbRegAppTableRecord
  2
GENIUS_GENOBJ-N-CRS_13
 70
     0
  0
APPID
  5
2AE
330
9
100
AcDbSymbolTableRecord
100
AcDbRegAppTableRecord
  2
GENIUS_GENCRS_20
 70
     0
  0
APPID
  5
2AF
330
9
100
AcDbSymbolTableRecord
100
AcDbRegAppTableRecord
  2
GENIUS_GENOBJ-N-CRC_13
 70
     0
  0
APPID
  5
2B0
330
9
100
AcDbSymbolTableRecord
100
AcDbRegAppTableRecord
  2
GENIUS_GENCRC_14
 70
     0
  0
APPID
  5
2B1
330
9
100
AcDbSymbolTableRecord
100
AcDbRegAppTableRecord
  2
GENIUS_GENFIL_13
 70
     0
  0
APPID
  5
2B2
330
9
100
AcDbSymbolTableRecord
100
AcDbRegAppTableRecord
  2
GENIUS_GENOBJ-N-CHA_13
 70
     0
  0
APPID
  5
2B3
330
9
100
AcDbSymbolTableRecord
100
AcDbRegAppTableRecord
  2
GENIUS_GENOBJ-N-FIL_13
 70
     0
  0
APPID
  5
2B4
330
9
100
AcDbSymbolTableRecord
100
AcDbRegAppTableRecord
  2
GENIUS_GENHATCH_13
 70
     0
  0
APPID
  5
2B5
330
9
100
AcDbSymbolTableRecord
100
AcDbRegAppTableRecord
  2
GENIUS_GENOBJ-N-HTC_13
 70
     0
  0
APPID
  5
2B6
330
9
100
AcDbSymbolTableRecord
100
AcDbRegAppTableRecord
  2
GENIUS_GENDIM_13
 70
     0
  0
APPID
  5
2B7
330
9
100
AcDbSymbolTableRecord
100
AcDbRegAppTableRecord
  2
GENIUS_GENOBJ-N-DIM_13
 70
     0
  0
APPID
  5
2B8
330
9
100
AcDbSymbolTableRecord
100
AcDbRegAppTableRecord
  2
GENIUS_GENOBJ-N-DIMLI_13
 70
     0
  0
APPID
  5
2B9
330
9
100
AcDbSymbolTableRecord
100
AcDbRegAppTableRecord
  2
GENIUS_GENOBJ-N-FITL_13
 70
     0
  0
APPID
  5
2BA
330
9
100
AcDbSymbolTableRecord
100
AcDbRegAppTableRecord
  2
GENIUS_GENFITL_13
 70
     0
  0
APPID
  5
2BB
330
9
100
AcDbSymbolTableRecord
100
AcDbRegAppTableRecord
  2
GENIUS_GENDTOL_13
 70
     0
  0
APPID
  5
2BC
330
9
100
AcDbSymbolTableRecord
100
AcDbRegAppTableRecord
  2
GENLAYCOLOR
 70
     0
  0
APPID
  5
308
330
9
100
AcDbSymbolTableRecord
100
AcDbRegAppTableRecord
  2
ACAD_DSTYLE_DIMJAG
 70
     0
  0
APPID
  5
309
330
9
100
AcDbSymbolTableRecord
100
AcDbRegAppTableRecord
  2
ACAD_DSTYLE_DIMBREAK
 70
     0
  0
APPID
  5
338
330
9
100
AcDbSymbolTableRecord
100
AcDbRegAppTableRecord
  2
ACAD_MLEADERVER
 70
     0
  0
ENDTAB
  0
TABLE
  2
DIMSTYLE
  5
A
330
0
100
AcDbSymbolTable
 70
     7
100
AcDbDimStyleTable
  0
DIMSTYLE
105
2C
330
A
100
AcDbSymbolTableRecord
100
AcDbDimStyleTableRecord
  2
Standard
 70
     0
178
     0
340
12
  0
DIMSTYLE
105
307
102
{ACAD_REACTORS
330
2C7
102
}
330
A
100
AcDbSymbolTableRecord
100
AcDbDimStyleTableRecord
  2
AM_ANSI
 70
     0
  4
mm
 41
0.12
 42
0.05
 43
0.5
 44
0.1
 47
0.1
 48
0.1
 90
        1
 78
     7
 79
     2
140
0.12
141
0.0
146
0.71
147
0.06
176
   256
177
   256
178
     2
274
     4
284
     7
340
12
371
    -1
372
    -1
345
14
346
14
347
14
1001
ACAD_DSTYLE_DIMJAG
1070
   388
1040
1.5
1001
ACAD_DSTYLE_DIMBREAK
1070
   391
1040
0.125
  0
DIMSTYLE
105
30A
330
A
100
AcDbSymbolTableRecord
100
AcDbDimStyleTableRecord
  2
AM_ANSI$3
 70
     0
  4
mm
 41
0.12
 42
0.05
 43
0.5
 44
0.1
 47
0.1
 48
0.1
 90
        1
 78
     7
 79
     2
140
0.12
141
0.0
146
0.71
147
0.06
176
   256
177
   256
178
     2
274
     4
284
     7
288
     1
289
     0
340
12
371
    -1
372
    -1
345
14
346
14
347
14
1001
ACAD_DSTYLE_DIMBREAK
1070
   391
1040
0.125
1001
ACAD_DSTYLE_DIMJAG
1070
   388
1040
1.5
  0
DIMSTYLE
105
30B
330
A
100
AcDbSymbolTableRecord
100
AcDbDimStyleTableRecord
  2
AM_ANSI$4
 70
     0
  4
mm
 41
0.12
 42
0.05
 43
0.5
 44
0.1
 47
0.1
 48
0.1
 90
        1
 78
     7
 79
     2
140
0.12
141
0.0
146
0.71
147
0.06
176
   256
177
   256
178
     2
274
     4
284
     7
340
12
371
    -1
372
    -1
345
14
346
14
347
14
1001
ACAD_DSTYLE_DIMBREAK
1070
   391
1040
0.125
1001
ACAD_DSTYLE_DIMJAG
1070
   388
1040
1.5
  0
DIMSTYLE
105
30C
330
A
100
AcDbSymbolTableRecord
100
AcDbDimStyleTableRecord
  2
AM_ANSI$7
 70
     0
  4
mm
 41
0.12
 42
0.05
 43
0.5
 44
0.1
 47
0.1
 48
0.1
 90
        1
 78
     7
 79
     2
140
0.12
141
0.0
146
0.71
147
0.06
176
   256
177
   256
178
     2
274
     4
284
     7
340
12
371
    -1
372
    -1
345
14
346
14
347
14
1001
ACAD_DSTYLE_DIMBREAK
1070
   391
1040
0.125
1001
ACAD_DSTYLE_DIMJAG
1070
   388
1040
1.5
  0
DIMSTYLE
105
30D
330
A
100
AcDbSymbolTableRecord
100
AcDbDimStyleTableRecord
  2
AM_ANSI$SF
 70
     0
  4
mm
 41
0.12
 42
0.05
 43
0.5
 44
0.1
 47
0.1
 48
0.1
 90
        1
 75
     1
 76
     1
 78
     7
 79
     2
140
0.12
141
0.0
146
0.71
147
0.06
176
   256
177
   256
178
     2
274
     4
284
     7
340
12
371
    -1
372
    -1
345
14
346
14
347
14
1001
ACAD_DSTYLE_DIMBREAK
1070
   391
1040
0.125
1001
ACAD_DSTYLE_DIMJAG
1070
   388
1040
1.5
  0
DIMSTYLE
105
30E
330
A
100
AcDbSymbolTableRecord
100
AcDbDimStyleTableRecord
  2
AM_ANSI$SH
 70
     0
  4
mm
 41
0.12
 42
0.05
 43
0.5
 44
0.1
 47
0.1
 48
0.1
 90
        1
 75
     1
 76
     1
 78
     7
 79
     2
140
0.12
141
0.0
146
0.71
147
0.06
173
     1
176
   256
177
   256
178
     2
274
     4
284
     7
340
12
343
30F
371
    -1
372
    -1
345
14
346
14
347
14
1001
ACAD_DSTYLE_DIMBREAK
1070
   391
1040
0.125
1001
ACAD_DSTYLE_DIMJAG
1070
   388
1040
1.5
  0
ENDTAB
  0
TABLE
  2
BLOCK_RECORD
  5
1
330
0
100
AcDbSymbolTable
 70
    43
  0
BLOCK_RECORD
  5
1D
330
1
100
AcDbSymbolTableRecord
100
AcDbBlockTableRecord
  2
*Model_Space
340
1E
 70
     0
280
     1
281
     0
  0
BLOCK_RECORD
  5
1B
330
1
100
AcDbSymbolTableRecord
100
AcDbBlockTableRecord
  2
*Paper_Space
340
1C
 70
     0
280
     1
281
     0
  0
BLOCK_RECORD
  5
2E
330
1
100
AcDbSymbolTableRecord
100
AcDbBlockTableRecord
  2
KOZU0001
340
0
102
{BLKREFS
331
23B
102
}
 70
     0
280
     1
281
     0
  0
BLOCK_RECORD
  5
35
330
1
100
AcDbSymbolTableRecord
100
AcDbBlockTableRecord
  2
KOZU0002
340
0
102
{BLKREFS
331
23C
102
}
 70
     0
280
     1
281
     0
  0
BLOCK_RECORD
  5
3C
330
1
100
AcDbSymbolTableRecord
100
AcDbBlockTableRecord
  2
KOZU0003
340
0
102
{BLKREFS
331
23D
102
}
 70
     0
280
     1
281
     0
  0
BLOCK_RECORD
  5
43
330
1
100
AcDbSymbolTableRecord
100
AcDbBlockTableRecord
  2
KOZU0004
340
0
102
{BLKREFS
331
23E
102
}
 70
     0
280
     1
281
     0
  0
BLOCK_RECORD
  5
4A
330
1
100
AcDbSymbolTableRecord
100
AcDbBlockTableRecord
  2
KOZU0005
340
0
102
{BLKREFS
331
23F
102
}
 70
     0
280
     1
281
     0
  0
BLOCK_RECORD
  5
51
330
1
100
AcDbSymbolTableRecord
100
AcDbBlockTableRecord
  2
KOZU0006
340
0
102
{BLKREFS
331
240
102
}
 70
     0
280
     1
281
     0
  0
BLOCK_RECORD
  5
58
330
1
100
AcDbSymbolTableRecord
100
AcDbBlockTableRecord
  2
KOZU0007
340
0
102
{BLKREFS
331
241
102
}
 70
     0
280
     1
281
     0
  0
BLOCK_RECORD
  5
5F
330
1
100
AcDbSymbolTableRecord
100
AcDbBlockTableRecord
  2
KOZU0008
340
0
102
{BLKREFS
331
242
102
}
 70
     0
280
     1
281
     0
  0
BLOCK_RECORD
  5
66
330
1
100
AcDbSymbolTableRecord
100
AcDbBlockTableRecord
  2
KOZU0009
340
0
102
{BLKREFS
331
243
102
}
 70
     0
280
     1
281
     0
  0
BLOCK_RECORD
  5
6D
330
1
100
AcDbSymbolTableRecord
100
AcDbBlockTableRecord
  2
KOZU0010
340
0
102
{BLKREFS
331
244
102
}
 70
     0
280
     1
281
     0
  0
BLOCK_RECORD
  5
74
330
1
100
AcDbSymbolTableRecord
100
AcDbBlockTableRecord
  2
KOZU0011
340
0
102
{BLKREFS
331
245
102
}
 70
     0
280
     1
281
     0
  0
BLOCK_RECORD
  5
7B
330
1
100
AcDbSymbolTableRecord
100
AcDbBlockTableRecord
  2
KOZU0012
340
0
102
{BLKREFS
331
246
102
}
 70
     0
280
     1
281
     0
  0
BLOCK_RECORD
  5
82
330
1
100
AcDbSymbolTableRecord
100
AcDbBlockTableRecord
  2
KOZU0013
340
0
102
{BLKREFS
331
247
102
}
 70
     0
280
     1
281
     0
  0
BLOCK_RECORD
  5
89
330
1
100
AcDbSymbolTableRecord
100
AcDbBlockTableRecord
  2
KOZU0014
340
0
102
{BLKREFS
331
248
102
}
 70
     0
280
     1
281
     0
  0
BLOCK_RECORD
  5
90
330
1
100
AcDbSymbolTableRecord
100
AcDbBlockTableRecord
  2
KOZU0015
340
0
102
{BLKREFS
331
249
102
}
 70
     0
280
     1
281
     0
  0
BLOCK_RECORD
  5
97
330
1
100
AcDbSymbolTableRecord
100
AcDbBlockTableRecord
  2
KOZU0016
340
0
102
{BLKREFS
331
24A
102
}
 70
     0
280
     1
281
     0
  0
BLOCK_RECORD
  5
9E
330
1
100
AcDbSymbolTableRecord
100
AcDbBlockTableRecord
  2
KOZU0017
340
0
102
{BLKREFS
331
24C
102
}
 70
     0
280
     1
281
     0
  0
BLOCK_RECORD
  5
A5
330
1
100
AcDbSymbolTableRecord
100
AcDbBlockTableRecord
  2
KOZU0018
340
0
102
{BLKREFS
331
24D
102
}
 70
     0
280
     1
281
     0
  0
BLOCK_RECORD
  5
AC
330
1
100
AcDbSymbolTableRecord
100
AcDbBlockTableRecord
  2
KOZU0019
340
0
102
{BLKREFS
331
24E
102
}
 70
     0
280
     1
281
     0
  0
BLOCK_RECORD
  5
B3
330
1
100
AcDbSymbolTableRecord
100
AcDbBlockTableRecord
  2
KOZU0020
340
0
102
{BLKREFS
331
24F
102
}
 70
     0
280
     1
281
     0
  0
BLOCK_RECORD
  5
BA
330
1
100
AcDbSymbolTableRecord
100
AcDbBlockTableRecord
  2
KOZU0021
340
0
102
{BLKREFS
331
250
102
}
 70
     0
280
     1
281
     0
  0
BLOCK_RECORD
  5
C1
330
1
100
AcDbSymbolTableRecord
100
AcDbBlockTableRecord
  2
KOZU0022
340
0
102
{BLKREFS
331
251
102
}
 70
     0
280
     1
281
     0
  0
BLOCK_RECORD
  5
C8
330
1
100
AcDbSymbolTableRecord
100
AcDbBlockTableRecord
  2
KOZU0023
340
0
102
{BLKREFS
331
252
102
}
 70
     0
280
     1
281
     0
  0
BLOCK_RECORD
  5
CF
330
1
100
AcDbSymbolTableRecord
100
AcDbBlockTableRecord
  2
KOZU0024
340
0
102
{BLKREFS
331
253
102
}
 70
     0
280
     1
281
     0
  0
BLOCK_RECORD
  5
D6
330
1
100
AcDbSymbolTableRecord
100
AcDbBlockTableRecord
  2
KOZU0025
340
0
102
{BLKREFS
331
254
102
}
 70
     0
280
     1
281
     0
  0
BLOCK_RECORD
  5
DD
330
1
100
AcDbSymbolTableRecord
100
AcDbBlockTableRecord
  2
KOZU0026
340
0
102
{BLKREFS
331
255
102
}
 70
     0
280
     1
281
     0
  0
BLOCK_RECORD
  5
E4
330
1
100
AcDbSymbolTableRecord
100
AcDbBlockTableRecord
  2
KOZU0027
340
0
102
{BLKREFS
331
256
102
}
 70
     0
280
     1
281
     0
  0
BLOCK_RECORD
  5
EB
330
1
100
AcDbSymbolTableRecord
100
AcDbBlockTableRecord
  2
KOZU0028
340
0
102
{BLKREFS
331
257
102
}
 70
     0
280
     1
281
     0
  0
BLOCK_RECORD
  5
F2
330
1
100
AcDbSymbolTableRecord
100
AcDbBlockTableRecord
  2
KOZU0029
340
0
102
{BLKREFS
331
258
102
}
 70
     0
280
     1
281
     0
  0
BLOCK_RECORD
  5
F9
330
1
100
AcDbSymbolTableRecord
100
AcDbBlockTableRecord
  2
KOZU0030
340
0
102
{BLKREFS
331
259
102
}
 70
     0
280
     1
281
     0
  0
BLOCK_RECORD
  5
100
330
1
100
AcDbSymbolTableRecord
100
AcDbBlockTableRecord
  2
KOZU0031
340
0
102
{BLKREFS
331
25A
102
}
 70
     0
280
     1
281
     0
  0
BLOCK_RECORD
  5
107
330
1
100
AcDbSymbolTableRecord
100
AcDbBlockTableRecord
  2
KOZU0032
340
0
102
{BLKREFS
331
25B
102
}
 70
     0
280
     1
281
     0
  0
BLOCK_RECORD
  5
10E
330
1
100
AcDbSymbolTableRecord
100
AcDbBlockTableRecord
  2
KOZU0033
340
0
102
{BLKREFS
331
25C
102
}
 70
     0
280
     1
281
     0
  0
BLOCK_RECORD
  5
115
330
1
100
AcDbSymbolTableRecord
100
AcDbBlockTableRecord
  2
KOZU0034
340
0
102
{BLKREFS
331
25D
102
}
 70
     0
280
     1
281
     0
  0
BLOCK_RECORD
  5
11C
330
1
100
AcDbSymbolTableRecord
100
AcDbBlockTableRecord
  2
KOZU0035
340
0
102
{BLKREFS
331
25E
102
}
 70
     0
280
     1
281
     0
  0
BLOCK_RECORD
  5
123
330
1
100
AcDbSymbolTableRecord
100
AcDbBlockTableRecord
  2
KOZU0036
340
0
102
{BLKREFS
331
25F
102
}
 70
     0
280
     1
281
     0
  0
BLOCK_RECORD
  5
12A
330
1
100
AcDbSymbolTableRecord
100
AcDbBlockTableRecord
  2
KOZU0037
340
0
102
{BLKREFS
331
260
102
}
 70
     0
280
     1
281
     0
  0
BLOCK_RECORD
  5
131
330
1
100
AcDbSymbolTableRecord
100
AcDbBlockTableRecord
  2
KOZU0038
340
0
102
{BLKREFS
331
261
102
}
 70
     0
280
     1
281
     0
  0
BLOCK_RECORD
  5
138
330
1
100
AcDbSymbolTableRecord
100
AcDbBlockTableRecord
  2
KOZU0039
340
0
102
{BLKREFS
331
262
102
}
 70
     0
280
     1
281
     0
  0
BLOCK_RECORD
  5
13F
330
1
100
AcDbSymbolTableRecord
100
AcDbBlockTableRecord
  2
KOZU0040
340
0
102
{BLKREFS
331
263
102
}
 70
     0
280
     1
281
     0
  0
BLOCK_RECORD
  5
146
330
1
100
AcDbSymbolTableRecord
100
AcDbBlockTableRecord
  2
KOZU0041
340
0
102
{BLKREFS
331
24B
102
}
 70
     0
280
     1
281
     0
  0
BLOCK_RECORD
  5
2DA
330
1
100
AcDbSymbolTableRecord
100
AcDbBlockTableRecord
  2
_ACMFILLEDHALF
340
0
 70
     0
280
     1
281
     0
  0
BLOCK_RECORD
  5
30F
330
1
100
AcDbSymbolTableRecord
100
AcDbBlockTableRecord
  2
GENAXEH
340
0
 70
     0
280
     1
281
     0
  0
ENDTAB
  0
ENDSEC
  0
SECTION
  2
BLOCKS
  0
BLOCK
  5
279
330
1D
100
AcDbEntity
  8
0
100
AcDbBlockBegin
  2
*Model_Space
 70
     0
 10
0.0
 20
0.0
 30
0.0
  3
*Model_Space
  1
Acad:XRef
  0
ENDBLK
  5
27A
330
1D
100
AcDbEntity
  8
0
100
AcDbBlockEnd
  0
BLOCK
  5
277
330
1B
100
AcDbEntity
 67
     1
  8
0
100
AcDbBlockBegin
  2
*Paper_Space
 70
     0
 10
0.0
 20
0.0
 30
0.0
  3
*Paper_Space
  1
Acad:XRef
  0
ENDBLK
  5
278
330
1B
100
AcDbEntity
 67
     1
  8
0
100
AcDbBlockEnd
  0
BLOCK
  5
2D
330
2E
100
AcDbEntity
  8
0
100
AcDbBlockBegin
  2
KOZU0001
 70
     0
 10
0.0
 20
0.0
 30
0.0
  3
KOZU0001
  1

  0
LWPOLYLINE
  5
2F
330
2E
100
AcDbEntity
  8
0
  6
Continuous
 62
     7
100
AcDbPolyline
 90
        2
 70
     1
 43
0.3125
 10
-0.15625
 20
0.0
 42
1.0
 10
0.15625
 20
0.0
 42
1.0
  0
ENDBLK
  5
33
330
2E
100
AcDbEntity
  8
0
100
AcDbBlockEnd
  0
BLOCK
  5
34
330
35
100
AcDbEntity
  8
0
100
AcDbBlockBegin
  2
KOZU0002
 70
     0
 10
0.0
 20
0.0
 30
0.0
  3
KOZU0002
  1

  0
LWPOLYLINE
  5
36
330
35
100
AcDbEntity
  8
0
  6
Continuous
 62
     7
100
AcDbPolyline
 90
        2
 70
     1
 43
0.3125
 10
-0.15625
 20
0.0
 42
1.0
 10
0.15625
 20
0.0
 42
1.0
  0
ENDBLK
  5
3A
330
35
100
AcDbEntity
  8
0
100
AcDbBlockEnd
  0
BLOCK
  5
3B
330
3C
100
AcDbEntity
  8
0
100
AcDbBlockBegin
  2
KOZU0003
 70
     0
 10
0.0
 20
0.0
 30
0.0
  3
KOZU0003
  1

  0
LWPOLYLINE
  5
3D
330
3C
100
AcDbEntity
  8
0
  6
Continuous
 62
     7
100
AcDbPolyline
 90
        2
 70
     1
 43
0.3125
 10
-0.15625
 20
0.0
 42
1.0
 10
0.15625
 20
0.0
 42
1.0
  0
ENDBLK
  5
41
330
3C
100
AcDbEntity
  8
0
100
AcDbBlockEnd
  0
BLOCK
  5
42
330
43
100
AcDbEntity
  8
0
100
AcDbBlockBegin
  2
KOZU0004
 70
     0
 10
0.0
 20
0.0
 30
0.0
  3
KOZU0004
  1

  0
LWPOLYLINE
  5
44
330
43
100
AcDbEntity
  8
0
  6
Continuous
 62
     7
100
AcDbPolyline
 90
        2
 70
     1
 43
0.3125
 10
-0.15625
 20
0.0
 42
1.0
 10
0.15625
 20
0.0
 42
1.0
  0
ENDBLK
  5
48
330
43
100
AcDbEntity
  8
0
100
AcDbBlockEnd
  0
BLOCK
  5
49
330
4A
100
AcDbEntity
  8
0
100
AcDbBlockBegin
  2
KOZU0005
 70
     0
 10
0.0
 20
0.0
 30
0.0
  3
KOZU0005
  1

  0
LWPOLYLINE
  5
4B
330
4A
100
AcDbEntity
  8
0
  6
Continuous
 62
     7
100
AcDbPolyline
 90
        2
 70
     1
 43
0.3125
 10
-0.15625
 20
0.0
 42
1.0
 10
0.15625
 20
0.0
 42
1.0
  0
ENDBLK
  5
4F
330
4A
100
AcDbEntity
  8
0
100
AcDbBlockEnd
  0
BLOCK
  5
50
330
51
100
AcDbEntity
  8
0
100
AcDbBlockBegin
  2
KOZU0006
 70
     0
 10
0.0
 20
0.0
 30
0.0
  3
KOZU0006
  1

  0
LWPOLYLINE
  5
52
330
51
100
AcDbEntity
  8
0
  6
Continuous
 62
     7
100
AcDbPolyline
 90
        2
 70
     1
 43
0.3125
 10
-0.15625
 20
0.0
 42
1.0
 10
0.15625
 20
0.0
 42
1.0
  0
ENDBLK
  5
56
330
51
100
AcDbEntity
  8
0
100
AcDbBlockEnd
  0
BLOCK
  5
57
330
58
100
AcDbEntity
  8
0
100
AcDbBlockBegin
  2
KOZU0007
 70
     0
 10
0.0
 20
0.0
 30
0.0
  3
KOZU0007
  1

  0
LWPOLYLINE
  5
59
330
58
100
AcDbEntity
  8
0
  6
Continuous
 62
     7
100
AcDbPolyline
 90
        2
 70
     1
 43
0.3125
 10
-0.15625
 20
0.0
 42
1.0
 10
0.15625
 20
0.0
 42
1.0
  0
ENDBLK
  5
5D
330
58
100
AcDbEntity
  8
0
100
AcDbBlockEnd
  0
BLOCK
  5
5E
330
5F
100
AcDbEntity
  8
0
100
AcDbBlockBegin
  2
KOZU0008
 70
     0
 10
0.0
 20
0.0
 30
0.0
  3
KOZU0008
  1

  0
LWPOLYLINE
  5
60
330
5F
100
AcDbEntity
  8
0
  6
Continuous
 62
     7
100
AcDbPolyline
 90
        2
 70
     1
 43
0.3125
 10
-0.15625
 20
0.0
 42
1.0
 10
0.15625
 20
0.0
 42
1.0
  0
ENDBLK
  5
64
330
5F
100
AcDbEntity
  8
0
100
AcDbBlockEnd
  0
BLOCK
  5
65
330
66
100
AcDbEntity
  8
0
100
AcDbBlockBegin
  2
KOZU0009
 70
     0
 10
0.0
 20
0.0
 30
0.0
  3
KOZU0009
  1

  0
LWPOLYLINE
  5
67
330
66
100
AcDbEntity
  8
0
  6
Continuous
 62
     7
100
AcDbPolyline
 90
        2
 70
     1
 43
0.3125
 10
-0.15625
 20
0.0
 42
1.0
 10
0.15625
 20
0.0
 42
1.0
  0
ENDBLK
  5
6B
330
66
100
AcDbEntity
  8
0
100
AcDbBlockEnd
  0
BLOCK
  5
6C
330
6D
100
AcDbEntity
  8
0
100
AcDbBlockBegin
  2
KOZU0010
 70
     0
 10
0.0
 20
0.0
 30
0.0
  3
KOZU0010
  1

  0
LWPOLYLINE
  5
6E
330
6D
100
AcDbEntity
  8
0
  6
Continuous
 62
     7
100
AcDbPolyline
 90
        2
 70
     1
 43
0.3125
 10
-0.15625
 20
0.0
 42
1.0
 10
0.15625
 20
0.0
 42
1.0
  0
ENDBLK
  5
72
330
6D
100
AcDbEntity
  8
0
100
AcDbBlockEnd
  0
BLOCK
  5
73
330
74
100
AcDbEntity
  8
0
100
AcDbBlockBegin
  2
KOZU0011
 70
     0
 10
0.0
 20
0.0
 30
0.0
  3
KOZU0011
  1

  0
LWPOLYLINE
  5
75
330
74
100
AcDbEntity
  8
0
  6
Continuous
 62
     7
100
AcDbPolyline
 90
        2
 70
     1
 43
0.3125
 10
-0.15625
 20
0.0
 42
1.0
 10
0.15625
 20
0.0
 42
1.0
  0
ENDBLK
  5
79
330
74
100
AcDbEntity
  8
0
100
AcDbBlockEnd
  0
BLOCK
  5
7A
330
7B
100
AcDbEntity
  8
0
100
AcDbBlockBegin
  2
KOZU0012
 70
     0
 10
0.0
 20
0.0
 30
0.0
  3
KOZU0012
  1

  0
LWPOLYLINE
  5
7C
330
7B
100
AcDbEntity
  8
0
  6
Continuous
 62
     7
100
AcDbPolyline
 90
        2
 70
     1
 43
0.3125
 10
-0.15625
 20
0.0
 42
1.0
 10
0.15625
 20
0.0
 42
1.0
  0
ENDBLK
  5
80
330
7B
100
AcDbEntity
  8
0
100
AcDbBlockEnd
  0
BLOCK
  5
81
330
82
100
AcDbEntity
  8
0
100
AcDbBlockBegin
  2
KOZU0013
 70
     0
 10
0.0
 20
0.0
 30
0.0
  3
KOZU0013
  1

  0
LWPOLYLINE
  5
83
330
82
100
AcDbEntity
  8
0
  6
Continuous
 62
     7
100
AcDbPolyline
 90
        2
 70
     1
 43
0.3125
 10
-0.15625
 20
0.0
 42
1.0
 10
0.15625
 20
0.0
 42
1.0
  0
ENDBLK
  5
87
330
82
100
AcDbEntity
  8
0
100
AcDbBlockEnd
  0
BLOCK
  5
88
330
89
100
AcDbEntity
  8
0
100
AcDbBlockBegin
  2
KOZU0014
 70
     0
 10
0.0
 20
0.0
 30
0.0
  3
KOZU0014
  1

  0
LWPOLYLINE
  5
8A
330
89
100
AcDbEntity
  8
0
  6
Continuous
 62
     7
100
AcDbPolyline
 90
        2
 70
     1
 43
0.3125
 10
-0.15625
 20
0.0
 42
1.0
 10
0.15625
 20
0.0
 42
1.0
  0
ENDBLK
  5
8E
330
89
100
AcDbEntity
  8
0
100
AcDbBlockEnd
  0
BLOCK
  5
8F
330
90
100
AcDbEntity
  8
0
100
AcDbBlockBegin
  2
KOZU0015
 70
     0
 10
0.0
 20
0.0
 30
0.0
  3
KOZU0015
  1

  0
LWPOLYLINE
  5
91
330
90
100
AcDbEntity
  8
0
  6
Continuous
 62
     7
100
AcDbPolyline
 90
        2
 70
     1
 43
0.3125
 10
-0.15625
 20
0.0
 42
1.0
 10
0.15625
 20
0.0
 42
1.0
  0
ENDBLK
  5
95
330
90
100
AcDbEntity
  8
0
100
AcDbBlockEnd
  0
BLOCK
  5
96
330
97
100
AcDbEntity
  8
0
100
AcDbBlockBegin
  2
KOZU0016
 70
     0
 10
0.0
 20
0.0
 30
0.0
  3
KOZU0016
  1

  0
LWPOLYLINE
  5
98
330
97
100
AcDbEntity
  8
0
  6
Continuous
 62
     7
100
AcDbPolyline
 90
        2
 70
     1
 43
0.3125
 10
-0.15625
 20
0.0
 42
1.0
 10
0.15625
 20
0.0
 42
1.0
  0
ENDBLK
  5
9C
330
97
100
AcDbEntity
  8
0
100
AcDbBlockEnd
  0
BLOCK
  5
9D
330
9E
100
AcDbEntity
  8
0
100
AcDbBlockBegin
  2
KOZU0017
 70
     0
 10
0.0
 20
0.0
 30
0.0
  3
KOZU0017
  1

  0
LWPOLYLINE
  5
9F
330
9E
100
AcDbEntity
  8
0
  6
Continuous
 62
     7
100
AcDbPolyline
 90
        2
 70
     1
 43
0.3125
 10
-0.15625
 20
0.0
 42
1.0
 10
0.15625
 20
0.0
 42
1.0
  0
ENDBLK
  5
A3
330
9E
100
AcDbEntity
  8
0
100
AcDbBlockEnd
  0
BLOCK
  5
A4
330
A5
100
AcDbEntity
  8
0
100
AcDbBlockBegin
  2
KOZU0018
 70
     0
 10
0.0
 20
0.0
 30
0.0
  3
KOZU0018
  1

  0
LWPOLYLINE
  5
A6
330
A5
100
AcDbEntity
  8
0
  6
Continuous
 62
     7
100
AcDbPolyline
 90
        2
 70
     1
 43
0.3125
 10
-0.15625
 20
0.0
 42
1.0
 10
0.15625
 20
0.0
 42
1.0
  0
ENDBLK
  5
AA
330
A5
100
AcDbEntity
  8
0
100
AcDbBlockEnd
  0
BLOCK
  5
AB
330
AC
100
AcDbEntity
  8
0
100
AcDbBlockBegin
  2
KOZU0019
 70
     0
 10
0.0
 20
0.0
 30
0.0
  3
KOZU0019
  1

  0
LWPOLYLINE
  5
AD
330
AC
100
AcDbEntity
  8
0
  6
Continuous
 62
     7
100
AcDbPolyline
 90
        2
 70
     1
 43
0.3125
 10
-0.15625
 20
0.0
 42
1.0
 10
0.15625
 20
0.0
 42
1.0
  0
ENDBLK
  5
B1
330
AC
100
AcDbEntity
  8
0
100
AcDbBlockEnd
  0
BLOCK
  5
B2
330
B3
100
AcDbEntity
  8
0
100
AcDbBlockBegin
  2
KOZU0020
 70
     0
 10
0.0
 20
0.0
 30
0.0
  3
KOZU0020
  1

  0
LWPOLYLINE
  5
B4
330
B3
100
AcDbEntity
  8
0
  6
Continuous
 62
     7
100
AcDbPolyline
 90
        2
 70
     1
 43
0.3125
 10
-0.15625
 20
0.0
 42
1.0
 10
0.15625
 20
0.0
 42
1.0
  0
ENDBLK
  5
B8
330
B3
100
AcDbEntity
  8
0
100
AcDbBlockEnd
  0
BLOCK
  5
B9
330
BA
100
AcDbEntity
  8
0
100
AcDbBlockBegin
  2
KOZU0021
 70
     0
 10
0.0
 20
0.0
 30
0.0
  3
KOZU0021
  1

  0
LWPOLYLINE
  5
BB
330
BA
100
AcDbEntity
  8
0
  6
Continuous
 62
     7
100
AcDbPolyline
 90
        2
 70
     1
 43
0.3125
 10
-0.15625
 20
0.0
 42
1.0
 10
0.15625
 20
0.0
 42
1.0
  0
ENDBLK
  5
BF
330
BA
100
AcDbEntity
  8
0
100
AcDbBlockEnd
  0
BLOCK
  5
C0
330
C1
100
AcDbEntity
  8
0
100
AcDbBlockBegin
  2
KOZU0022
 70
     0
 10
0.0
 20
0.0
 30
0.0
  3
KOZU0022
  1

  0
LWPOLYLINE
  5
C2
330
C1
100
AcDbEntity
  8
0
  6
Continuous
 62
     7
100
AcDbPolyline
 90
        2
 70
     1
 43
0.3125
 10
-0.15625
 20
0.0
 42
1.0
 10
0.15625
 20
0.0
 42
1.0
  0
ENDBLK
  5
C6
330
C1
100
AcDbEntity
  8
0
100
AcDbBlockEnd
  0
BLOCK
  5
C7
330
C8
100
AcDbEntity
  8
0
100
AcDbBlockBegin
  2
KOZU0023
 70
     0
 10
0.0
 20
0.0
 30
0.0
  3
KOZU0023
  1

  0
LWPOLYLINE
  5
C9
330
C8
100
AcDbEntity
  8
0
  6
Continuous
 62
     7
100
AcDbPolyline
 90
        2
 70
     1
 43
0.3125
 10
-0.15625
 20
0.0
 42
1.0
 10
0.15625
 20
0.0
 42
1.0
  0
ENDBLK
  5
CD
330
C8
100
AcDbEntity
  8
0
100
AcDbBlockEnd
  0
BLOCK
  5
CE
330
CF
100
AcDbEntity
  8
0
100
AcDbBlockBegin
  2
KOZU0024
 70
     0
 10
0.0
 20
0.0
 30
0.0
  3
KOZU0024
  1

  0
LWPOLYLINE
  5
D0
330
CF
100
AcDbEntity
  8
0
  6
Continuous
 62
     7
100
AcDbPolyline
 90
        2
 70
     1
 43
0.3125
 10
-0.15625
 20
0.0
 42
1.0
 10
0.15625
 20
0.0
 42
1.0
  0
ENDBLK
  5
D4
330
CF
100
AcDbEntity
  8
0
100
AcDbBlockEnd
  0
BLOCK
  5
D5
330
D6
100
AcDbEntity
  8
0
100
AcDbBlockBegin
  2
KOZU0025
 70
     0
 10
0.0
 20
0.0
 30
0.0
  3
KOZU0025
  1

  0
LWPOLYLINE
  5
D7
330
D6
100
AcDbEntity
  8
0
  6
Continuous
 62
     7
100
AcDbPolyline
 90
        2
 70
     1
 43
0.3125
 10
-0.15625
 20
0.0
 42
1.0
 10
0.15625
 20
0.0
 42
1.0
  0
ENDBLK
  5
DB
330
D6
100
AcDbEntity
  8
0
100
AcDbBlockEnd
  0
BLOCK
  5
DC
330
DD
100
AcDbEntity
  8
0
100
AcDbBlockBegin
  2
KOZU0026
 70
     0
 10
0.0
 20
0.0
 30
0.0
  3
KOZU0026
  1

  0
LWPOLYLINE
  5
DE
330
DD
100
AcDbEntity
  8
0
  6
Continuous
 62
     7
100
AcDbPolyline
 90
        2
 70
     1
 43
0.3125
 10
-0.15625
 20
0.0
 42
1.0
 10
0.15625
 20
0.0
 42
1.0
  0
ENDBLK
  5
E2
330
DD
100
AcDbEntity
  8
0
100
AcDbBlockEnd
  0
BLOCK
  5
E3
330
E4
100
AcDbEntity
  8
0
100
AcDbBlockBegin
  2
KOZU0027
 70
     0
 10
0.0
 20
0.0
 30
0.0
  3
KOZU0027
  1

  0
LWPOLYLINE
  5
E5
330
E4
100
AcDbEntity
  8
0
  6
Continuous
 62
     7
100
AcDbPolyline
 90
        2
 70
     1
 43
0.3125
 10
-0.15625
 20
0.0
 42
1.0
 10
0.15625
 20
0.0
 42
1.0
  0
ENDBLK
  5
E9
330
E4
100
AcDbEntity
  8
0
100
AcDbBlockEnd
  0
BLOCK
  5
EA
330
EB
100
AcDbEntity
  8
0
100
AcDbBlockBegin
  2
KOZU0028
 70
     0
 10
0.0
 20
0.0
 30
0.0
  3
KOZU0028
  1

  0
LWPOLYLINE
  5
EC
330
EB
100
AcDbEntity
  8
0
  6
Continuous
 62
     7
100
AcDbPolyline
 90
        2
 70
     1
 43
0.3125
 10
-0.15625
 20
0.0
 42
1.0
 10
0.15625
 20
0.0
 42
1.0
  0
ENDBLK
  5
F0
330
EB
100
AcDbEntity
  8
0
100
AcDbBlockEnd
  0
BLOCK
  5
F1
330
F2
100
AcDbEntity
  8
0
100
AcDbBlockBegin
  2
KOZU0029
 70
     0
 10
0.0
 20
0.0
 30
0.0
  3
KOZU0029
  1

  0
LWPOLYLINE
  5
F3
330
F2
100
AcDbEntity
  8
0
  6
Continuous
 62
     7
100
AcDbPolyline
 90
        2
 70
     1
 43
0.3125
 10
-0.15625
 20
0.0
 42
1.0
 10
0.15625
 20
0.0
 42
1.0
  0
ENDBLK
  5
F7
330
F2
100
AcDbEntity
  8
0
100
AcDbBlockEnd
  0
BLOCK
  5
F8
330
F9
100
AcDbEntity
  8
0
100
AcDbBlockBegin
  2
KOZU0030
 70
     0
 10
0.0
 20
0.0
 30
0.0
  3
KOZU0030
  1

  0
LWPOLYLINE
  5
FA
330
F9
100
AcDbEntity
  8
0
  6
Continuous
 62
     7
100
AcDbPolyline
 90
        2
 70
     1
 43
0.3125
 10
-0.15625
 20
0.0
 42
1.0
 10
0.15625
 20
0.0
 42
1.0
  0
ENDBLK
  5
FE
330
F9
100
AcDbEntity
  8
0
100
AcDbBlockEnd
  0
BLOCK
  5
FF
330
100
100
AcDbEntity
  8
0
100
AcDbBlockBegin
  2
KOZU0031
 70
     0
 10
0.0
 20
0.0
 30
0.0
  3
KOZU0031
  1

  0
LWPOLYLINE
  5
101
330
100
100
AcDbEntity
  8
0
  6
Continuous
 62
     7
100
AcDbPolyline
 90
        2
 70
     1
 43
0.3125
 10
-0.15625
 20
0.0
 42
1.0
 10
0.15625
 20
0.0
 42
1.0
  0
ENDBLK
  5
105
330
100
100
AcDbEntity
  8
0
100
AcDbBlockEnd
  0
BLOCK
  5
106
330
107
100
AcDbEntity
  8
0
100
AcDbBlockBegin
  2
KOZU0032
 70
     0
 10
0.0
 20
0.0
 30
0.0
  3
KOZU0032
  1

  0
LWPOLYLINE
  5
108
330
107
100
AcDbEntity
  8
0
  6
Continuous
 62
     7
100
AcDbPolyline
 90
        2
 70
     1
 43
0.3125
 10
-0.15625
 20
0.0
 42
1.0
 10
0.15625
 20
0.0
 42
1.0
  0
ENDBLK
  5
10C
330
107
100
AcDbEntity
  8
0
100
AcDbBlockEnd
  0
BLOCK
  5
10D
330
10E
100
AcDbEntity
  8
0
100
AcDbBlockBegin
  2
KOZU0033
 70
     0
 10
0.0
 20
0.0
 30
0.0
  3
KOZU0033
  1

  0
LWPOLYLINE
  5
10F
330
10E
100
AcDbEntity
  8
0
  6
Continuous
 62
     7
100
AcDbPolyline
 90
        2
 70
     1
 43
0.3125
 10
-0.15625
 20
0.0
 42
1.0
 10
0.15625
 20
0.0
 42
1.0
  0
ENDBLK
  5
113
330
10E
100
AcDbEntity
  8
0
100
AcDbBlockEnd
  0
BLOCK
  5
114
330
115
100
AcDbEntity
  8
0
100
AcDbBlockBegin
  2
KOZU0034
 70
     0
 10
0.0
 20
0.0
 30
0.0
  3
KOZU0034
  1

  0
LWPOLYLINE
  5
116
330
115
100
AcDbEntity
  8
0
  6
Continuous
 62
     7
100
AcDbPolyline
 90
        2
 70
     1
 43
0.3125
 10
-0.15625
 20
0.0
 42
1.0
 10
0.15625
 20
0.0
 42
1.0
  0
ENDBLK
  5
11A
330
115
100
AcDbEntity
  8
0
100
AcDbBlockEnd
  0
BLOCK
  5
11B
330
11C
100
AcDbEntity
  8
0
100
AcDbBlockBegin
  2
KOZU0035
 70
     0
 10
0.0
 20
0.0
 30
0.0
  3
KOZU0035
  1

  0
LWPOLYLINE
  5
11D
330
11C
100
AcDbEntity
  8
0
  6
Continuous
 62
     7
100
AcDbPolyline
 90
        2
 70
     1
 43
0.3125
 10
-0.15625
 20
0.0
 42
1.0
 10
0.15625
 20
0.0
 42
1.0
  0
ENDBLK
  5
121
330
11C
100
AcDbEntity
  8
0
100
AcDbBlockEnd
  0
BLOCK
  5
122
330
123
100
AcDbEntity
  8
0
100
AcDbBlockBegin
  2
KOZU0036
 70
     0
 10
0.0
 20
0.0
 30
0.0
  3
KOZU0036
  1

  0
LWPOLYLINE
  5
124
330
123
100
AcDbEntity
  8
0
  6
Continuous
 62
     7
100
AcDbPolyline
 90
        2
 70
     1
 43
0.3125
 10
-0.15625
 20
0.0
 42
1.0
 10
0.15625
 20
0.0
 42
1.0
  0
ENDBLK
  5
128
330
123
100
AcDbEntity
  8
0
100
AcDbBlockEnd
  0
BLOCK
  5
129
330
12A
100
AcDbEntity
  8
0
100
AcDbBlockBegin
  2
KOZU0037
 70
     0
 10
0.0
 20
0.0
 30
0.0
  3
KOZU0037
  1

  0
LWPOLYLINE
  5
12B
330
12A
100
AcDbEntity
  8
0
  6
Continuous
 62
     7
100
AcDbPolyline
 90
        2
 70
     1
 43
0.40000001
 10
-0.2
 20
0.0
 42
1.0
 10
0.2
 20
0.0
 42
1.0
  0
ENDBLK
  5
12F
330
12A
100
AcDbEntity
  8
0
100
AcDbBlockEnd
  0
BLOCK
  5
130
330
131
100
AcDbEntity
  8
0
100
AcDbBlockBegin
  2
KOZU0038
 70
     0
 10
0.0
 20
0.0
 30
0.0
  3
KOZU0038
  1

  0
LWPOLYLINE
  5
132
330
131
100
AcDbEntity
  8
0
  6
Continuous
 62
     7
100
AcDbPolyline
 90
        2
 70
     1
 43
0.40000001
 10
-0.2
 20
0.0
 42
1.0
 10
0.2
 20
0.0
 42
1.0
  0
ENDBLK
  5
136
330
131
100
AcDbEntity
  8
0
100
AcDbBlockEnd
  0
BLOCK
  5
137
330
138
100
AcDbEntity
  8
0
100
AcDbBlockBegin
  2
KOZU0039
 70
     0
 10
0.0
 20
0.0
 30
0.0
  3
KOZU0039
  1

  0
LWPOLYLINE
  5
139
330
138
100
AcDbEntity
  8
0
  6
Continuous
 62
     7
100
AcDbPolyline
 90
        2
 70
     1
 43
0.40000001
 10
-0.2
 20
0.0
 42
1.0
 10
0.2
 20
0.0
 42
1.0
  0
ENDBLK
  5
13D
330
138
100
AcDbEntity
  8
0
100
AcDbBlockEnd
  0
BLOCK
  5
13E
330
13F
100
AcDbEntity
  8
0
100
AcDbBlockBegin
  2
KOZU0040
 70
     0
 10
0.0
 20
0.0
 30
0.0
  3
KOZU0040
  1

  0
LWPOLYLINE
  5
140
330
13F
100
AcDbEntity
  8
0
  6
Continuous
 62
     7
100
AcDbPolyline
 90
        2
 70
     1
 43
0.40000001
 10
-0.2
 20
0.0
 42
1.0
 10
0.2
 20
0.0
 42
1.0
  0
ENDBLK
  5
144
330
13F
100
AcDbEntity
  8
0
100
AcDbBlockEnd
  0
BLOCK
  5
145
330
146
100
AcDbEntity
  8
0
100
AcDbBlockBegin
  2
KOZU0041
 70
     0
 10
0.0
 20
0.0
 30
0.0
  3
KOZU0041
  1

  0
ENDBLK
  5
147
330
146
100
AcDbEntity
  8
0
100
AcDbBlockEnd
  0
BLOCK
  5
2DB
330
2DA
100
AcDbEntity
  8
0
100
AcDbBlockBegin
  2
_ACMFILLEDHALF
 70
     0
 10
0.0
 20
0.0
 30
0.0
  3
_ACMFILLEDHALF
  1

  0
TRACE
  5
2DC
330
2DA
100
AcDbEntity
  8
0
 62
     0
100
AcDbTrace
 10
-0.8
 20
0.0
 30
0.0
 11
-1.0
 21
0.166666666
 31
0.0
 12
0.0
 22
0.0
 32
0.0
 13
0.0
 23
0.0
 33
0.0
  0
LINE
  5
2DD
330
2DA
100
AcDbEntity
  8
0
 62
     0
100
AcDbLine
 10
-1.0
 20
0.0
 30
0.0
 11
-0.8
 21
0.0
 31
0.0
  0
ENDBLK
  5
2DE
330
2DA
100
AcDbEntity
  8
0
100
AcDbBlockEnd
  0
BLOCK
  5
310
330
30F
100
AcDbEntity
  8
0
100
AcDbBlockBegin
  2
GENAXEH
 70
     0
 10
0.0
 20
0.0
 30
0.0
  3
GENAXEH
  1

  0
LINE
  5
311
330
30F
100
AcDbEntity
  8
0
100
AcDbLine
 10
-1.0
 20
0.0
 30
0.0
 11
1.0
 21
0.0
 31
0.0
  0
ENDBLK
  5
312
330
30F
100
AcDbEntity
  8
0
100
AcDbBlockEnd
  0
ENDSEC
  0
SECTION
  2
ENTITIES
  0
LINE
  5
148
330
1D
100
AcDbEntity
  8
0
  6
Continuous
 62
     7
100
AcDbLine
 10
167.70105
 20
182.95929
 30
0.0
 11
587.70105
 21
182.95929
 31
0.0
  0
LINE
  5
149
330
1D
100
AcDbEntity
  8
0
  6
Continuous
 62
     7
100
AcDbLine
 10
167.70105
 20
479.95929
 30
0.0
 11
167.70105
 21
182.95929
 31
0.0
  0
LINE
  5
14A
330
1D
100
AcDbEntity
  8
0
  6
Continuous
 62
     7
100
AcDbLine
 10
568.20105
 20
194.95929
 30
0.0
 11
568.20105
 21
467.95929
 31
0.0
  0
LINE
  5
14B
330
1D
100
AcDbEntity
  8
0
  6
Continuous
 62
     7
100
AcDbLine
 10
187.20105
 20
371.95929
 30
0.0
 11
187.20105
 21
195.70929
 31
0.0
  0
LINE
  5
14C
330
1D
100
AcDbEntity
  8
0
  6
Continuous
 62
     7
100
AcDbLine
 10
568.20105
 20
467.95929
 30
0.0
 11
297.20105
 21
467.95929
 31
0.0
  0
LINE
  5
14D
330
1D
100
AcDbEntity
  8
0
  6
Continuous
 62
     7
100
AcDbLine
 10
187.20105
 20
194.95929
 30
0.0
 11
568.20105
 21
194.95929
 31
0.0
  0
LINE
  5
14E
330
1D
100
AcDbEntity
  8
0
  6
Continuous
 62
     7
100
AcDbLine
 10
587.70105
 20
479.95929
 30
0.0
 11
587.70105
 21
182.95929
 31
0.0
  0
LINE
  5
14F
330
1D
100
AcDbEntity
  8
0
  6
Continuous
 62
     7
100
AcDbLine
 10
167.70105
 20
479.95929
 30
0.0
 11
587.70105
 21
479.95929
 31
0.0
  0
LINE
  5
150
330
1D
100
AcDbEntity
  8
0
  6
Continuous
 62
     7
100
AcDbLine
 10
187.20105
 20
467.95929
 30
0.0
 11
297.20105
 21
467.95929
 31
0.0
  0
LINE
  5
151
330
1D
100
AcDbEntity
  8
0
  6
Continuous
 62
     7
100
AcDbLine
 10
187.20105
 20
467.95929
 30
0.0
 11
187.20105
 21
371.95929
 31
0.0
  0
LINE
  5
152
330
1D
100
AcDbEntity
  8
0
  6
Continuous
 62
     7
100
AcDbLine
 10
207.20105
 20
467.95929
 30
0.0
 11
207.20105
 21
371.95929
 31
0.0
  0
LINE
  5
153
330
1D
100
AcDbEntity
  8
0
  6
Continuous
 62
     7
100
AcDbLine
 10
187.20105
 20
459.95929
 30
0.0
 11
297.20105
 21
459.95929
 31
0.0
  0
LINE
  5
154
330
1D
100
AcDbEntity
  8
0
  6
Continuous
 62
     7
100
AcDbLine
 10
187.20105
 20
451.95929
 30
0.0
 11
297.20105
 21
451.95929
 31
0.0
  0
LINE
  5
155
330
1D
100
AcDbEntity
  8
0
  6
Continuous
 62
     7
100
AcDbLine
 10
187.20105
 20
443.95929
 30
0.0
 11
297.20105
 21
443.95929
 31
0.0
  0
LINE
  5
156
330
1D
100
AcDbEntity
  8
0
  6
Continuous
 62
     7
100
AcDbLine
 10
187.20105
 20
435.95929
 30
0.0
 11
297.20105
 21
435.95929
 31
0.0
  0
LINE
  5
157
330
1D
100
AcDbEntity
  8
0
  6
Continuous
 62
     7
100
AcDbLine
 10
207.20105
 20
411.95929
 30
0.0
 11
297.20105
 21
411.95929
 31
0.0
  0
LINE
  5
158
330
1D
100
AcDbEntity
  8
0
  6
Continuous
 62
     7
100
AcDbLine
 10
207.20105
 20
403.95929
 30
0.0
 11
297.20105
 21
403.95929
 31
0.0
  0
LINE
  5
159
330
1D
100
AcDbEntity
  8
0
  6
Continuous
 62
     7
100
AcDbLine
 10
187.20105
 20
395.95929
 30
0.0
 11
297.20105
 21
395.95929
 31
0.0
  0
LINE
  5
15A
330
1D
100
AcDbEntity
  8
0
  6
Continuous
 62
     7
100
AcDbLine
 10
207.20105
 20
387.95929
 30
0.0
 11
297.20105
 21
387.95929
 31
0.0
  0
LINE
  5
15B
330
1D
100
AcDbEntity
  8
0
  6
Continuous
 62
     7
100
AcDbLine
 10
207.20105
 20
379.95929
 30
0.0
 11
297.20105
 21
379.95929
 31
0.0
  0
LINE
  5
15C
330
1D
100
AcDbEntity
  8
0
  6
Continuous
 62
     7
100
AcDbLine
 10
187.20105
 20
371.95929
 30
0.0
 11
297.20105
 21
371.95929
 31
0.0
  0
LINE
  5
15D
330
1D
100
AcDbEntity
  8
0
  6
Continuous
 62
     7
100
AcDbLine
 10
187.20105
 20
467.95929
 30
0.0
 11
187.20105
 21
371.95929
 31
0.0
  0
LINE
  5
15E
330
1D
100
AcDbEntity
  8
0
  6
Continuous
 62
     7
100
AcDbLine
 10
187.20105
 20
467.95929
 30
0.0
 11
297.20105
 21
467.95929
 31
0.0
  0
LINE
  5
15F
330
1D
100
AcDbEntity
  8
0
  6
Continuous
 62
     7
100
AcDbLine
 10
297.20105
 20
467.95929
 30
0.0
 11
297.20105
 21
371.95929
 31
0.0
  0
LINE
  5
160
330
1D
100
AcDbEntity
  8
0
  6
Continuous
 62
     7
100
AcDbLine
 10
187.20105
 20
427.95929
 30
0.0
 11
297.20105
 21
427.95929
 31
0.0
  0
LINE
  5
161
330
1D
100
AcDbEntity
  8
0
  6
Continuous
 62
     7
100
AcDbLine
 10
187.20105
 20
419.95929
 30
0.0
 11
297.20105
 21
419.95929
 31
0.0
  0
LINE
  5
162
330
1D
100
AcDbEntity
  8
0
  6
Continuous
 62
     7
100
AcDbLine
 10
207.20105
 20
411.95929
 30
0.0
 11
297.20105
 21
411.95929
 31
0.0
  0
LINE
  5
163
330
1D
100
AcDbEntity
  8
0
  6
DASHED
 62
     1
100
AcDbLine
 10
11500.007
 20
254340.06
 30
0.0
 11
11500.007
 21
-253659.94
 31
0.0
  0
LINE
  5
164
330
1D
100
AcDbEntity
  8
0
  6
Continuous
 62
     3
100
AcDbLine
 10
371.83969
 20
277.47934
 30
0.0
 11
452.33969
 21
277.47934
 31
0.0
  0
LINE
  5
165
330
1D
100
AcDbEntity
  8
0
  6
Continuous
 62
     3
100
AcDbLine
 10
371.83969
 20
237.47934
 30
0.0
 11
452.33969
 21
237.47934
 31
0.0
  0
LINE
  5
166
330
1D
100
AcDbEntity
  8
0
  6
Continuous
 62
     3
100
AcDbLine
 10
451.33969
 20
277.47934
 30
0.0
 11
451.33969
 21
237.47934
 31
0.0
  0
LINE
  5
167
330
1D
100
AcDbEntity
  8
0
  6
Continuous
 62
     3
100
AcDbLine
 10
369.33969
 20
282.47934
 30
0.0
 11
452.33969
 21
282.47934
 31
0.0
  0
LINE
  5
168
330
1D
100
AcDbEntity
  8
0
  6
Continuous
 62
     3
100
AcDbLine
 10
371.83969
 20
277.47934
 30
0.0
 11
452.33969
 21
277.47934
 31
0.0
  0
LINE
  5
169
330
1D
100
AcDbEntity
  8
0
  6
Continuous
 62
     3
100
AcDbLine
 10
451.33969
 20
282.47934
 30
0.0
 11
451.33969
 21
277.47934
 31
0.0
  0
LINE
  5
16A
330
1D
100
AcDbEntity
  8
0
  6
Continuous
 62
     3
100
AcDbLine
 10
433.18549
 20
400.85269
 30
0.0
 11
458.18549
 21
400.85269
 31
0.0
  0
LINE
  5
16B
330
1D
100
AcDbEntity
  8
0
  6
Continuous
 62
     3
100
AcDbLine
 10
369.33969
 20
384.85269
 30
0.0
 11
458.18549
 21
384.85269
 31
0.0
  0
LINE
  5
16C
330
1D
100
AcDbEntity
  8
0
  6
Continuous
 62
     3
100
AcDbLine
 10
457.18549
 20
400.85269
 30
0.0
 11
457.18549
 21
384.85269
 31
0.0
  0
LINE
  5
16D
330
1D
100
AcDbEntity
  8
0
  6
Continuous
 62
     3
100
AcDbLine
 10
433.18549
 20
400.85269
 30
0.0
 11
448.18549
 21
400.85269
 31
0.0
  0
LINE
  5
16E
330
1D
100
AcDbEntity
  8
0
  6
Continuous
 62
     3
100
AcDbLine
 10
417.33969
 20
398.85269
 30
0.0
 11
448.18549
 21
398.85269
 31
0.0
  0
LINE
  5
16F
330
1D
100
AcDbEntity
  8
0
  6
Continuous
 62
     3
100
AcDbLine
 10
447.18549
 20
400.85269
 30
0.0
 11
447.18549
 21
403.35269
 31
0.0
  0
LINE
  5
170
330
1D
100
AcDbEntity
  8
0
  6
Continuous
 62
     3
100
AcDbLine
 10
447.18549
 20
398.85269
 30
0.0
 11
447.18549
 21
396.35269
 31
0.0
  0
LINE
  5
171
330
1D
100
AcDbEntity
  8
0
  6
Continuous
 62
     3
100
AcDbLine
 10
447.18549
 20
399.85266
 30
0.0
 11
454.4082
 21
406.90161
 31
0.0
  0
LINE
  5
172
330
1D
100
AcDbEntity
  8
0
  6
Continuous
 62
     3
100
AcDbLine
 10
454.40823
 20
406.90161
 30
0.0
 11
454.40823
 21
411.45505
 31
0.0
  0
LINE
  5
173
330
1D
100
AcDbEntity
  8
0
  6
Continuous
 62
     3
100
AcDbLine
 10
447.18549
 20
400.85269
 30
0.0
 11
447.18549
 21
398.85269
 31
0.0
  0
LINE
  5
174
330
1D
100
AcDbEntity
  8
0
  6
Continuous
 62
     3
100
AcDbLine
 10
447.18549
 20
400.85269
 30
0.0
 11
447.18549
 21
398.85269
 31
0.0
  0
LINE
  5
175
330
1D
100
AcDbEntity
  8
0
  6
Continuous
 62
     3
100
AcDbLine
 10
417.33969
 20
267.47934
 30
0.0
 11
442.33969
 21
267.47934
 31
0.0
  0
LINE
  5
176
330
1D
100
AcDbEntity
  8
0
  6
Continuous
 62
     3
100
AcDbLine
 10
417.33969
 20
247.47934
 30
0.0
 11
442.33969
 21
247.47934
 31
0.0
  0
LINE
  5
177
330
1D
100
AcDbEntity
  8
0
  6
Continuous
 62
     3
100
AcDbLine
 10
441.33969
 20
267.47934
 30
0.0
 11
441.33969
 21
247.47934
 31
0.0
  0
LINE
  5
178
330
1D
100
AcDbEntity
  8
0
  6
Continuous
 62
     3
100
AcDbLine
 10
417.33969
 20
267.47934
 30
0.0
 11
432.33969
 21
267.47934
 31
0.0
  0
LINE
  5
179
330
1D
100
AcDbEntity
  8
0
  6
Continuous
 62
     3
100
AcDbLine
 10
417.33969
 20
262.47934
 30
0.0
 11
432.33969
 21
262.47934
 31
0.0
  0
LINE
  5
17A
330
1D
100
AcDbEntity
  8
0
  6
Continuous
 62
     3
100
AcDbLine
 10
431.33969
 20
267.47934
 30
0.0
 11
431.33969
 21
262.47934
 31
0.0
  0
LINE
  5
17B
330
1D
100
AcDbEntity
  8
0
  6
CENTER
 62
     4
100
AcDbLine
 10
411.33969
 20
270.47934
 30
0.0
 11
411.33969
 21
244.47934
 31
0.0
  0
LINE
  5
17C
330
1D
100
AcDbEntity
  8
0
  6
CENTER
 62
     4
100
AcDbLine
 10
376.33969
 20
270.47934
 30
0.0
 11
376.33969
 21
244.47934
 31
0.0
  0
LINE
  5
17D
330
1D
100
AcDbEntity
  8
0
  6
Continuous
 62
     3
100
AcDbLine
 10
417.33969
 20
247.47934
 30
0.0
 11
442.33969
 21
247.47934
 31
0.0
  0
LINE
  5
17E
330
1D
100
AcDbEntity
  8
0
  6
Continuous
 62
     3
100
AcDbLine
 10
369.33969
 20
232.47934
 30
0.0
 11
442.33969
 21
232.47934
 31
0.0
  0
LINE
  5
17F
330
1D
100
AcDbEntity
  8
0
  6
Continuous
 62
     3
100
AcDbLine
 10
441.33969
 20
247.47934
 30
0.0
 11
441.33969
 21
232.47934
 31
0.0
  0
LINE
  5
180
330
1D
100
AcDbEntity
  8
0
  6
CENTER
 62
     4
100
AcDbLine
 10
345.33969
 20
257.47934
 30
0.0
 11
419.33969
 21
257.47934
 31
0.0
  0
LINE
  5
181
330
1D
100
AcDbEntity
  8
0
  6
CENTER
 62
     4
100
AcDbLine
 10
376.33969
 20
252.47934
 30
0.0
 11
382.53967
 21
252.47934
 31
0.0
  0
LINE
  5
182
330
1D
100
AcDbEntity
  8
0
  6
CENTER
 62
     4
100
AcDbLine
 10
376.33969
 20
262.47934
 30
0.0
 11
382.53967
 21
262.47934
 31
0.0
  0
LINE
  5
183
330
1D
100
AcDbEntity
  8
0
  6
CENTER
 62
     4
100
AcDbLine
 10
376.33969
 20
252.47934
 30
0.0
 11
370.83969
 21
252.47934
 31
0.0
  0
LINE
  5
184
330
1D
100
AcDbEntity
  8
0
  6
CENTER
 62
     4
100
AcDbLine
 10
376.33969
 20
262.47934
 30
0.0
 11
370.83969
 21
262.47934
 31
0.0
  0
LINE
  5
185
330
1D
100
AcDbEntity
  8
0
  6
Continuous
 62
     3
100
AcDbLine
 10
417.33969
 20
252.47934
 30
0.0
 11
432.33969
 21
252.47934
 31
0.0
  0
LINE
  5
186
330
1D
100
AcDbEntity
  8
0
  6
Continuous
 62
     3
100
AcDbLine
 10
417.33969
 20
247.47934
 30
0.0
 11
432.33969
 21
247.47934
 31
0.0
  0
LINE
  5
187
330
1D
100
AcDbEntity
  8
0
  6
Continuous
 62
     3
100
AcDbLine
 10
431.33969
 20
252.47934
 30
0.0
 11
431.33969
 21
247.47934
 31
0.0
  0
LINE
  5
188
330
1D
100
AcDbEntity
  8
0
  6
Continuous
 62
     3
100
AcDbLine
 10
417.33969
 20
262.47934
 30
0.0
 11
432.33969
 21
262.47934
 31
0.0
  0
LINE
  5
189
330
1D
100
AcDbEntity
  8
0
  6
Continuous
 62
     3
100
AcDbLine
 10
417.33969
 20
252.47934
 30
0.0
 11
432.33969
 21
252.47934
 31
0.0
  0
LINE
  5
18A
330
1D
100
AcDbEntity
  8
0
  6
Continuous
 62
     3
100
AcDbLine
 10
431.33969
 20
259.97934
 30
0.0
 11
431.33969
 21
254.97934
 31
0.0
  0
LINE
  5
18B
330
1D
100
AcDbEntity
  8
0
  6
Continuous
 62
     7
100
AcDbLine
 10
431.33969
 20
262.47934
 30
0.0
 11
431.33969
 21
259.97934
 31
0.0
  0
LINE
  5
18C
330
1D
100
AcDbEntity
  8
0
  6
Continuous
 62
     7
100
AcDbLine
 10
431.33969
 20
252.47934
 30
0.0
 11
431.33969
 21
254.97934
 31
0.0
  0
LINE
  5
18D
330
1D
100
AcDbEntity
  8
0
  6
CENTER
 62
     4
100
AcDbLine
 10
411.33969
 20
252.47934
 30
0.0
 11
405.13968
 21
252.47934
 31
0.0
  0
LINE
  5
18E
330
1D
100
AcDbEntity
  8
0
  6
CENTER
 62
     4
100
AcDbLine
 10
411.33969
 20
262.47934
 30
0.0
 11
405.13968
 21
262.47934
 31
0.0
  0
LINE
  5
18F
330
1D
100
AcDbEntity
  8
0
  6
CENTER
 62
     4
100
AcDbLine
 10
411.33969
 20
252.47934
 30
0.0
 11
416.33969
 21
252.47934
 31
0.0
  0
LINE
  5
190
330
1D
100
AcDbEntity
  8
0
  6
CENTER
 62
     4
100
AcDbLine
 10
411.33969
 20
262.47934
 30
0.0
 11
416.33969
 21
262.47934
 31
0.0
  0
LINE
  5
191
330
1D
100
AcDbEntity
  8
0
  6
Continuous
 62
     3
100
AcDbLine
 10
433.33209
 20
341.74979
 30
0.0
 11
421.14041
 21
341.74979
 31
0.0
  0
LINE
  5
192
330
1D
100
AcDbEntity
  8
0
  6
Continuous
 62
     3
100
AcDbLine
 10
421.14041
 20
341.74979
 30
0.0
 11
412.15839
 21
341.74979
 31
0.0
  0
LINE
  5
193
330
1D
100
AcDbEntity
  8
0
  6
Continuous
 62
     3
100
AcDbLine
 10
412.15842
 20
341.74976
 30
0.0
 11
394.46603
 21
366.70508
 31
0.0
  0
LINE
  5
194
330
1D
100
AcDbEntity
  8
0
  6
CENTER
 62
     4
100
AcDbLine
 10
411.30957
 20
362.56677
 30
0.0
 11
411.30957
 21
395.96396
 31
0.0
  0
LINE
  5
195
330
1D
100
AcDbEntity
  8
0
  6
CENTER
 62
     4
100
AcDbLine
 10
374.50958
 20
395.96396
 30
0.0
 11
374.50958
 21
362.56677
 31
0.0
  0
LINE
  5
196
330
1D
100
AcDbEntity
  8
0
  6
CENTER
 62
     4
100
AcDbLine
 10
412.90958
 20
362.56677
 30
0.0
 11
412.90958
 21
395.56396
 31
0.0
  0
LINE
  5
197
330
1D
100
AcDbEntity
  8
0
  6
CENTER
 62
     4
100
AcDbLine
 10
372.90958
 20
395.56396
 30
0.0
 11
372.90958
 21
362.56677
 31
0.0
  0
LINE
  5
198
330
1D
100
AcDbEntity
  8
0
  6
Continuous
 62
     3
100
AcDbLine
 10
369.33969
 20
282.47934
 30
0.0
 11
442.33969
 21
282.47934
 31
0.0
  0
LINE
  5
199
330
1D
100
AcDbEntity
  8
0
  6
Continuous
 62
     3
100
AcDbLine
 10
417.33969
 20
267.47934
 30
0.0
 11
442.33969
 21
267.47934
 31
0.0
  0
LINE
  5
19A
330
1D
100
AcDbEntity
  8
0
  6
Continuous
 62
     3
100
AcDbLine
 10
441.33969
 20
282.47934
 30
0.0
 11
441.33969
 21
267.47934
 31
0.0
  0
LINE
  5
19B
330
1D
100
AcDbEntity
  8
0
  6
Continuous
 62
     3
100
AcDbLine
 10
368.33969
 20
283.47934
 30
0.0
 11
368.33969
 21
313.47934
 31
0.0
  0
LINE
  5
19C
330
1D
100
AcDbEntity
  8
0
  6
Continuous
 62
     3
100
AcDbLine
 10
416.33969
 20
268.47934
 30
0.0
 11
416.33969
 21
313.47934
 31
0.0
  0
LINE
  5
19D
330
1D
100
AcDbEntity
  8
0
  6
Continuous
 62
     3
100
AcDbLine
 10
368.33969
 20
312.47934
 30
0.0
 11
416.33969
 21
312.47934
 31
0.0
  0
LINE
  5
19E
330
1D
100
AcDbEntity
  8
0
  6
Continuous
 62
     3
100
AcDbLine
 10
376.33969
 20
271.47934
 30
0.0
 11
376.33969
 21
303.47934
 31
0.0
  0
LINE
  5
19F
330
1D
100
AcDbEntity
  8
0
  6
Continuous
 62
     3
100
AcDbLine
 10
411.33969
 20
271.47934
 30
0.0
 11
411.33969
 21
303.47934
 31
0.0
  0
LINE
  5
1A0
330
1D
100
AcDbEntity
  8
0
  6
Continuous
 62
     3
100
AcDbLine
 10
376.33969
 20
302.47934
 30
0.0
 11
411.33969
 21
302.47934
 31
0.0
  0
LINE
  5
1A1
330
1D
100
AcDbEntity
  8
0
  6
Continuous
 62
     3
100
AcDbLine
 10
348.33969
 20
283.47934
 30
0.0
 11
348.33969
 21
313.47934
 31
0.0
  0
LINE
  5
1A2
330
1D
100
AcDbEntity
  8
0
  6
Continuous
 62
     3
100
AcDbLine
 10
368.33969
 20
283.47934
 30
0.0
 11
368.33969
 21
313.47934
 31
0.0
  0
LINE
  5
1A3
330
1D
100
AcDbEntity
  8
0
  6
Continuous
 62
     3
100
AcDbLine
 10
348.33969
 20
312.47934
 30
0.0
 11
368.33969
 21
312.47934
 31
0.0
  0
LINE
  5
1A4
330
1D
100
AcDbEntity
  8
0
  6
Continuous
 62
     3
100
AcDbLine
 10
368.33969
 20
283.47934
 30
0.0
 11
368.33969
 21
303.47934
 31
0.0
  0
LINE
  5
1A5
330
1D
100
AcDbEntity
  8
0
  6
Continuous
 62
     3
100
AcDbLine
 10
376.33969
 20
271.47934
 30
0.0
 11
376.33969
 21
303.47934
 31
0.0
  0
LINE
  5
1A6
330
1D
100
AcDbEntity
  8
0
  6
Continuous
 62
     3
100
AcDbLine
 10
368.33969
 20
302.47934
 30
0.0
 11
376.33969
 21
302.47934
 31
0.0
  0
LINE
  5
1A7
330
1D
100
AcDbEntity
  8
0
  6
Continuous
 62
     3
100
AcDbLine
 10
368.33969
 20
283.47934
 30
0.0
 11
368.33969
 21
293.48871
 31
0.0
  0
LINE
  5
1A8
330
1D
100
AcDbEntity
  8
0
  6
Continuous
 62
     3
100
AcDbLine
 10
370.83969
 20
278.47934
 30
0.0
 11
370.83969
 21
293.48871
 31
0.0
  0
LINE
  5
1A9
330
1D
100
AcDbEntity
  8
0
  6
Continuous
 62
     3
100
AcDbLine
 10
370.83969
 20
292.48871
 30
0.0
 11
373.33969
 21
292.48871
 31
0.0
  0
LINE
  5
1AA
330
1D
100
AcDbEntity
  8
0
  6
Continuous
 62
     3
100
AcDbLine
 10
368.33969
 20
292.48871
 30
0.0
 11
355.64587
 21
292.48871
 31
0.0
  0
LINE
  5
1AB
330
1D
100
AcDbEntity
  8
0
  6
Continuous
 62
     3
100
AcDbLine
 10
370.83969
 20
292.48871
 30
0.0
 11
368.33969
 21
292.48871
 31
0.0
  0
LINE
  5
1AC
330
1D
100
AcDbEntity
  8
0
  6
Continuous
 62
     3
100
AcDbLine
 10
411.33969
 20
271.47934
 30
0.0
 11
411.33969
 21
303.47934
 31
0.0
  0
LINE
  5
1AD
330
1D
100
AcDbEntity
  8
0
  6
Continuous
 62
     3
100
AcDbLine
 10
416.33969
 20
268.47934
 30
0.0
 11
416.33969
 21
303.47934
 31
0.0
  0
LINE
  5
1AE
330
1D
100
AcDbEntity
  8
0
  6
Continuous
 62
     3
100
AcDbLine
 10
411.33969
 20
302.47934
 30
0.0
 11
416.33969
 21
302.47934
 31
0.0
  0
LINE
  5
1AF
330
1D
100
AcDbEntity
  8
0
  6
CENTER
 62
     4
100
AcDbLine
 10
360.63968
 20
403.15268
 30
0.0
 11
429.8855
 21
403.15268
 31
0.0
  0
LINE
  5
1B0
330
1D
100
AcDbEntity
  8
0
  6
CENTER
 62
     4
100
AcDbLine
 10
411.30957
 20
395.96396
 30
0.0
 11
374.50958
 21
395.96396
 31
0.0
  0
LINE
  5
1B1
330
1D
100
AcDbEntity
  8
0
  6
Continuous
 62
     3
100
AcDbLine
 10
371.83969
 20
388.85269
 30
0.0
 11
448.18549
 21
388.85269
 31
0.0
  0
LINE
  5
1B2
330
1D
100
AcDbEntity
  8
0
  6
Continuous
 62
     3
100
AcDbLine
 10
369.33969
 20
384.85269
 30
0.0
 11
448.18549
 21
384.85269
 31
0.0
  0
LINE
  5
1B3
330
1D
100
AcDbEntity
  8
0
  6
Continuous
 62
     3
100
AcDbLine
 10
447.18549
 20
388.85269
 30
0.0
 11
447.18549
 21
384.85269
 31
0.0
  0
LINE
  5
1B4
330
1D
100
AcDbEntity
  8
0
  6
Continuous
 62
     3
100
AcDbLine
 10
447.18549
 20
384.85269
 30
0.0
 11
447.18549
 21
377.75269
 31
0.0
  0
LINE
  5
1B5
330
1D
100
AcDbEntity
  8
0
  6
Continuous
 62
     3
100
AcDbLine
 10
371.83969
 20
394.85269
 30
0.0
 11
448.18549
 21
394.85269
 31
0.0
  0
LINE
  5
1B6
330
1D
100
AcDbEntity
  8
0
  6
Continuous
 62
     3
100
AcDbLine
 10
371.83969
 20
388.85269
 30
0.0
 11
448.18549
 21
388.85269
 31
0.0
  0
LINE
  5
1B7
330
1D
100
AcDbEntity
  8
0
  6
Continuous
 62
     3
100
AcDbLine
 10
447.18549
 20
394.85269
 30
0.0
 11
447.18549
 21
388.85269
 31
0.0
  0
LINE
  5
1B8
330
1D
100
AcDbEntity
  8
0
  6
Continuous
 62
     3
100
AcDbLine
 10
371.83969
 20
394.85269
 30
0.0
 11
448.18549
 21
394.85269
 31
0.0
  0
LINE
  5
1B9
330
1D
100
AcDbEntity
  8
0
  6
Continuous
 62
     3
100
AcDbLine
 10
417.33969
 20
398.85269
 30
0.0
 11
448.18549
 21
398.85269
 31
0.0
  0
LINE
  5
1BA
330
1D
100
AcDbEntity
  8
0
  6
Continuous
 62
     3
100
AcDbLine
 10
447.18549
 20
394.85269
 30
0.0
 11
447.18549
 21
398.85269
 31
0.0
  0
LINE
  5
1BB
330
1D
100
AcDbEntity
  8
0
  6
CENTER
 62
     4
100
AcDbLine
 10
358.33969
 20
400.85269
 30
0.0
 11
429.68549
 21
400.85269
 31
0.0
  0
LINE
  5
1BC
330
1D
100
AcDbEntity
  8
0
  6
CENTER
 62
     4
100
AcDbLine
 10
410.90958
 20
397.56396
 30
0.0
 11
374.90958
 21
397.56396
 31
0.0
  0
LINE
  5
1BD
330
1D
100
AcDbEntity
  8
0
  6
CENTER
 62
     4
100
AcDbLine
 10
360.63968
 20
428.16165
 30
0.0
 11
360.63968
 21
403.15268
 31
0.0
  0
LINE
  5
1BE
330
1D
100
AcDbEntity
  8
0
  6
CENTER
 62
     4
100
AcDbLine
 10
358.33969
 20
427.96164
 30
0.0
 11
358.33969
 21
403.35269
 31
0.0
  0
LINE
  5
1BF
330
1D
100
AcDbEntity
  8
0
  6
Continuous
 62
     7
100
AcDbLine
 10
348.33969
 20
400.85269
 30
0.0
 11
368.33969
 21
400.85269
 31
0.0
  0
LINE
  5
1C0
330
1D
100
AcDbEntity
  8
0
  6
Continuous
 62
     7
100
AcDbLine
 10
348.33969
 20
394.85269
 30
0.0
 11
348.33969
 21
400.85269
 31
0.0
  0
LINE
  5
1C1
330
1D
100
AcDbEntity
  8
0
  6
Continuous
 62
     7
100
AcDbLine
 10
368.33969
 20
400.85269
 30
0.0
 11
368.33969
 21
384.85269
 31
0.0
  0
LINE
  5
1C2
330
1D
100
AcDbEntity
  8
0
  6
Continuous
 62
     7
100
AcDbLine
 10
368.33969
 20
384.85269
 30
0.0
 11
358.33969
 21
384.85269
 31
0.0
  0
LINE
  5
1C3
330
1D
100
AcDbEntity
  8
0
  6
CENTER
 62
     4
100
AcDbLine
 10
360.63968
 20
428.16165
 30
0.0
 11
376.30637
 21
428.16165
 31
0.0
  0
LINE
  5
1C4
330
1D
100
AcDbEntity
  8
0
  6
CENTER
 62
     4
100
AcDbLine
 10
360.83969
 20
430.46164
 30
0.0
 11
376.30637
 21
430.46164
 31
0.0
  0
LINE
  5
1C5
330
1D
100
AcDbEntity
  8
0
  6
CENTER
 62
     4
100
AcDbLine
 10
376.30637
 20
428.16165
 30
0.0
 11
376.30637
 21
430.46164
 31
0.0
  0
LINE
  5
1C6
330
1D
100
AcDbEntity
  8
0
  6
CENTER
 62
     4
100
AcDbLine
 10
429.8855
 20
403.15268
 30
0.0
 11
429.8855
 21
428.16165
 31
0.0
  0
LINE
  5
1C7
330
1D
100
AcDbEntity
  8
0
  6
CENTER
 62
     4
100
AcDbLine
 10
432.18549
 20
403.35269
 30
0.0
 11
432.18549
 21
427.96164
 31
0.0
  0
LINE
  5
1C8
330
1D
100
AcDbEntity
  8
0
  6
Continuous
 62
     3
100
AcDbLine
 10
416.33969
 20
400.85269
 30
0.0
 11
416.33969
 21
398.85269
 31
0.0
  0
LINE
  5
1C9
330
1D
100
AcDbEntity
  8
0
  6
CENTER
 62
     4
100
AcDbLine
 10
429.8855
 20
428.16165
 30
0.0
 11
413.79739
 21
428.16165
 31
0.0
  0
LINE
  5
1CA
330
1D
100
AcDbEntity
  8
0
  6
CENTER
 62
     4
100
AcDbLine
 10
429.68549
 20
430.46164
 30
0.0
 11
413.79739
 21
430.46164
 31
0.0
  0
LINE
  5
1CB
330
1D
100
AcDbEntity
  8
0
  6
CENTER
 62
     4
100
AcDbLine
 10
413.79739
 20
430.46164
 30
0.0
 11
413.79739
 21
428.16165
 31
0.0
  0
LINE
  5
1CC
330
1D
100
AcDbEntity
  8
0
  6
Continuous
 62
     3
100
AcDbLine
 10
371.83969
 20
237.47934
 30
0.0
 11
452.24268
 21
237.47934
 31
0.0
  0
LINE
  5
1CD
330
1D
100
AcDbEntity
  8
0
  6
Continuous
 62
     3
100
AcDbLine
 10
369.33969
 20
232.47934
 30
0.0
 11
452.24268
 21
232.47934
 31
0.0
  0
LINE
  5
1CE
330
1D
100
AcDbEntity
  8
0
  6
Continuous
 62
     3
100
AcDbLine
 10
451.24268
 20
236.67934
 30
0.0
 11
451.24268
 21
233.27934
 31
0.0
  0
LINE
  5
1CF
330
1D
100
AcDbEntity
  8
0
  6
Continuous
 62
     7
100
AcDbLine
 10
451.24268
 20
237.07933
 30
0.0
 11
451.24268
 21
236.67934
 31
0.0
  0
LINE
  5
1D0
330
1D
100
AcDbEntity
  8
0
  6
Continuous
 62
     7
100
AcDbLine
 10
451.24268
 20
232.87933
 30
0.0
 11
451.24268
 21
233.27934
 31
0.0
  0
LINE
  5
1D1
330
1D
100
AcDbEntity
  8
0
  6
Continuous
 62
     3
100
AcDbLine
 10
410.28134
 20
260.32529
 30
0.0
 11
412.39801
 21
264.63339
 31
0.0
  0
LINE
  5
1D2
330
1D
100
AcDbEntity
  8
0
  6
Continuous
 62
     3
100
AcDbLine
 10
412.75079
 20
265.35141
 30
0.0
 11
430.91232
 21
302.3158
 31
0.0
  0
LINE
  5
1D3
330
1D
100
AcDbEntity
  8
0
  6
Continuous
 62
     3
100
AcDbLine
 10
430.91235
 20
302.3158
 30
0.0
 11
467.45233
 21
302.3158
 31
0.0
  0
LINE
  5
1D4
330
1D
100
AcDbEntity
  8
0
  6
Continuous
 62
     7
100
AcDbLine
 10
410.10495
 20
259.96628
 30
0.0
 11
410.28134
 21
260.32529
 31
0.0
  0
LINE
  5
1D5
330
1D
100
AcDbEntity
  8
0
  6
Continuous
 62
     7
100
AcDbLine
 10
412.5744
 20
264.9924
 30
0.0
 11
412.39801
 21
264.63339
 31
0.0
  0
CIRCLE
  5
1D6
330
1D
100
AcDbEntity
  8
0
  6
Continuous
 62
     7
100
AcDbCircle
 10
411.33969
 20
262.47934
 30
0.0
 40
2.25
  0
CIRCLE
  5
1D7
330
1D
100
AcDbEntity
  8
0
  6
Continuous
 62
     7
100
AcDbCircle
 10
376.33969
 20
262.47934
 30
0.0
 40
2.25
  0
CIRCLE
  5
1D8
330
1D
100
AcDbEntity
  8
0
  6
Continuous
 62
     7
100
AcDbCircle
 10
411.33969
 20
262.47934
 30
0.0
 40
3.2
  0
CIRCLE
  5
1D9
330
1D
100
AcDbEntity
  8
0
  6
Continuous
 62
     7
100
AcDbCircle
 10
376.33969
 20
262.47934
 30
0.0
 40
3.2
  0
CIRCLE
  5
1DA
330
1D
100
AcDbEntity
  8
0
  6
Continuous
 62
     7
100
AcDbCircle
 10
376.33969
 20
252.47934
 30
0.0
 40
2.25
  0
CIRCLE
  5
1DB
330
1D
100
AcDbEntity
  8
0
  6
Continuous
 62
     7
100
AcDbCircle
 10
376.33969
 20
252.47934
 30
0.0
 40
3.2
  0
LWPOLYLINE
  5
1DC
330
1D
100
AcDbEntity
  8
0
  6
Continuous
 62
     7
100
AcDbPolyline
 90
        2
 70
     1
 43
0.25
 10
431.02719
 20
262.47934
 42
1.0
 10
431.65219
 20
262.47934
 42
1.0
  0
LWPOLYLINE
  5
1E0
330
1D
100
AcDbEntity
  8
0
  6
Continuous
 62
     7
100
AcDbPolyline
 90
        2
 70
     1
 43
0.25
 10
431.02719
 20
252.47934
 42
1.0
 10
431.65219
 20
252.47934
 42
1.0
  0
CIRCLE
  5
1E4
330
1D
100
AcDbEntity
  8
0
  6
Continuous
 62
     7
100
AcDbCircle
 10
411.33969
 20
252.47934
 30
0.0
 40
2.25
  0
CIRCLE
  5
1E5
330
1D
100
AcDbEntity
  8
0
  6
Continuous
 62
     7
100
AcDbCircle
 10
411.33969
 20
252.47934
 30
0.0
 40
3.2
  0
ARC
  5
1E6
330
1D
100
AcDbEntity
  8
0
  6
Continuous
 62
     7
100
AcDbCircle
 10
358.33969
 20
394.85269
 30
0.0
 40
10.0
100
AcDbArc
 50
180.0
 51
270.0
  0
ARC
  5
1E7
330
1D
100
AcDbEntity
  8
0
  6
CENTER
 62
     4
100
AcDbCircle
 10
360.83969
 20
403.35269
 30
0.0
 40
2.5
100
AcDbArc
 50
180.0
 51
270.0
  0
ARC
  5
1E8
330
1D
100
AcDbEntity
  8
0
  6
CENTER
 62
     4
100
AcDbCircle
 10
374.90958
 20
395.56396
 30
0.0
 40
2.0
100
AcDbArc
 50
90.0
 51
180.0
  0
ARC
  5
1E9
330
1D
100
AcDbEntity
  8
0
  6
CENTER
 62
     4
100
AcDbCircle
 10
360.83969
 20
427.96164
 30
0.0
 40
2.5
100
AcDbArc
 50
90.0
 51
180.0
  0
ARC
  5
1EA
330
1D
100
AcDbEntity
  8
0
  6
CENTER
 62
     4
100
AcDbCircle
 10
410.90958
 20
395.56396
 30
0.0
 40
2.0
100
AcDbArc
 50
0.0
 51
90.0
  0
ARC
  5
1EB
330
1D
100
AcDbEntity
  8
0
  6
CENTER
 62
     4
100
AcDbCircle
 10
429.68549
 20
403.35269
 30
0.0
 40
2.5
100
AcDbArc
 50
270.0
 51
0.0
  0
ARC
  5
1EC
330
1D
100
AcDbEntity
  8
0
  6
CENTER
 62
     4
100
AcDbCircle
 10
429.68549
 20
427.96164
 30
0.0
 40
2.5
100
AcDbArc
 50
0.0
 51
90.0
  0
CIRCLE
  5
1ED
330
1D
100
AcDbEntity
  8
0
  6
Continuous
 62
     3
100
AcDbCircle
 10
244.91409
 20
416.00439
 30
0.0
 40
1.5
  0
LWPOLYLINE
  5
1EE
330
1D
100
AcDbEntity
  8
0
  6
Continuous
 62
     7
100
AcDbPolyline
 90
        5
 70
     0
 43
0.0
 10
370.83969
 20
247.47934
 10
416.33969
 20
247.47934
 10
416.33969
 20
267.47934
 10
370.83969
 20
267.47934
 10
370.83969
 20
247.47934
  0
LWPOLYLINE
  5
1F5
330
1D
100
AcDbEntity
  8
0
  6
Continuous
 62
     7
100
AcDbPolyline
 90
        5
 70
     0
 43
0.0
 10
368.33969
 20
237.47934
 10
370.83969
 20
237.47934
 10
370.83969
 20
277.47934
 10
368.33969
 20
277.47934
 10
368.33969
 20
237.47934
  0
LWPOLYLINE
  5
1FC
330
1D
100
AcDbEntity
  8
0
  6
Continuous
 62
     7
100
AcDbPolyline
 90
        5
 70
     0
 43
0.0
 10
348.33969
 20
232.47934
 10
368.33969
 20
232.47934
 10
368.33969
 20
282.47934
 10
348.33969
 20
282.47934
 10
348.33969
 20
232.47934
  0
LWPOLYLINE
  5
203
330
1D
100
AcDbEntity
  8
0
  6
Continuous
 62
     7
100
AcDbPolyline
 90
        5
 70
     0
 43
0.0
 10
368.33969
 20
400.85269
 10
416.33969
 20
400.85269
 10
416.33969
 20
398.85269
 10
368.33969
 20
398.85269
 10
368.33969
 20
400.85269
  0
LWPOLYLINE
  5
20A
330
1D
100
AcDbEntity
  8
0
  6
Continuous
 62
     7
100
AcDbPolyline
 90
        5
 70
     0
 43
0.0
 10
368.33969
 20
388.85269
 10
370.83969
 20
388.85269
 10
370.83969
 20
394.85269
 10
368.33969
 20
394.85269
 10
368.33969
 20
388.85269
  0
TEXT
  5
211
330
1D
100
AcDbEntity
  8
0
  6
Continuous
 62
     2
100
AcDbText
 10
167.70105
 20
182.95929
 30
0.0
 40
2.5
  1
!GENTITLE-LL
 41
1.09375
100
AcDbText
  0
TEXT
  5
212
330
1D
100
AcDbEntity
  8
0
  6
Continuous
 62
     2
100
AcDbText
 10
568.20107
 20
467.95929
 30
0.0
 40
2.5
  1
!GENTITLE-RU
 41
1.09375
100
AcDbText
  0
TEXT
  5
213
330
1D
100
AcDbEntity
  8
0
  6
Continuous
 62
     2
100
AcDbText
 10
187.20104
 20
467.95929
 30
0.0
 40
2.5
  1
!GENTITLE-INSERT
 41
1.0930233
100
AcDbText
  0
TEXT
  5
214
330
1D
100
AcDbEntity
  8
0
  6
Continuous
 62
     2
100
AcDbText
 10
587.70105
 20
479.95929
 30
0.0
 40
2.5
  1
!GENTITLE-MAX
 41
1.0857143
100
AcDbText
  0
TEXT
  5
215
330
1D
100
AcDbEntity
  8
0
  6
Continuous
 62
     7
100
AcDbText
 10
193.42955
 20
463.95927
 30
0.0
 40
3.2
  1
品　名
 41
0.60999997
100
AcDbText
  0
TEXT
  5
216
330
1D
100
AcDbEntity
  8
0
  6
Continuous
 62
     7
100
AcDbText
 10
193.42955
 20
455.95927
 30
0.0
 40
3.2
  1
品　番
 41
0.60999997
100
AcDbText
  0
TEXT
  5
217
330
1D
100
AcDbEntity
  8
0
  6
Continuous
 62
     7
100
AcDbText
 10
193.42955
 20
447.95927
 30
0.0
 40
3.2
  1
材　質
 41
0.60999997
100
AcDbText
  0
TEXT
  5
218
330
1D
100
AcDbEntity
  8
0
  6
Continuous
 62
     7
100
AcDbText
 10
193.42955
 20
439.95927
 30
0.0
 40
3.2
  1
仕上げ
 41
0.60999997
100
AcDbText
  0
TEXT
  5
219
330
1D
100
AcDbEntity
  8
0
  6
Continuous
 62
     7
100
AcDbText
 10
190.22955
 20
415.95927
 30
0.0
 40
3.2
  1
セットビス
 41
0.60999999
100
AcDbText
  0
TEXT
  5
21A
330
1D
100
AcDbEntity
  8
0
  6
Continuous
 62
     7
100
AcDbText
 10
195.02955
 20
391.95927
 30
0.0
 40
3.2
  1
備考
 41
0.61
100
AcDbText
  0
TEXT
  5
21B
330
1D
100
AcDbEntity
  8
0
  6
Continuous
 62
     7
100
AcDbText
 10
193.42955
 20
431.95927
 30
0.0
 40
3.2
  1
定　尺
 41
0.60999997
100
AcDbText
  0
TEXT
  5
21C
330
1D
100
AcDbEntity
  8
0
  6
Continuous
 62
     7
100
AcDbText
 10
191.82955
 20
423.95927
 30
0.0
 40
3.2
  1
左右勝手
 41
0.60999998
100
AcDbText
  0
TEXT
  5
21D
330
1D
100
AcDbEntity
  8
0
  6
Continuous
 62
     7
100
AcDbText
 10
210.62955
 20
462.3593
 30
0.0
 40
3.2
  1
召し合わせ戸当り
 41
0.74999998
100
AcDbText
  0
TEXT
  5
21E
330
1D
100
AcDbEntity
  8
0
  6
Continuous
 62
     7
100
AcDbText
 10
210.62955
 20
454.3593
 30
0.0
 40
3.2
  1
DC-100H
 41
0.84065937
100
AcDbText
  0
TEXT
  5
21F
330
1D
100
AcDbEntity
  8
0
  6
Continuous
 62
     7
100
AcDbText
 10
210.62955
 20
446.3593
 30
0.0
 40
3.2
  1
ステンレス
 41
0.74999999
100
AcDbText
  0
TEXT
  5
220
330
1D
100
AcDbEntity
  8
0
  6
Continuous
 62
     7
100
AcDbText
 10
210.62956
 20
438.3593
 30
0.0
 40
3.2
  1
ヘアーライン
 41
0.69533245
100
AcDbText
  0
TEXT
  5
221
330
1D
100
AcDbEntity
  8
0
  6
Continuous
 62
     7
100
AcDbText
 10
210.62955
 20
422.3593
 30
0.0
 40
3.2
  1
なし
 41
0.74999999
100
AcDbText
  0
TEXT
  5
222
330
1D
100
AcDbEntity
  8
0
  6
Continuous
 62
     7
100
AcDbText
 10
210.62955
 20
414.3593
 30
0.0
 40
3.2
  1
Ｍ４×Ｄ６×８サラ小ネジ ＋ ＳＵＳ４本付
 41
0.69226438
100
AcDbText
  0
TEXT
  5
223
330
1D
100
AcDbEntity
  8
0
  6
Continuous
 62
     7
100
AcDbText
 10
210.62954
 20
390.3593
 30
0.0
 40
3.2
  1
適用ドアー厚／４５ｍｍ
 41
0.69761029
100
AcDbText
  0
TEXT
  5
224
330
1D
100
AcDbEntity
  8
0
  6
Continuous
 62
     3
100
AcDbText
 10
449.83969
 20
254.81267
 30
0.0
 40
3.2
  1
40
 50
90.000003
 41
1.0714286
100
AcDbText
  0
TEXT
  5
225
330
1D
100
AcDbEntity
  8
0
  6
Continuous
 62
     3
100
AcDbText
 10
449.83969
 20
278.91267
 30
0.0
 40
3.2
  1
5
 50
90.000003
100
AcDbText
  0
TEXT
  5
226
330
1D
100
AcDbEntity
  8
0
  6
Continuous
 62
     3
100
AcDbText
 10
455.68551
 20
390.18602
 30
0.0
 40
3.2
  1
16
 50
90.000003
 41
1.25
100
AcDbText
  0
TEXT
  5
227
330
1D
100
AcDbEntity
  8
0
  6
Continuous
 62
     3
100
AcDbText
 10
452.90792
 20
408.11165
 30
0.0
 40
3.2
  1
2
 50
90.000003
100
AcDbText
  0
TEXT
  5
228
330
1D
100
AcDbEntity
  8
0
  6
Continuous
 62
     3
100
AcDbText
 10
439.83938
 20
254.81267
 30
0.0
 40
3.2
  1
20
 50
90.000003
 41
1.0714286
100
AcDbText
  0
TEXT
  5
229
330
1D
100
AcDbEntity
  8
0
  6
Continuous
 62
     3
100
AcDbText
 10
429.83969
 20
263.91267
 30
0.0
 40
3.2
  1
5
 50
90.000003
100
AcDbText
  0
TEXT
  5
22A
330
1D
100
AcDbEntity
  8
0
  6
Continuous
 62
     3
100
AcDbText
 10
439.83969
 20
237.31267
 30
0.0
 40
3.2
  1
15
 50
90.000003
 41
1.25
100
AcDbText
  0
TEXT
  5
22B
330
1D
100
AcDbEntity
  8
0
  6
Continuous
 62
     3
100
AcDbText
 10
429.83969
 20
248.91267
 30
0.0
 40
3.2
  1
5
 50
90.000003
100
AcDbText
  0
TEXT
  5
22C
330
1D
100
AcDbEntity
  8
0
  6
Continuous
 62
     3
100
AcDbText
 10
429.83969
 20
254.81267
 30
0.0
 40
3.2
  1
10
 50
90.000003
 41
1.3636364
100
AcDbText
  0
TEXT
  5
22D
330
1D
100
AcDbEntity
  8
0
  6
Continuous
 62
     2
100
AcDbText
 10
422.89041
 20
343.49979
 30
0.0
 40
3.5
  1
ドアー
100
AcDbText
  0
TEXT
  5
22E
330
1D
100
AcDbEntity
  8
0
  6
Continuous
 62
     3
100
AcDbText
 10
439.83969
 20
272.31267
 30
0.0
 40
3.2
  1
15
 50
90.000003
 41
1.25
100
AcDbText
  0
TEXT
  5
22F
330
1D
100
AcDbEntity
  8
0
  6
Continuous
 62
     3
100
AcDbText
 10
389.67302
 20
313.97935
 30
0.0
 40
3.2
  1
48
100
AcDbText
  0
TEXT
  5
230
330
1D
100
AcDbEntity
  8
0
  6
Continuous
 62
     3
100
AcDbText
 10
391.17302
 20
303.97935
 30
0.0
 40
3.2
  1
35
100
AcDbText
  0
TEXT
  5
231
330
1D
100
AcDbEntity
  8
0
  6
Continuous
 62
     3
100
AcDbText
 10
355.67302
 20
313.97965
 30
0.0
 40
3.2
  1
20
 41
1.0714286
100
AcDbText
  0
TEXT
  5
232
330
1D
100
AcDbEntity
  8
0
  6
Continuous
 62
     3
100
AcDbText
 10
371.27302
 20
303.97935
 30
0.0
 40
3.2
  1
8
100
AcDbText
  0
TEXT
  5
233
330
1D
100
AcDbEntity
  8
0
  6
Continuous
 62
     3
100
AcDbText
 10
355.2261
 20
293.98902
 30
0.0
 40
3.2
  1
2.5
 41
1.3333333
100
AcDbText
  0
TEXT
  5
234
330
1D
100
AcDbEntity
  8
0
  6
Continuous
 62
     3
100
AcDbText
 10
412.77302
 20
303.97935
 30
0.0
 40
3.2
  1
5
100
AcDbText
  0
TEXT
  5
235
330
1D
100
AcDbEntity
  8
0
  6
Continuous
 62
     3
100
AcDbText
 10
445.68551
 20
378.98601
 30
0.0
 40
3.2
  1
4
 50
90.000003
100
AcDbText
  0
TEXT
  5
236
330
1D
100
AcDbEntity
  8
0
  6
Continuous
 62
     3
100
AcDbText
 10
445.68551
 20
390.78602
 30
0.0
 40
3.2
  1
6
 50
90.000003
100
AcDbText
  0
TEXT
  5
237
330
1D
100
AcDbEntity
  8
0
  6
Continuous
 62
     3
100
AcDbText
 10
445.68551
 20
395.78602
 30
0.0
 40
3.2
  1
4
 50
90.000003
100
AcDbText
  0
TEXT
  5
238
330
1D
100
AcDbEntity
  8
0
  6
Continuous
 62
     2
100
AcDbText
 10
387.48736
 20
413.44063
 30
0.0
 40
2.4371989
  1
上枠
 41
0.99999998
100
AcDbText
  0
TEXT
  5
239
330
1D
100
AcDbEntity
  8
0
  6
Continuous
 62
     3
100
AcDbText
 10
449.74267
 20
233.91267
 30
0.0
 40
3.2
  1
5
 50
90.000003
100
AcDbText
  0
TEXT
  5
23A
330
1D
100
AcDbEntity
  8
0
  6
Continuous
 62
     3
100
AcDbText
 10
428.24701
 20
303.8158
 30
0.0
 40
3.2
  1
４－%%C４．５×%%C６．４サラ
 41
0.89915963
100
AcDbText
  0
INSERT
  5
23B
330
1D
100
AcDbEntity
  8
0
  6
Continuous
 62
     7
100
AcDbBlockReference
  2
KOZU0001
 10
451.33969
 20
277.47934
 30
0.0
  0
INSERT
  5
23C
330
1D
100
AcDbEntity
  8
0
  6
Continuous
 62
     7
100
AcDbBlockReference
  2
KOZU0002
 10
451.33969
 20
237.47934
 30
0.0
  0
INSERT
  5
23D
330
1D
100
AcDbEntity
  8
0
  6
Continuous
 62
     7
100
AcDbBlockReference
  2
KOZU0003
 10
451.33969
 20
282.47934
 30
0.0
  0
INSERT
  5
23E
330
1D
100
AcDbEntity
  8
0
  6
Continuous
 62
     7
100
AcDbBlockReference
  2
KOZU0004
 10
451.33969
 20
277.47934
 30
0.0
  0
INSERT
  5
23F
330
1D
100
AcDbEntity
  8
0
  6
Continuous
 62
     7
100
AcDbBlockReference
  2
KOZU0005
 10
457.18549
 20
400.85269
 30
0.0
  0
INSERT
  5
240
330
1D
100
AcDbEntity
  8
0
  6
Continuous
 62
     7
100
AcDbBlockReference
  2
KOZU0006
 10
457.18549
 20
384.85269
 30
0.0
  0
INSERT
  5
241
330
1D
100
AcDbEntity
  8
0
  6
Continuous
 62
     7
100
AcDbBlockReference
  2
KOZU0007
 10
447.18549
 20
400.85269
 30
0.0
  0
INSERT
  5
242
330
1D
100
AcDbEntity
  8
0
  6
Continuous
 62
     7
100
AcDbBlockReference
  2
KOZU0008
 10
447.18549
 20
398.85269
 30
0.0
  0
INSERT
  5
243
330
1D
100
AcDbEntity
  8
0
  6
Continuous
 62
     7
100
AcDbBlockReference
  2
KOZU0009
 10
441.33969
 20
267.47934
 30
0.0
  0
INSERT
  5
244
330
1D
100
AcDbEntity
  8
0
  6
Continuous
 62
     7
100
AcDbBlockReference
  2
KOZU0010
 10
441.33969
 20
247.47934
 30
0.0
  0
INSERT
  5
245
330
1D
100
AcDbEntity
  8
0
  6
Continuous
 62
     7
100
AcDbBlockReference
  2
KOZU0011
 10
431.33969
 20
267.47934
 30
0.0
  0
INSERT
  5
246
330
1D
100
AcDbEntity
  8
0
  6
Continuous
 62
     7
100
AcDbBlockReference
  2
KOZU0012
 10
431.33969
 20
262.47934
 30
0.0
  0
INSERT
  5
247
330
1D
100
AcDbEntity
  8
0
  6
Continuous
 62
     7
100
AcDbBlockReference
  2
KOZU0013
 10
441.33969
 20
247.47934
 30
0.0
  0
INSERT
  5
248
330
1D
100
AcDbEntity
  8
0
  6
Continuous
 62
     7
100
AcDbBlockReference
  2
KOZU0014
 10
441.33969
 20
232.47934
 30
0.0
  0
INSERT
  5
249
330
1D
100
AcDbEntity
  8
0
  6
Continuous
 62
     7
100
AcDbBlockReference
  2
KOZU0015
 10
431.33969
 20
252.47934
 30
0.0
  0
INSERT
  5
24A
330
1D
100
AcDbEntity
  8
0
  6
Continuous
 62
     7
100
AcDbBlockReference
  2
KOZU0016
 10
431.33969
 20
247.47934
 30
0.0
  0
INSERT
  5
24B
330
1D
100
AcDbEntity
  8
0
  6
Continuous
 62
     3
100
AcDbBlockReference
  2
KOZU0041
 10
0.0
 20
0.0
 30
0.0
  0
INSERT
  5
24C
330
1D
100
AcDbEntity
  8
0
  6
Continuous
 62
     7
100
AcDbBlockReference
  2
KOZU0017
 10
441.33969
 20
282.47934
 30
0.0
  0
INSERT
  5
24D
330
1D
100
AcDbEntity
  8
0
  6
Continuous
 62
     7
100
AcDbBlockReference
  2
KOZU0018
 10
441.33969
 20
267.47934
 30
0.0
  0
INSERT
  5
24E
330
1D
100
AcDbEntity
  8
0
  6
Continuous
 62
     7
100
AcDbBlockReference
  2
KOZU0019
 10
368.33969
 20
312.47934
 30
0.0
  0
INSERT
  5
24F
330
1D
100
AcDbEntity
  8
0
  6
Continuous
 62
     7
100
AcDbBlockReference
  2
KOZU0020
 10
416.33969
 20
312.47934
 30
0.0
  0
INSERT
  5
250
330
1D
100
AcDbEntity
  8
0
  6
Continuous
 62
     7
100
AcDbBlockReference
  2
KOZU0021
 10
376.33969
 20
302.47934
 30
0.0
  0
INSERT
  5
251
330
1D
100
AcDbEntity
  8
0
  6
Continuous
 62
     7
100
AcDbBlockReference
  2
KOZU0022
 10
411.33969
 20
302.47934
 30
0.0
  0
INSERT
  5
252
330
1D
100
AcDbEntity
  8
0
  6
Continuous
 62
     7
100
AcDbBlockReference
  2
KOZU0023
 10
348.33969
 20
312.47934
 30
0.0
  0
INSERT
  5
253
330
1D
100
AcDbEntity
  8
0
  6
Continuous
 62
     7
100
AcDbBlockReference
  2
KOZU0024
 10
368.33969
 20
312.47934
 30
0.0
  0
INSERT
  5
254
330
1D
100
AcDbEntity
  8
0
  6
Continuous
 62
     7
100
AcDbBlockReference
  2
KOZU0025
 10
368.33969
 20
302.47934
 30
0.0
  0
INSERT
  5
255
330
1D
100
AcDbEntity
  8
0
  6
Continuous
 62
     7
100
AcDbBlockReference
  2
KOZU0026
 10
376.33969
 20
302.47934
 30
0.0
  0
INSERT
  5
256
330
1D
100
AcDbEntity
  8
0
  6
Continuous
 62
     7
100
AcDbBlockReference
  2
KOZU0027
 10
370.83969
 20
292.48871
 30
0.0
  0
INSERT
  5
257
330
1D
100
AcDbEntity
  8
0
  6
Continuous
 62
     7
100
AcDbBlockReference
  2
KOZU0028
 10
368.33969
 20
292.48871
 30
0.0
  0
INSERT
  5
258
330
1D
100
AcDbEntity
  8
0
  6
Continuous
 62
     7
100
AcDbBlockReference
  2
KOZU0029
 10
411.33969
 20
302.47934
 30
0.0
  0
INSERT
  5
259
330
1D
100
AcDbEntity
  8
0
  6
Continuous
 62
     7
100
AcDbBlockReference
  2
KOZU0030
 10
416.33969
 20
302.47934
 30
0.0
  0
INSERT
  5
25A
330
1D
100
AcDbEntity
  8
0
  6
Continuous
 62
     7
100
AcDbBlockReference
  2
KOZU0031
 10
447.18549
 20
388.85269
 30
0.0
  0
INSERT
  5
25B
330
1D
100
AcDbEntity
  8
0
  6
Continuous
 62
     7
100
AcDbBlockReference
  2
KOZU0032
 10
447.18549
 20
384.85269
 30
0.0
  0
INSERT
  5
25C
330
1D
100
AcDbEntity
  8
0
  6
Continuous
 62
     7
100
AcDbBlockReference
  2
KOZU0033
 10
447.18549
 20
394.85269
 30
0.0
  0
INSERT
  5
25D
330
1D
100
AcDbEntity
  8
0
  6
Continuous
 62
     7
100
AcDbBlockReference
  2
KOZU0034
 10
447.18549
 20
388.85269
 30
0.0
  0
INSERT
  5
25E
330
1D
100
AcDbEntity
  8
0
  6
Continuous
 62
     7
100
AcDbBlockReference
  2
KOZU0035
 10
447.18549
 20
394.85269
 30
0.0
  0
INSERT
  5
25F
330
1D
100
AcDbEntity
  8
0
  6
Continuous
 62
     7
100
AcDbBlockReference
  2
KOZU0036
 10
447.18549
 20
398.85269
 30
0.0
  0
INSERT
  5
260
330
1D
100
AcDbEntity
  8
0
  6
Continuous
 62
     7
100
AcDbBlockReference
  2
KOZU0037
 10
451.24268
 20
237.47934
 30
0.0
  0
INSERT
  5
261
330
1D
100
AcDbEntity
  8
0
  6
Continuous
 62
     7
100
AcDbBlockReference
  2
KOZU0038
 10
451.24268
 20
232.47934
 30
0.0
  0
INSERT
  5
262
330
1D
100
AcDbEntity
  8
0
  6
Continuous
 62
     7
100
AcDbBlockReference
  2
KOZU0039
 10
409.92856
 20
259.60727
 30
0.0
  0
INSERT
  5
263
330
1D
100
AcDbEntity
  8
0
  6
Continuous
 62
     7
100
AcDbBlockReference
  2
KOZU0040
 10
412.75079
 20
265.35141
 30
0.0
  0
ENDSEC
  0
SECTION
  2
OBJECTS
  0
DICTIONARY
  5
C
330
0
100
AcDbDictionary
281
     1
  3
ACAD_COLOR
350
2C3
  3
ACAD_DETAILVIEWSTYLE
350
2BF
  3
ACAD_DGNDEFINITIONS
350
2C6
  3
ACAD_DWFDEFINITIONS
350
2C5
  3
ACAD_FIELDLIST
350
315
  3
ACAD_GROUP
350
D
  3
ACAD_LAYOUT
350
1A
  3
ACAD_MATERIAL
350
27
  3
ACAD_MLEADERSTYLE
350
2BE
  3
ACAD_MLINESTYLE
350
17
  3
ACAD_PDFDEFINITIONS
350
2C4
  3
ACAD_PLOTSETTINGS
350
19
  3
ACAD_PLOTSTYLENAME
350
E
  3
ACAD_SCALELIST
350
265
  3
ACAD_SECTIONVIEWSTYLE
350
2C0
  3
ACAD_TABLESTYLE
350
294
  3
ACAD_VISUALSTYLE
350
27B
  3
ACDB_RECOMPOSE_DATA
350
34D
  3
AcDbVariableDictionary
350
33C
  3
gmRefExt
350
336
  3
HCJX_INFO
350
339
  0
DICTIONARY
  5
2C3
102
{ACAD_REACTORS
330
C
102
}
330
C
100
AcDbDictionary
281
     1
  0
DICTIONARY
  5
2BF
102
{ACAD_REACTORS
330
C
102
}
330
C
100
AcDbDictionary
281
     1
  3
Imperial24
350
2E0
  0
DICTIONARY
  5
2C6
102
{ACAD_REACTORS
330
C
102
}
330
C
100
AcDbDictionary
281
     1
  0
DICTIONARY
  5
2C5
102
{ACAD_REACTORS
330
C
102
}
330
C
100
AcDbDictionary
281
     1
  0
FIELDLIST
  5
315
102
{ACAD_REACTORS
330
C
102
}
330
C
100
AcDbIdSet
 90
        2
330
2D6
330
2E6
100
AcDbFieldList
  0
DICTIONARY
  5
D
102
{ACAD_REACTORS
330
C
102
}
330
C
100
AcDbDictionary
281
     1
  0
DICTIONARY
  5
1A
102
{ACAD_REACTORS
330
C
102
}
330
C
100
AcDbDictionary
281
     1
  3
Model
350
1E
  3
レイアウト 1
350
1C
  0
DICTIONARY
  5
27
102
{ACAD_REACTORS
330
C
102
}
330
C
100
AcDbDictionary
281
     1
  3
ByBlock
350
29
  3
ByLayer
350
28
  3
Global
350
2A
  0
DICTIONARY
  5
2BE
102
{ACAD_REACTORS
330
C
102
}
330
C
100
AcDbDictionary
281
     1
  3
Standard
350
337
  0
DICTIONARY
  5
17
102
{ACAD_REACTORS
330
C
102
}
330
C
100
AcDbDictionary
281
     1
  3
Standard
350
18
  0
DICTIONARY
  5
2C4
102
{ACAD_REACTORS
330
C
102
}
330
C
100
AcDbDictionary
281
     1
  0
DICTIONARY
  5
19
102
{ACAD_REACTORS
330
C
102
}
330
C
100
AcDbDictionary
281
     1
  0
ACDBDICTIONARYWDFLT
  5
E
102
{ACAD_REACTORS
330
C
102
}
330
C
100
AcDbDictionary
281
     1
  3
ByColor
350
11
  3
Normal
350
F
100
AcDbDictionaryWithDefault
340
F
  0
DICTIONARY
  5
265
102
{ACAD_REACTORS
330
C
102
}
330
C
100
AcDbDictionary
281
     1
  3
A0
350
266
  3
B7
350
267
  3
B8
350
268
  3
B9
350
269
  3
C0
350
26A
  3
C1
350
26B
  3
C2
350
26C
  3
C3
350
26D
  3
C4
350
26E
  3
C5
350
26F
  3
C6
350
270
  3
C7
350
271
  3
C8
350
272
  3
C9
350
273
  3
D0
350
274
  3
D1
350
275
  3
D2
350
276
  0
DICTIONARY
  5
2C0
102
{ACAD_REACTORS
330
C
102
}
330
C
100
AcDbDictionary
281
     1
  3
Imperial24
350
2EC
  0
DICTIONARY
  5
294
102
{ACAD_REACTORS
330
C
102
}
330
C
100
AcDbDictionary
281
     1
  3
Standard
350
295
  0
DICTIONARY
  5
27B
102
{ACAD_REACTORS
330
C
102
}
330
C
100
AcDbDictionary
281
     1
  3
2dWireframe
350
280
  3
Basic
350
283
  3
Brighten
350
287
  3
ColorChange
350
28B
  3
Conceptual
350
285
  3
Dim
350
286
  3
EdgeColorOff
350
28E
  3
Facepattern
350
28A
  3
Flat
350
27C
  3
FlatWithEdges
350
27D
  3
Gouraud
350
27E
  3
GouraudWithEdges
350
27F
  3
Hidden
350
282
  3
JitterOff
350
28C
  3
Linepattern
350
289
  3
OverhangOff
350
28D
  3
Realistic
350
284
  3
Shaded
350
293
  3
Shaded with edges
350
292
  3
Shades of Gray
350
28F
  3
Sketchy
350
290
  3
Thicken
350
288
  3
Wireframe
350
281
  3
X-Ray
350
291
  0
XRECORD
  5
34D
102
{ACAD_REACTORS
330
C
102
}
330
C
100
AcDbXrecord
280
     1
 90
        1
330
295
  0
DICTIONARY
  5
33C
102
{ACAD_REACTORS
330
C
102
}
330
C
100
AcDbDictionary
281
     1
  3
CANNOSCALE
350
33D
  3
CMLEADERSTYLE
350
343
  3
CTABLESTYLE
350
342
  3
MSLTSCALE
350
344
  0
XRECORD
  5
336
102
{ACAD_REACTORS
330
C
102
}
330
C
100
AcDbXrecord
280
     1
  0
DICTIONARY
  5
339
102
{ACAD_REACTORS
330
C
102
}
330
C
100
AcDbDictionary
281
     1
  3
GmRelease
350
33A
  3
GmTimeStamp
350
33B
  0
ACDBDETAILVIEWSTYLE
  5
2E0
102
{ACAD_REACTORS
330
2BF
102
}
102
{ACAD_XDICTIONARY
360
2E1
102
}
330
2BF
100
AcDbModelDocViewStyle
 70
     0
  3
Imperial24
290
     1
100
AcDbDetailViewStyle
 70
     0
 71
     0
 90
        3
 71
     1
340
12
 62
   256
 40
0.24
340
0
 62
   256
 40
0.24
300

 40
0.36
280
     3
 71
     2
340
16
 90
       25
 62
   256
 71
     3
340
12
 62
   256
 40
0.24
 90
        1
 40
0.75
 90
        1
300
%<\AcVar ViewType \f "%tc1">% %<\AcVar ViewDetailId>%\PSCALE %<\AcVar ViewScale \f "%sn">%
 71
     4
340
16
 90
       25
 62
   256
340
16
 90
       25
 62
   256
280
     0
  0
LAYOUT
  5
1E
102
{ACAD_REACTORS
330
1A
102
}
330
1A
100
AcDbPlotSettings
  1

  2
none_device
  4
ISO_A4_(210.00_x_297.00_MM)
  6

 40
7.5
 41
20.0
 42
7.5
 43
20.0
 44
210.0
 45
297.0
 46
0.0
 47
0.0
 48
0.0
 49
0.0
140
0.0
141
0.0
142
1.0
143
1.0
 70
  1712
 72
     0
 73
     1
 74
     0
  7

 75
     0
 76
     0
 77
     2
 78
   300
147
1.0
148
0.0
149
0.0
100
AcDbLayout
  1
Model
 70
     1
 71
     0
 10
0.0
 20
0.0
 11
12.0
 21
9.0
 12
0.0
 22
0.0
 32
0.0
 14
167.70105
 24
-253659.94
 34
0.0
 15
11500.007
 25
254340.06
 35
0.0
146
0.0
 13
0.0
 23
0.0
 33
0.0
 16
1.0
 26
0.0
 36
0.0
 17
0.0
 27
1.0
 37
0.0
 76
     0
330
1D
331
264
  0
LAYOUT
  5
1C
102
{ACAD_REACTORS
330
1A
102
}
330
1A
100
AcDbPlotSettings
  1

  2
none_device
  4
ISO_A4_(210.00_x_297.00_MM)
  6

 40
7.5
 41
20.0
 42
7.5
 43
20.0
 44
210.0
 45
297.0
 46
0.0
 47
0.0
 48
0.0
 49
0.0
140
0.0
141
0.0
142
1.0
143
1.0
 70
   688
 72
     0
 73
     1
 74
     5
  7

 75
    16
 76
     0
 77
     2
 78
   300
147
1.0
148
0.0
149
0.0
100
AcDbLayout
  1
レイアウト 1
 70
     1
 71
     1
 10
167.70105
 20
182.95929
 11
587.70105
 21
479.95929
 12
0.0
 22
0.0
 32
0.0
 14
1.000000000000000E+20
 24
1.000000000000000E+20
 34
1.000000000000000E+20
 15
-1.000000000000000E+20
 25
-1.000000000000000E+20
 35
-1.000000000000000E+20
146
0.0
 13
0.0
 23
0.0
 33
0.0
 16
1.0
 26
0.0
 36
0.0
 17
0.0
 27
1.0
 37
0.0
 76
     0
330
1B
  0
MATERIAL
  5
29
102
{ACAD_REACTORS
330
27
102
}
330
27
100
AcDbMaterial
  1
ByBlock
 72
     1
 94
      127
  0
MATERIAL
  5
28
102
{ACAD_REACTORS
330
27
102
}
330
27
100
AcDbMaterial
  1
ByLayer
 72
     1
 94
      127
  0
MATERIAL
  5
2A
102
{ACAD_REACTORS
330
27
102
}
330
27
100
AcDbMaterial
  1
Global
 72
     1
 94
      127
  0
MLEADERSTYLE
  5
337
102
{ACAD_REACTORS
330
2BE
102
}
330
2BE
100
AcDbMLeaderStyle
179
     2
170
     2
171
     1
172
     0
 90
        2
 40
0.0
 41
0.0
173
     1
 91
-1056964608
340
16
 92
       -2
290
     1
 42
0.09
291
     1
 43
0.36
  3
Standard
341
0
 44
0.18
300

342
12
174
     1
178
     6
175
     1
176
     0
 93
-1056964608
 45
0.18
292
     0
297
     0
 46
0.18
343
0
 94
-1056964608
 47
1.0
 49
1.0
140
1.0
293
     1
141
0.0
294
     1
177
     0
142
1.0
295
     0
296
     0
143
0.125
271
     0
272
     9
273
     9
298
     0
1001
ACAD_MLEADERVER
1070
     2
  0
MLINESTYLE
  5
18
102
{ACAD_REACTORS
330
17
102
}
330
17
100
AcDbMlineStyle
  2
Standard
 70
     0
  3

 62
   256
 51
90.0
 52
90.0
 71
     2
 49
0.5
 62
   256
  6
BYLAYER
 49
-0.5
 62
   256
  6
BYLAYER
  0
ACDBPLACEHOLDER
  5
11
102
{ACAD_REACTORS
330
E
102
}
330
E
  0
ACDBPLACEHOLDER
  5
F
102
{ACAD_REACTORS
330
E
102
}
330
E
  0
SCALE
  5
266
102
{ACAD_REACTORS
330
265
102
}
330
265
100
AcDbScale
 70
     0
300
1:1
140
1.0
141
1.0
290
     1
  0
SCALE
  5
267
102
{ACAD_REACTORS
330
265
102
}
330
265
100
AcDbScale
 70
     0
300
1/128" = 1'-0"
140
0.0078125
141
12.0
290
     0
  0
SCALE
  5
268
102
{ACAD_REACTORS
330
265
102
}
330
265
100
AcDbScale
 70
     0
300
1/64" = 1'-0"
140
0.015625
141
12.0
290
     0
  0
SCALE
  5
269
102
{ACAD_REACTORS
330
265
102
}
330
265
100
AcDbScale
 70
     0
300
1/32" = 1'-0"
140
0.03125
141
12.0
290
     0
  0
SCALE
  5
26A
102
{ACAD_REACTORS
330
265
102
}
330
265
100
AcDbScale
 70
     0
300
1/16" = 1'-0"
140
0.0625
141
12.0
290
     0
  0
SCALE
  5
26B
102
{ACAD_REACTORS
330
265
102
}
330
265
100
AcDbScale
 70
     0
300
3/32" = 1'-0"
140
0.09375
141
12.0
290
     0
  0
SCALE
  5
26C
102
{ACAD_REACTORS
330
265
102
}
330
265
100
AcDbScale
 70
     0
300
1/8" = 1'-0"
140
0.125
141
12.0
290
     0
  0
SCALE
  5
26D
102
{ACAD_REACTORS
330
265
102
}
330
265
100
AcDbScale
 70
     0
300
3/16" = 1'-0"
140
0.1875
141
12.0
290
     0
  0
SCALE
  5
26E
102
{ACAD_REACTORS
330
265
102
}
330
265
100
AcDbScale
 70
     0
300
1/4" = 1'-0"
140
0.25
141
12.0
290
     0
  0
SCALE
  5
26F
102
{ACAD_REACTORS
330
265
102
}
330
265
100
AcDbScale
 70
     0
300
3/8" = 1'-0"
140
0.375
141
12.0
290
     0
  0
SCALE
  5
270
102
{ACAD_REACTORS
330
265
102
}
330
265
100
AcDbScale
 70
     0
300
1/2" = 1'-0"
140
0.5
141
12.0
290
     0
  0
SCALE
  5
271
102
{ACAD_REACTORS
330
265
102
}
330
265
100
AcDbScale
 70
     0
300
3/4" = 1'-0"
140
0.75
141
12.0
290
     0
  0
SCALE
  5
272
102
{ACAD_REACTORS
330
265
102
}
330
265
100
AcDbScale
 70
     0
300
1" = 1'-0"
140
1.0
141
12.0
290
     0
  0
SCALE
  5
273
102
{ACAD_REACTORS
330
265
102
}
330
265
100
AcDbScale
 70
     0
300
1-1/2" = 1'-0"
140
1.5
141
12.0
290
     0
  0
SCALE
  5
274
102
{ACAD_REACTORS
330
265
102
}
330
265
100
AcDbScale
 70
     0
300
3" = 1'-0"
140
3.0
141
12.0
290
     0
  0
SCALE
  5
275
102
{ACAD_REACTORS
330
265
102
}
330
265
100
AcDbScale
 70
     0
300
6" = 1'-0"
140
6.0
141
12.0
290
     0
  0
SCALE
  5
276
102
{ACAD_REACTORS
330
265
102
}
330
265
100
AcDbScale
 70
     0
300
1'-0" = 1'-0"
140
12.0
141
12.0
290
     0
  0
ACDBSECTIONVIEWSTYLE
  5
2EC
102
{ACAD_REACTORS
330
2C0
102
}
102
{ACAD_XDICTIONARY
360
2ED
102
}
330
2C0
100
AcDbModelDocViewStyle
 70
     0
  3
Imperial24
290
     1
100
AcDbSectionViewStyle
 70
     0
 71
     0
 90
       78
 71
     1
340
12
 62
   256
 40
0.24
340
0
340
0
 62
   256
 40
0.24
300
I, O, Q, S, X, Z
 40
0.48
 90
        3
 40
0.18
 90
        1
 71
     2
340
2EA
 90
       25
 62
   256
340
16
 90
       50
 62
   256
 40
0.24
 40
0.0
 40
0.24
 71
     3
340
12
 62
   256
 40
0.24
 90
        1
 40
0.75
 90
        1
300
%<\AcVar ViewType \f "%tc1">% %<\AcVar ViewSectionStartId>%-%<\AcVar ViewSectionEndId>%\PSCALE %<\AcVar ViewScale \f "%sn">%
 71
     4
 62
   256
 62
   257
300
ANSI31
 40
1.0
 90
        0
290
     0
290
     0
 90
        6
 40
0.0
 40
1.570796326794897
 40
0.2617993877991494
 40
1.308996938995747
 40
-0.2617993877991494
 40
1.832595714594046
  0
TABLESTYLE
  5
295
102
{ACAD_REACTORS
330
294
102
}
102
{ACAD_XDICTIONARY
360
349
102
}
330
294
100
AcDbTableStyle
  3
Standard
 70
     0
 71
     0
 40
0.06
 41
0.06
280
     0
281
     0
  7
STANDARD
140
0.18
170
     2
 62
     0
 63
   257
283
     0
 90
      512
 91
        0
  1

274
    -2
284
     1
 64
     0
275
    -2
285
     1
 65
     0
276
    -2
286
     1
 66
     0
277
    -2
287
     1
 67
     0
278
    -2
288
     1
 68
     0
279
    -2
289
     1
 69
     0
  7
STANDARD
140
0.25
170
     5
 62
     0
 63
   257
283
     0
 90
      512
 91
        0
  1

274
    -2
284
     1
 64
     0
275
    -2
285
     1
 65
     0
276
    -2
286
     1
 66
     0
277
    -2
287
     1
 67
     0
278
    -2
288
     1
 68
     0
279
    -2
289
     1
 69
     0
  7
STANDARD
140
0.18
170
     5
 62
     0
 63
   257
283
     0
 90
      512
 91
        0
  1

274
    -2
284
     1
 64
     0
275
    -2
285
     1
 65
     0
276
    -2
286
     1
 66
     0
277
    -2
287
     1
 67
     0
278
    -2
288
     1
 68
     0
279
    -2
289
     1
 69
     0
  0
VISUALSTYLE
  5
280
102
{ACAD_REACTORS
330
27B
102
}
330
27B
100
AcDbVisualStyle
  2
2dWireframe
 70
     4
177
     3
291
     0
 70
    58
 90
        0
176
     1
 90
        2
176
     1
 90
        0
176
     1
 90
        0
176
     1
 40
0.6
176
     1
 40
30.0
176
     1
 62
     7
420
 16777215
176
     1
 90
        1
176
     1
 90
        4
176
     1
 62
     7
176
     1
 62
   257
176
     1
 90
        1
176
     1
 90
        1
176
     1
 40
1.0
176
     1
 90
        0
176
     1
 62
   257
176
     1
 40
1.0
176
     1
 90
        1
176
     1
 90
        6
176
     1
 90
        2
176
     1
 62
     7
176
     1
 90
        5
176
     1
 90
        0
176
     1
 90
        0
176
     1
290
     0
176
     1
 90
        1
176
     1
 40
0.0
176
     1
 90
        0
176
     1
290
     1
176
     1
290
     1
176
     1
290
     0
176
     1
290
     0
176
     1
290
     0
176
     1
290
     0
176
     1
290
     0
176
     1
290
     0
176
     1
290
     0
176
     1
 90
       50
176
     1
 40
0.0
176
     1
 40
1.0
176
     1
 90
        0
176
     1
 62
    18
420
        0
176
     1
 90
       50
176
     1
 90
        3
176
     1
 62
     5
420
      255
176
     1
290
     0
176
     1
 90
       50
176
     1
 90
       50
176
     1
 90
       50
176
     1
290
     0
176
     1
 90
       50
176
     1
 62
   256
176
     0
 40
1.0
176
     0
 90
        2
176
     1
  1
strokes_ogs.tif
176
     1
290
     0
176
     1
 40
1.0
176
     1
 40
1.0
176
     1
  0
VISUALSTYLE
  5
283
102
{ACAD_REACTORS
330
27B
102
}
330
27B
100
AcDbVisualStyle
  2
Basic
 70
     7
177
     3
291
     1
 70
    58
 90
        1
176
     1
 90
        0
176
     1
 90
        1
176
     1
 90
        0
176
     1
 40
0.6
176
     1
 40
30.0
176
     1
 62
     7
420
 16777215
176
     1
 90
        0
176
     1
 90
        4
176
     1
 62
     7
176
     1
 62
   257
176
     1
 90
        1
176
     1
 90
        1
176
     1
 40
1.0
176
     1
 90
        8
176
     1
 62
     7
176
     1
 40
1.0
176
     1
 90
        1
176
     1
 90
        6
176
     1
 90
        2
176
     1
 62
     7
176
     1
 90
        5
176
     1
 90
        0
176
     1
 90
        0
176
     1
290
     0
176
     1
 90
        1
176
     1
 40
0.0
176
     1
 90
        0
176
     1
290
     0
176
     1
290
     1
176
     1
290
     1
176
     1
290
     0
176
     1
290
     0
176
     1
290
     0
176
     1
290
     0
176
     1
290
     0
176
     1
290
     0
176
     1
 90
       50
176
     1
 40
0.0
176
     1
 40
1.0
176
     1
 90
        0
176
     1
 62
    18
420
        0
176
     1
 90
       50
176
     1
 90
        3
176
     1
 62
     5
420
      255
176
     1
290
     0
176
     1
 90
       50
176
     1
 90
       50
176
     1
 90
       50
176
     1
290
     0
176
     1
 90
       50
176
     1
 62
   256
176
     0
 40
1.0
176
     0
 90
        2
176
     1
  1
strokes_ogs.tif
176
     1
290
     0
176
     1
 40
1.0
176
     1
 40
1.0
176
     1
  0
VISUALSTYLE
  5
287
102
{ACAD_REACTORS
330
27B
102
}
330
27B
100
AcDbVisualStyle
  2
Brighten
 70
    12
177
     3
291
     1
 70
    58
 90
        2
176
     1
 90
        2
176
     1
 90
        0
176
     1
 90
        0
176
     1
 40
0.6
176
     1
 40
30.0
176
     1
 62
     7
420
 16777215
176
     1
 90
        1
176
     1
 90
        4
176
     1
 62
     7
176
     1
 62
   257
176
     1
 90
        1
176
     1
 90
        1
176
     1
 40
1.0
176
     1
 90
        8
176
     1
 62
     7
176
     1
 40
1.0
176
     1
 90
        1
176
     1
 90
        6
176
     1
 90
        2
176
     1
 62
     7
176
     1
 90
        5
176
     1
 90
        0
176
     1
 90
        0
176
     1
290
     0
176
     1
 90
        1
176
     1
 40
50.0
176
     1
 90
        0
176
     1
290
     0
176
     1
290
     1
176
     1
290
     1
176
     1
290
     0
176
     1
290
     0
176
     1
290
     0
176
     1
290
     0
176
     1
290
     0
176
     1
290
     0
176
     1
 90
       50
176
     1
 40
0.0
176
     1
 40
1.0
176
     1
 90
        0
176
     1
 62
    18
420
        0
176
     1
 90
       50
176
     1
 90
        3
176
     1
 62
     5
420
      255
176
     1
290
     0
176
     1
 90
       50
176
     1
 90
       50
176
     1
 90
       50
176
     1
290
     0
176
     1
 90
       50
176
     1
 62
   256
176
     0
 40
1.0
176
     0
 90
        2
176
     1
  1
strokes_ogs.tif
176
     1
290
     0
176
     1
 40
1.0
176
     1
 40
1.0
176
     1
  0
VISUALSTYLE
  5
28B
102
{ACAD_REACTORS
330
27B
102
}
330
27B
100
AcDbVisualStyle
  2
ColorChange
 70
    16
177
     3
291
     1
 70
    58
 90
        2
176
     1
 90
        2
176
     1
 90
        3
176
     1
 90
        0
176
     1
 40
0.6
176
     1
 40
30.0
176
     1
 62
     8
420
  8421504
176
     1
 90
        1
176
     1
 90
        4
176
     1
 62
     7
176
     1
 62
   257
176
     1
 90
        1
176
     1
 90
        1
176
     1
 40
1.0
176
     1
 90
        8
176
     1
 62
     8
420
  8421504
176
     1
 40
1.0
176
     1
 90
        1
176
     1
 90
        6
176
     1
 90
        2
176
     1
 62
     7
176
     1
 90
        5
176
     1
 90
        0
176
     1
 90
        0
176
     1
290
     0
176
     1
 90
        1
176
     1
 40
0.0
176
     1
 90
        0
176
     1
290
     0
176
     1
290
     1
176
     1
290
     1
176
     1
290
     0
176
     1
290
     0
176
     1
290
     0
176
     1
290
     0
176
     1
290
     0
176
     1
290
     0
176
     1
 90
       50
176
     1
 40
0.0
176
     1
 40
1.0
176
     1
 90
        0
176
     1
 62
    18
420
        0
176
     1
 90
       50
176
     1
 90
        3
176
     1
 62
     5
420
      255
176
     1
290
     0
176
     1
 90
       50
176
     1
 90
       50
176
     1
 90
       50
176
     1
290
     0
176
     1
 90
       50
176
     1
 62
   256
176
     0
 40
1.0
176
     0
 90
        2
176
     1
  1
strokes_ogs.tif
176
     1
290
     0
176
     1
 40
1.0
176
     1
 40
1.0
176
     1
  0
VISUALSTYLE
  5
285
102
{ACAD_REACTORS
330
27B
102
}
330
27B
100
AcDbVisualStyle
  2
Conceptual
 70
     9
177
     3
291
     0
 70
    58
 90
        3
176
     1
 90
        2
176
     1
 90
        0
176
     1
 90
        0
176
     1
 40
0.6
176
     1
 40
30.0
176
     1
 62
     7
420
 16777215
176
     1
 90
        2
176
     1
 90
        2
176
     1
 62
     7
176
     1
 62
   257
176
     1
 90
        1
176
     1
 90
        1
176
     1
 40
40.0
176
     1
 90
        8
176
     1
 62
     7
176
     1
 40
1.0
176
     1
 90
        1
176
     1
 90
        6
176
     1
 90
        2
176
     1
 62
     7
176
     1
 90
        3
176
     1
 90
        0
176
     1
 90
        0
176
     1
290
     0
176
     1
 90
        1
176
     1
 40
0.0
176
     1
 90
        0
176
     1
290
     0
176
     1
290
     1
176
     1
290
     1
176
     1
290
     0
176
     1
290
     0
176
     1
290
     0
176
     1
290
     0
176
     1
290
     0
176
     1
290
     0
176
     1
 90
       50
176
     1
 40
0.0
176
     1
 40
1.0
176
     1
 90
        0
176
     1
 62
    18
420
        0
176
     1
 90
       50
176
     1
 90
        3
176
     1
 62
     5
420
      255
176
     1
290
     0
176
     1
 90
       50
176
     1
 90
       50
176
     1
 90
       50
176
     1
290
     0
176
     1
 90
       50
176
     1
 62
   256
176
     0
 40
1.0
176
     0
 90
        2
176
     1
  1
strokes_ogs.tif
176
     1
290
     0
176
     1
 40
1.0
176
     1
 40
1.0
176
     1
  0
VISUALSTYLE
  5
286
102
{ACAD_REACTORS
330
27B
102
}
330
27B
100
AcDbVisualStyle
  2
Dim
 70
    11
177
     3
291
     1
 70
    58
 90
        2
176
     1
 90
        2
176
     1
 90
        0
176
     1
 90
        0
176
     1
 40
0.6
176
     1
 40
30.0
176
     1
 62
     7
420
 16777215
176
     1
 90
        1
176
     1
 90
        4
176
     1
 62
     7
176
     1
 62
   257
176
     1
 90
        1
176
     1
 90
        1
176
     1
 40
1.0
176
     1
 90
        8
176
     1
 62
     7
176
     1
 40
1.0
176
     1
 90
        1
176
     1
 90
        6
176
     1
 90
        2
176
     1
 62
     7
176
     1
 90
        5
176
     1
 90
        0
176
     1
 90
        0
176
     1
290
     0
176
     1
 90
        1
176
     1
 40
-50.0
176
     1
 90
        0
176
     1
290
     0
176
     1
290
     1
176
     1
290
     1
176
     1
290
     0
176
     1
290
     0
176
     1
290
     0
176
     1
290
     0
176
     1
290
     0
176
     1
290
     0
176
     1
 90
       50
176
     1
 40
0.0
176
     1
 40
1.0
176
     1
 90
        0
176
     1
 62
    18
420
        0
176
     1
 90
       50
176
     1
 90
        3
176
     1
 62
     5
420
      255
176
     1
290
     0
176
     1
 90
       50
176
     1
 90
       50
176
     1
 90
       50
176
     1
290
     0
176
     1
 90
       50
176
     1
 62
   256
176
     0
 40
1.0
176
     0
 90
        2
176
     1
  1
strokes_ogs.tif
176
     1
290
     0
176
     1
 40
1.0
176
     1
 40
1.0
176
     1
  0
VISUALSTYLE
  5
28E
102
{ACAD_REACTORS
330
27B
102
}
330
27B
100
AcDbVisualStyle
  2
EdgeColorOff
 70
    22
177
     3
291
     1
 70
    58
 90
        2
176
     0
 90
        2
176
     0
 90
        0
176
     0
 90
        0
176
     0
 40
0.6
176
     0
 40
30.0
176
     0
 62
     7
420
 16777215
176
     0
 90
        1
176
     0
 90
        4
176
     0
 62
     7
176
     0
 62
   257
176
     0
 90
        1
176
     0
 90
        1
176
     0
 40
1.0
176
     0
 90
        8
176
     0
 62
     7
176
     0
 40
1.0
176
     0
 90
        1
176
     0
 90
        6
176
     0
 90
        2
176
     0
 62
     7
176
     0
 90
        5
176
     0
 90
        0
176
     0
 90
        0
176
     0
290
     0
176
     0
 90
        1
176
     0
 40
0.0
176
     0
 90
        0
176
     0
290
     0
176
     1
290
     1
176
     1
290
     1
176
     1
290
     0
176
     1
290
     0
176
     1
290
     0
176
     1
290
     0
176
     1
290
     0
176
     1
290
     0
176
     1
 90
       50
176
     1
 40
0.0
176
     1
 40
1.0
176
     1
 90
        0
176
     1
 62
    18
420
        0
176
     1
 90
       50
176
     1
 90
        3
176
     1
 62
     5
420
      255
176
     1
290
     0
176
     1
 90
       50
176
     1
 90
       50
176
     1
 90
       50
176
     1
290
     0
176
     1
 90
       50
176
     1
 62
   256
176
     0
 40
1.0
176
     0
 90
        2
176
     1
  1
strokes_ogs.tif
176
     1
290
     0
176
     1
 40
1.0
176
     1
 40
1.0
176
     1
  0
VISUALSTYLE
  5
28A
102
{ACAD_REACTORS
330
27B
102
}
330
27B
100
AcDbVisualStyle
  2
Facepattern
 70
    15
177
     3
291
     1
 70
    58
 90
        2
176
     1
 90
        2
176
     1
 90
        0
176
     1
 90
        0
176
     1
 40
0.6
176
     1
 40
30.0
176
     1
 62
     7
420
 16777215
176
     1
 90
        1
176
     1
 90
        4
176
     1
 62
     7
176
     1
 62
   257
176
     1
 90
        1
176
     1
 90
        1
176
     1
 40
1.0
176
     1
 90
        8
176
     1
 62
     7
176
     1
 40
1.0
176
     1
 90
        1
176
     1
 90
        6
176
     1
 90
        2
176
     1
 62
     7
176
     1
 90
        5
176
     1
 90
        0
176
     1
 90
        0
176
     1
290
     0
176
     1
 90
        1
176
     1
 40
0.0
176
     1
 90
        0
176
     1
290
     0
176
     1
290
     1
176
     1
290
     1
176
     1
290
     0
176
     1
290
     0
176
     1
290
     0
176
     1
290
     0
176
     1
290
     0
176
     1
290
     0
176
     1
 90
       50
176
     1
 40
0.0
176
     1
 40
1.0
176
     1
 90
        0
176
     1
 62
    18
420
        0
176
     1
 90
       50
176
     1
 90
        3
176
     1
 62
     5
420
      255
176
     1
290
     0
176
     1
 90
       50
176
     1
 90
       50
176
     1
 90
       50
176
     1
290
     0
176
     1
 90
       50
176
     1
 62
   256
176
     0
 40
1.0
176
     0
 90
        2
176
     1
  1
strokes_ogs.tif
176
     1
290
     0
176
     1
 40
1.0
176
     1
 40
1.0
176
     1
  0
VISUALSTYLE
  5
27C
102
{ACAD_REACTORS
330
27B
102
}
330
27B
100
AcDbVisualStyle
  2
Flat
 70
     0
177
     3
291
     1
 70
    58
 90
        2
176
     1
 90
        1
176
     1
 90
        1
176
     1
 90
        2
176
     1
 40
0.6
176
     1
 40
30.0
176
     1
 62
     7
420
 16777215
176
     1
 90
        0
176
     1
 90
        4
176
     1
 62
     7
176
     1
 62
   257
176
     1
 90
        1
176
     1
 90
        1
176
     1
 40
1.0
176
     1
 90
        8
176
     1
 62
     7
176
     1
 40
1.0
176
     1
 90
        1
176
     1
 90
        6
176
     1
 90
        2
176
     1
 62
     7
176
     1
 90
        5
176
     1
 90
        0
176
     1
 90
        0
176
     1
290
     0
176
     1
 90
       13
176
     1
 40
0.0
176
     1
 90
        0
176
     1
290
     0
176
     1
290
     1
176
     1
290
     1
176
     1
290
     0
176
     1
290
     0
176
     1
290
     0
176
     1
290
     0
176
     1
290
     0
176
     1
290
     0
176
     1
 90
       50
176
     1
 40
0.0
176
     1
 40
1.0
176
     1
 90
        0
176
     1
 62
    18
420
        0
176
     1
 90
       50
176
     1
 90
        3
176
     1
 62
     5
420
      255
176
     1
290
     0
176
     1
 90
       50
176
     1
 90
       50
176
     1
 90
       50
176
     1
290
     0
176
     1
 90
       50
176
     1
 62
   256
176
     0
 40
1.0
176
     0
 90
        2
176
     1
  1
strokes_ogs.tif
176
     1
290
     0
176
     1
 40
1.0
176
     1
 40
1.0
176
     1
  0
VISUALSTYLE
  5
27D
102
{ACAD_REACTORS
330
27B
102
}
330
27B
100
AcDbVisualStyle
  2
FlatWithEdges
 70
     1
177
     3
291
     1
 70
    58
 90
        2
176
     1
 90
        1
176
     1
 90
        1
176
     1
 90
        2
176
     1
 40
0.6
176
     1
 40
30.0
176
     1
 62
     7
420
 16777215
176
     1
 90
        1
176
     1
 90
        4
176
     1
 62
     7
176
     1
 62
   257
176
     1
 90
        1
176
     1
 90
        1
176
     1
 40
1.0
176
     1
 90
        0
176
     1
 62
   257
176
     1
 40
1.0
176
     1
 90
        1
176
     1
 90
        6
176
     1
 90
        2
176
     1
 62
     7
176
     1
 90
        5
176
     1
 90
        0
176
     1
 90
        0
176
     1
290
     0
176
     1
 90
       13
176
     1
 40
0.0
176
     1
 90
        0
176
     1
290
     0
176
     1
290
     1
176
     1
290
     1
176
     1
290
     0
176
     1
290
     0
176
     1
290
     0
176
     1
290
     0
176
     1
290
     0
176
     1
290
     0
176
     1
 90
       50
176
     1
 40
0.0
176
     1
 40
1.0
176
     1
 90
        0
176
     1
 62
    18
420
        0
176
     1
 90
       50
176
     1
 90
        3
176
     1
 62
     5
420
      255
176
     1
290
     0
176
     1
 90
       50
176
     1
 90
       50
176
     1
 90
       50
176
     1
290
     0
176
     1
 90
       50
176
     1
 62
   256
176
     0
 40
1.0
176
     0
 90
        2
176
     1
  1
strokes_ogs.tif
176
     1
290
     0
176
     1
 40
1.0
176
     1
 40
1.0
176
     1
  0
VISUALSTYLE
  5
27E
102
{ACAD_REACTORS
330
27B
102
}
330
27B
100
AcDbVisualStyle
  2
Gouraud
 70
     2
177
     3
291
     1
 70
    58
 90
        2
176
     1
 90
        2
176
     1
 90
        1
176
     1
 90
        2
176
     1
 40
0.6
176
     1
 40
30.0
176
     1
 62
     7
420
 16777215
176
     1
 90
        0
176
     1
 90
        4
176
     1
 62
     7
176
     1
 62
   257
176
     1
 90
        1
176
     1
 90
        1
176
     1
 40
1.0
176
     1
 90
        0
176
     1
 62
     7
176
     1
 40
1.0
176
     1
 90
        1
176
     1
 90
        6
176
     1
 90
        2
176
     1
 62
     7
176
     1
 90
        5
176
     1
 90
        0
176
     1
 90
        0
176
     1
290
     0
176
     1
 90
       13
176
     1
 40
0.0
176
     1
 90
        0
176
     1
290
     0
176
     1
290
     1
176
     1
290
     1
176
     1
290
     0
176
     1
290
     0
176
     1
290
     0
176
     1
290
     0
176
     1
290
     0
176
     1
290
     0
176
     1
 90
       50
176
     1
 40
0.0
176
     1
 40
1.0
176
     1
 90
        0
176
     1
 62
    18
420
        0
176
     1
 90
       50
176
     1
 90
        3
176
     1
 62
     5
420
      255
176
     1
290
     0
176
     1
 90
       50
176
     1
 90
       50
176
     1
 90
       50
176
     1
290
     0
176
     1
 90
       50
176
     1
 62
   256
176
     0
 40
1.0
176
     0
 90
        2
176
     1
  1
strokes_ogs.tif
176
     1
290
     0
176
     1
 40
1.0
176
     1
 40
1.0
176
     1
  0
VISUALSTYLE
  5
27F
102
{ACAD_REACTORS
330
27B
102
}
330
27B
100
AcDbVisualStyle
  2
GouraudWithEdges
 70
     3
177
     3
291
     1
 70
    58
 90
        2
176
     1
 90
        2
176
     1
 90
        1
176
     1
 90
        2
176
     1
 40
0.6
176
     1
 40
30.0
176
     1
 62
     7
420
 16777215
176
     1
 90
        1
176
     1
 90
        4
176
     1
 62
     7
176
     1
 62
   257
176
     1
 90
        1
176
     1
 90
        1
176
     1
 40
1.0
176
     1
 90
        0
176
     1
 62
   257
176
     1
 40
1.0
176
     1
 90
        1
176
     1
 90
        6
176
     1
 90
        2
176
     1
 62
     7
176
     1
 90
        5
176
     1
 90
        0
176
     1
 90
        0
176
     1
290
     0
176
     1
 90
       13
176
     1
 40
0.0
176
     1
 90
        0
176
     1
290
     0
176
     1
290
     1
176
     1
290
     1
176
     1
290
     0
176
     1
290
     0
176
     1
290
     0
176
     1
290
     0
176
     1
290
     0
176
     1
290
     0
176
     1
 90
       50
176
     1
 40
0.0
176
     1
 40
1.0
176
     1
 90
        0
176
     1
 62
    18
420
        0
176
     1
 90
       50
176
     1
 90
        3
176
     1
 62
     5
420
      255
176
     1
290
     0
176
     1
 90
       50
176
     1
 90
       50
176
     1
 90
       50
176
     1
290
     0
176
     1
 90
       50
176
     1
 62
   256
176
     0
 40
1.0
176
     0
 90
        2
176
     1
  1
strokes_ogs.tif
176
     1
290
     0
176
     1
 40
1.0
176
     1
 40
1.0
176
     1
  0
VISUALSTYLE
  5
282
102
{ACAD_REACTORS
330
27B
102
}
330
27B
100
AcDbVisualStyle
  2
Hidden
 70
     6
177
     3
291
     0
 70
    58
 90
        1
176
     1
 90
        2
176
     1
 90
        2
176
     1
 90
        0
176
     1
 40
0.6
176
     1
 40
30.0
176
     1
 62
     7
420
 16777215
176
     1
 90
        2
176
     1
 90
        2
176
     1
 62
     7
176
     1
 62
   257
176
     1
 90
        2
176
     1
 90
        1
176
     1
 40
40.0
176
     1
 90
        0
176
     1
 62
   257
176
     1
 40
1.0
176
     1
 90
        1
176
     1
 90
        6
176
     1
 90
        2
176
     1
 62
     7
176
     1
 90
        3
176
     1
 90
        0
176
     1
 90
        0
176
     1
290
     0
176
     1
 90
        1
176
     1
 40
0.0
176
     1
 90
        0
176
     1
290
     0
176
     1
290
     1
176
     1
290
     1
176
     1
290
     0
176
     1
290
     0
176
     1
290
     0
176
     1
290
     0
176
     1
290
     0
176
     1
290
     0
176
     1
 90
       50
176
     1
 40
0.0
176
     1
 40
1.0
176
     1
 90
        0
176
     1
 62
    18
420
        0
176
     1
 90
       50
176
     1
 90
        3
176
     1
 62
     5
420
      255
176
     1
290
     0
176
     1
 90
       50
176
     1
 90
       50
176
     1
 90
       50
176
     1
290
     0
176
     1
 90
       50
176
     1
 62
   256
176
     0
 40
1.0
176
     0
 90
        2
176
     1
  1
strokes_ogs.tif
176
     1
290
     0
176
     1
 40
1.0
176
     1
 40
1.0
176
     1
  0
VISUALSTYLE
  5
28C
102
{ACAD_REACTORS
330
27B
102
}
330
27B
100
AcDbVisualStyle
  2
JitterOff
 70
    20
177
     3
291
     1
 70
    58
 90
        2
176
     0
 90
        2
176
     0
 90
        0
176
     0
 90
        0
176
     0
 40
0.6
176
     0
 40
30.0
176
     0
 62
     7
420
 16777215
176
     0
 90
        1
176
     0
 90
        4
176
     0
 62
     7
176
     0
 62
   257
176
     0
 90
        1
176
     0
 90
        1
176
     0
 40
1.0
176
     0
 90
       10
176
     0
 62
     7
176
     0
 40
1.0
176
     0
 90
        1
176
     0
 90
        6
176
     0
 90
        2
176
     0
 62
     7
176
     0
 90
        5
176
     0
 90
        0
176
     0
 90
        0
176
     0
290
     0
176
     0
 90
        1
176
     0
 40
0.0
176
     0
 90
        0
176
     0
290
     0
176
     1
290
     1
176
     1
290
     1
176
     1
290
     0
176
     1
290
     0
176
     1
290
     0
176
     1
290
     0
176
     1
290
     0
176
     1
290
     0
176
     1
 90
       50
176
     1
 40
0.0
176
     1
 40
1.0
176
     1
 90
        0
176
     1
 62
    18
420
        0
176
     1
 90
       50
176
     1
 90
        3
176
     1
 62
     5
420
      255
176
     1
290
     0
176
     1
 90
       50
176
     1
 90
       50
176
     1
 90
       50
176
     1
290
     0
176
     1
 90
       50
176
     1
 62
   256
176
     0
 40
1.0
176
     0
 90
        2
176
     1
  1
strokes_ogs.tif
176
     1
290
     0
176
     1
 40
1.0
176
     1
 40
1.0
176
     1
  0
VISUALSTYLE
  5
289
102
{ACAD_REACTORS
330
27B
102
}
330
27B
100
AcDbVisualStyle
  2
Linepattern
 70
    14
177
     3
291
     1
 70
    58
 90
        2
176
     1
 90
        2
176
     1
 90
        0
176
     1
 90
        0
176
     1
 40
0.6
176
     1
 40
30.0
176
     1
 62
     7
420
 16777215
176
     1
 90
        1
176
     1
 90
        4
176
     1
 62
     7
176
     1
 62
   257
176
     1
 90
        7
176
     1
 90
        7
176
     1
 40
1.0
176
     1
 90
        8
176
     1
 62
     7
176
     1
 40
1.0
176
     1
 90
        1
176
     1
 90
        6
176
     1
 90
        2
176
     1
 62
     7
176
     1
 90
        5
176
     1
 90
        0
176
     1
 90
        0
176
     1
290
     0
176
     1
 90
        1
176
     1
 40
0.0
176
     1
 90
        0
176
     1
290
     0
176
     1
290
     1
176
     1
290
     1
176
     1
290
     0
176
     1
290
     0
176
     1
290
     0
176
     1
290
     0
176
     1
290
     0
176
     1
290
     0
176
     1
 90
       50
176
     1
 40
0.0
176
     1
 40
1.0
176
     1
 90
        0
176
     1
 62
    18
420
        0
176
     1
 90
       50
176
     1
 90
        3
176
     1
 62
     5
420
      255
176
     1
290
     0
176
     1
 90
       50
176
     1
 90
       50
176
     1
 90
       50
176
     1
290
     0
176
     1
 90
       50
176
     1
 62
   256
176
     0
 40
1.0
176
     0
 90
        2
176
     1
  1
strokes_ogs.tif
176
     1
290
     0
176
     1
 40
1.0
176
     1
 40
1.0
176
     1
  0
VISUALSTYLE
  5
28D
102
{ACAD_REACTORS
330
27B
102
}
330
27B
100
AcDbVisualStyle
  2
OverhangOff
 70
    21
177
     3
291
     1
 70
    58
 90
        2
176
     0
 90
        2
176
     0
 90
        0
176
     0
 90
        0
176
     0
 40
0.6
176
     0
 40
30.0
176
     0
 62
     7
420
 16777215
176
     0
 90
        1
176
     0
 90
        4
176
     0
 62
     7
176
     0
 62
   257
176
     0
 90
        1
176
     0
 90
        1
176
     0
 40
1.0
176
     0
 90
        9
176
     0
 62
     7
176
     0
 40
1.0
176
     0
 90
        1
176
     0
 90
        6
176
     0
 90
        2
176
     0
 62
     7
176
     0
 90
        5
176
     0
 90
        0
176
     0
 90
        0
176
     0
290
     0
176
     0
 90
        1
176
     0
 40
0.0
176
     0
 90
        0
176
     0
290
     0
176
     1
290
     1
176
     1
290
     1
176
     1
290
     0
176
     1
290
     0
176
     1
290
     0
176
     1
290
     0
176
     1
290
     0
176
     1
290
     0
176
     1
 90
       50
176
     1
 40
0.0
176
     1
 40
1.0
176
     1
 90
        0
176
     1
 62
    18
420
        0
176
     1
 90
       50
176
     1
 90
        3
176
     1
 62
     5
420
      255
176
     1
290
     0
176
     1
 90
       50
176
     1
 90
       50
176
     1
 90
       50
176
     1
290
     0
176
     1
 90
       50
176
     1
 62
   256
176
     0
 40
1.0
176
     0
 90
        2
176
     1
  1
strokes_ogs.tif
176
     1
290
     0
176
     1
 40
1.0
176
     1
 40
1.0
176
     1
  0
VISUALSTYLE
  5
284
102
{ACAD_REACTORS
330
27B
102
}
330
27B
100
AcDbVisualStyle
  2
Realistic
 70
     8
177
     3
291
     0
 70
    58
 90
        2
176
     1
 90
        3
176
     1
 90
        0
176
     1
 90
        2
176
     1
 40
0.6
176
     1
 40
30.0
176
     1
 62
     7
420
 16777215
176
     1
 90
        0
176
     1
 90
        0
176
     1
 62
     7
176
     1
 62
   257
176
     1
 90
        1
176
     1
 90
        1
176
     1
 40
1.0
176
     1
 90
        8
176
     1
 62
   257
176
     1
 40
1.0
176
     1
 90
        1
176
     1
 90
        6
176
     1
 90
        2
176
     1
 62
     7
176
     1
 90
        3
176
     1
 90
        0
176
     1
 90
        0
176
     1
290
     0
176
     1
 90
       13
176
     1
 40
0.0
176
     1
 90
        0
176
     1
290
     0
176
     1
290
     1
176
     1
290
     1
176
     1
290
     0
176
     1
290
     0
176
     1
290
     0
176
     1
290
     0
176
     1
290
     0
176
     1
290
     0
176
     1
 90
       50
176
     1
 40
0.0
176
     1
 40
1.0
176
     1
 90
        0
176
     1
 62
    18
420
        0
176
     1
 90
       50
176
     1
 90
        3
176
     1
 62
     5
420
      255
176
     1
290
     0
176
     1
 90
       50
176
     1
 90
       50
176
     1
 90
       50
176
     1
290
     0
176
     1
 90
       50
176
     1
 62
   256
176
     0
 40
1.0
176
     0
 90
        2
176
     1
  1
strokes_ogs.tif
176
     1
290
     0
176
     1
 40
1.0
176
     1
 40
1.0
176
     1
  0
VISUALSTYLE
  5
293
102
{ACAD_REACTORS
330
27B
102
}
330
27B
100
AcDbVisualStyle
  2
Shaded
 70
    27
177
     3
291
     0
 70
    58
 90
        2
176
     1
 90
        2
176
     1
 90
        1
176
     1
 90
        2
176
     1
 40
0.6
176
     1
 40
30.0
176
     1
 62
     7
420
 16777215
176
     1
 90
        0
176
     1
 90
        4
176
     1
 62
     7
176
     1
 62
   257
176
     1
 90
        1
176
     1
 90
        1
176
     1
 40
1.0
176
     1
 90
        8
176
     1
 62
   257
176
     1
 40
1.0
176
     1
 90
        1
176
     1
 90
        6
176
     1
 90
        2
176
     1
 62
   251
420
  5131854
176
     1
 90
        3
176
     1
 90
        0
176
     1
 90
        0
176
     1
290
     0
176
     1
 90
        5
176
     1
 40
0.0
176
     1
 90
        0
176
     1
290
     0
176
     1
290
     1
176
     1
290
     1
176
     1
290
     0
176
     1
290
     0
176
     1
290
     0
176
     1
290
     0
176
     1
290
     0
176
     1
290
     0
176
     1
 90
       50
176
     1
 40
0.0
176
     1
 40
1.0
176
     1
 90
        0
176
     1
 62
    18
420
        0
176
     1
 90
       50
176
     1
 90
        3
176
     1
 62
     5
420
      255
176
     1
290
     0
176
     1
 90
       50
176
     1
 90
       50
176
     1
 90
       50
176
     1
290
     0
176
     1
 90
       50
176
     1
 62
   256
176
     0
 40
1.0
176
     0
 90
        2
176
     1
  1
strokes_ogs.tif
176
     1
290
     0
176
     1
 40
1.0
176
     1
 40
1.0
176
     1
  0
VISUALSTYLE
  5
292
102
{ACAD_REACTORS
330
27B
102
}
330
27B
100
AcDbVisualStyle
  2
Shaded with edges
 70
    26
177
     3
291
     0
 70
    58
 90
        2
176
     1
 90
        2
176
     1
 90
        1
176
     1
 90
        2
176
     1
 40
0.6
176
     1
 40
30.0
176
     1
 62
     7
420
 16777215
176
     1
 90
        1
176
     1
 90
       10
176
     1
 62
     7
176
     1
 62
   257
176
     1
 90
        2
176
     1
 90
        1
176
     1
 40
1.0
176
     1
 90
        8
176
     1
 62
   257
176
     1
 40
1.0
176
     1
 90
        1
176
     1
 90
        6
176
     1
 90
        2
176
     1
 62
     7
176
     1
 90
        3
176
     1
 90
        0
176
     1
 90
        0
176
     1
290
     0
176
     1
 90
        5
176
     1
 40
0.0
176
     1
 90
        0
176
     1
290
     0
176
     1
290
     1
176
     1
290
     1
176
     1
290
     0
176
     1
290
     0
176
     1
290
     0
176
     1
290
     0
176
     1
290
     0
176
     1
290
     0
176
     1
 90
       50
176
     1
 40
0.0
176
     1
 40
1.0
176
     1
 90
        0
176
     1
 62
    18
420
        0
176
     1
 90
       50
176
     1
 90
        3
176
     1
 62
     5
420
      255
176
     1
290
     0
176
     1
 90
       50
176
     1
 90
       50
176
     1
 90
       50
176
     1
290
     0
176
     1
 90
       50
176
     1
 62
   256
176
     0
 40
1.0
176
     0
 90
        2
176
     1
  1
strokes_ogs.tif
176
     1
290
     0
176
     1
 40
1.0
176
     1
 40
1.0
176
     1
  0
VISUALSTYLE
  5
28F
102
{ACAD_REACTORS
330
27B
102
}
330
27B
100
AcDbVisualStyle
  2
Shades of Gray
 70
    23
177
     3
291
     0
 70
    58
 90
        2
176
     1
 90
        2
176
     1
 90
        3
176
     1
 90
        0
176
     1
 40
0.6
176
     1
 40
30.0
176
     1
 62
     7
420
 16777215
176
     1
 90
        2
176
     1
 90
        2
176
     1
 62
     7
176
     1
 62
     7
176
     1
 90
        1
176
     1
 90
        1
176
     1
 40
40.0
176
     1
 90
        8
176
     1
 62
     7
176
     1
 40
1.0
176
     1
 90
        1
176
     1
 90
        6
176
     1
 90
        2
176
     1
 62
     7
176
     1
 90
        3
176
     1
 90
        0
176
     1
 90
        0
176
     1
290
     0
176
     1
 90
        1
176
     1
 40
0.0
176
     1
 90
        0
176
     1
290
     0
176
     1
290
     1
176
     1
290
     1
176
     1
290
     0
176
     1
290
     0
176
     1
290
     0
176
     1
290
     0
176
     1
290
     0
176
     1
290
     0
176
     1
 90
       50
176
     1
 40
0.0
176
     1
 40
1.0
176
     1
 90
        0
176
     1
 62
    18
420
        0
176
     1
 90
       50
176
     1
 90
        3
176
     1
 62
     5
420
      255
176
     1
290
     0
176
     1
 90
       50
176
     1
 90
       50
176
     1
 90
       50
176
     1
290
     0
176
     1
 90
       50
176
     1
 62
   256
176
     0
 40
1.0
176
     0
 90
        2
176
     1
  1
strokes_ogs.tif
176
     1
290
     0
176
     1
 40
1.0
176
     1
 40
1.0
176
     1
  0
VISUALSTYLE
  5
290
102
{ACAD_REACTORS
330
27B
102
}
330
27B
100
AcDbVisualStyle
  2
Sketchy
 70
    24
177
     3
291
     0
 70
    58
 90
        1
176
     1
 90
        2
176
     1
 90
        2
176
     1
 90
        0
176
     1
 40
0.6
176
     1
 40
30.0
176
     1
 62
     7
420
 16777215
176
     1
 90
        2
176
     1
 90
        2
176
     1
 62
     7
176
     1
 62
     7
176
     1
 90
        1
176
     1
 90
        1
176
     1
 40
40.0
176
     1
 90
       11
176
     1
 62
     7
176
     1
 40
1.0
176
     1
 90
        1
176
     1
 90
        6
176
     1
 90
        2
176
     1
 62
     7
176
     1
 90
        6
176
     1
 90
        0
176
     1
 90
        0
176
     1
290
     0
176
     1
 90
        1
176
     1
 40
0.0
176
     1
 90
        0
176
     1
290
     0
176
     1
290
     1
176
     1
290
     1
176
     1
290
     0
176
     1
290
     0
176
     1
290
     0
176
     1
290
     0
176
     1
290
     0
176
     1
290
     0
176
     1
 90
       50
176
     1
 40
0.0
176
     1
 40
1.0
176
     1
 90
        0
176
     1
 62
    18
420
        0
176
     1
 90
       50
176
     1
 90
        3
176
     1
 62
     5
420
      255
176
     1
290
     0
176
     1
 90
       50
176
     1
 90
       50
176
     1
 90
       50
176
     1
290
     0
176
     1
 90
       50
176
     1
 62
   256
176
     0
 40
1.0
176
     0
 90
        2
176
     1
  1
strokes_ogs.tif
176
     1
290
     0
176
     1
 40
1.0
176
     1
 40
1.0
176
     1
  0
VISUALSTYLE
  5
288
102
{ACAD_REACTORS
330
27B
102
}
330
27B
100
AcDbVisualStyle
  2
Thicken
 70
    13
177
     3
291
     1
 70
    58
 90
        2
176
     1
 90
        2
176
     1
 90
        0
176
     1
 90
        0
176
     1
 40
0.6
176
     1
 40
30.0
176
     1
 62
     7
420
 16777215
176
     1
 90
        1
176
     1
 90
        4
176
     1
 62
     7
176
     1
 62
   257
176
     1
 90
        1
176
     1
 90
        1
176
     1
 40
1.0
176
     1
 90
       12
176
     1
 62
     7
176
     1
 40
1.0
176
     1
 90
        1
176
     1
 90
        6
176
     1
 90
        2
176
     1
 62
     7
176
     1
 90
        5
176
     1
 90
        0
176
     1
 90
        0
176
     1
290
     0
176
     1
 90
        1
176
     1
 40
0.0
176
     1
 90
        0
176
     1
290
     0
176
     1
290
     1
176
     1
290
     1
176
     1
290
     0
176
     1
290
     0
176
     1
290
     0
176
     1
290
     0
176
     1
290
     0
176
     1
290
     0
176
     1
 90
       50
176
     1
 40
0.0
176
     1
 40
1.0
176
     1
 90
        0
176
     1
 62
    18
420
        0
176
     1
 90
       50
176
     1
 90
        3
176
     1
 62
     5
420
      255
176
     1
290
     0
176
     1
 90
       50
176
     1
 90
       50
176
     1
 90
       50
176
     1
290
     0
176
     1
 90
       50
176
     1
 62
   256
176
     0
 40
1.0
176
     0
 90
        2
176
     1
  1
strokes_ogs.tif
176
     1
290
     0
176
     1
 40
1.0
176
     1
 40
1.0
176
     1
  0
VISUALSTYLE
  5
281
102
{ACAD_REACTORS
330
27B
102
}
330
27B
100
AcDbVisualStyle
  2
Wireframe
 70
     5
177
     3
291
     0
 70
    58
 90
        0
176
     1
 90
        2
176
     1
 90
        0
176
     1
 90
        0
176
     1
 40
0.6
176
     1
 40
30.0
176
     1
 62
     7
420
 16777215
176
     1
 90
        1
176
     1
 90
        4
176
     1
 62
     7
176
     1
 62
   257
176
     1
 90
        1
176
     1
 90
        1
176
     1
 40
1.0
176
     1
 90
        0
176
     1
 62
   257
176
     1
 40
1.0
176
     1
 90
        1
176
     1
 90
        6
176
     1
 90
        2
176
     1
 62
     7
176
     1
 90
        5
176
     1
 90
        0
176
     1
 90
        0
176
     1
290
     0
176
     1
 90
        1
176
     1
 40
0.0
176
     1
 90
        0
176
     1
290
     0
176
     1
290
     1
176
     1
290
     1
176
     1
290
     0
176
     1
290
     0
176
     1
290
     0
176
     1
290
     0
176
     1
290
     0
176
     1
290
     0
176
     1
 90
       50
176
     1
 40
0.0
176
     1
 40
1.0
176
     1
 90
        0
176
     1
 62
    18
420
        0
176
     1
 90
       50
176
     1
 90
        3
176
     1
 62
     5
420
      255
176
     1
290
     0
176
     1
 90
       50
176
     1
 90
       50
176
     1
 90
       50
176
     1
290
     0
176
     1
 90
       50
176
     1
 62
   256
176
     0
 40
1.0
176
     0
 90
        2
176
     1
  1
strokes_ogs.tif
176
     1
290
     0
176
     1
 40
1.0
176
     1
 40
1.0
176
     1
  0
VISUALSTYLE
  5
291
102
{ACAD_REACTORS
330
27B
102
}
330
27B
100
AcDbVisualStyle
  2
X-Ray
 70
    25
177
     3
291
     0
 70
    58
 90
        2
176
     1
 90
        2
176
     1
 90
        1
176
     1
 90
        1
176
     1
 40
0.5
176
     1
 40
30.0
176
     1
 62
     7
420
 16777215
176
     1
 90
        1
176
     1
 90
        0
176
     1
 62
     7
176
     1
 62
   257
176
     1
 90
        1
176
     1
 90
        1
176
     1
 40
1.0
176
     1
 90
        8
176
     1
 62
     7
176
     1
 40
1.0
176
     1
 90
        1
176
     1
 90
        6
176
     1
 90
        2
176
     1
 62
     7
176
     1
 90
        3
176
     1
 90
        0
176
     1
 90
        0
176
     1
290
     0
176
     1
 90
       13
176
     1
 40
0.0
176
     1
 90
        0
176
     1
290
     0
176
     1
290
     1
176
     1
290
     1
176
     1
290
     0
176
     1
290
     0
176
     1
290
     0
176
     1
290
     0
176
     1
290
     0
176
     1
290
     0
176
     1
 90
       50
176
     1
 40
0.0
176
     1
 40
1.0
176
     1
 90
        0
176
     1
 62
    18
420
        0
176
     1
 90
       50
176
     1
 90
        3
176
     1
 62
     5
420
      255
176
     1
290
     0
176
     1
 90
       50
176
     1
 90
       50
176
     1
 90
       50
176
     1
290
     0
176
     1
 90
       50
176
     1
 62
   256
176
     0
 40
1.0
176
     0
 90
        2
176
     1
  1
strokes_ogs.tif
176
     1
290
     0
176
     1
 40
1.0
176
     1
 40
1.0
176
     1
  0
DICTIONARYVAR
  5
33D
102
{ACAD_REACTORS
330
33C
102
}
330
33C
100
DictionaryVariables
280
     0
  1
1:1
  0
DICTIONARYVAR
  5
343
102
{ACAD_REACTORS
330
33C
102
}
330
33C
100
DictionaryVariables
280
     0
  1
Standard
  0
DICTIONARYVAR
  5
342
102
{ACAD_REACTORS
330
33C
102
}
330
33C
100
DictionaryVariables
280
     0
  1
Standard
  0
DICTIONARYVAR
  5
344
102
{ACAD_REACTORS
330
33C
102
}
330
33C
100
DictionaryVariables
280
     0
  1
0
  0
AMDTSYSATTR
  5
33A
102
{ACAD_REACTORS
330
339
102
}
330
339
  0
AMDTSYSATTR
  5
33B
102
{ACAD_REACTORS
330
339
102
}
330
339
  0
DICTIONARY
  5
2E1
330
2E0
100
AcDbDictionary
280
     1
281
     1
  3
ACAD_XREC_ROUNDTRIP
360
34B
  0
DICTIONARY
  5
2ED
330
2EC
100
AcDbDictionary
280
     1
281
     1
  3
ACAD_XREC_ROUNDTRIP
360
34C
  0
DICTIONARY
  5
349
330
295
100
AcDbDictionary
280
     1
281
     1
  3
ACAD_ROUNDTRIP_2008_TABLESTYLE_CELLSTYLEMAP
360
34A
  0
XRECORD
  5
34B
102
{ACAD_REACTORS
330
2E1
102
}
330
2E1
100
AcDbXrecord
280
     1
102
DISPLAYNAME
  1
Imperial24
102
FLAGS
 90
        0
  0
XRECORD
  5
34C
102
{ACAD_REACTORS
330
2ED
102
}
330
2ED
100
AcDbXrecord
280
     1
102
DISPLAYNAME
  1
Imperial24
102
FLAGS
 90
        0
  0
CELLSTYLEMAP
  5
34A
102
{ACAD_REACTORS
330
349
102
}
330
349
100
AcDbCellStyleMap
 90
        3
300
CELLSTYLE
  1
TABLEFORMAT_BEGIN
 90
        5
170
     1
 91
        0
 92
    32768
 62
   257
 93
        1
300
CONTENTFORMAT
  1
CONTENTFORMAT_BEGIN
 90
        0
 91
        0
 92
      512
 93
        0
300

 40
0.0
140
1.0
 94
        5
 62
     0
340
12
144
0.25
309
CONTENTFORMAT_END
171
     1
301
MARGIN
  1
CELLMARGIN_BEGIN
 40
0.06
 40
0.06
 40
0.06
 40
0.06
 40
0.06
 40
0.06
309
CELLMARGIN_END
 94
        6
 95
        1
302
GRIDFORMAT
  1
GRIDFORMAT_BEGIN
 90
        0
 91
        1
 62
     0
 92
       -2
340
14
 93
        0
 40
0.045
309
GRIDFORMAT_END
 95
        2
302
GRIDFORMAT
  1
GRIDFORMAT_BEGIN
 90
        0
 91
        1
 62
     0
 92
       -2
340
14
 93
        0
 40
0.045
309
GRIDFORMAT_END
 95
        4
302
GRIDFORMAT
  1
GRIDFORMAT_BEGIN
 90
        0
 91
        1
 62
     0
 92
       -2
340
14
 93
        0
 40
0.045
309
GRIDFORMAT_END
 95
        8
302
GRIDFORMAT
  1
GRIDFORMAT_BEGIN
 90
        0
 91
        1
 62
     0
 92
       -2
340
14
 93
        0
 40
0.045
309
GRIDFORMAT_END
 95
       16
302
GRIDFORMAT
  1
GRIDFORMAT_BEGIN
 90
        0
 91
        1
 62
     0
 92
       -2
340
14
 93
        0
 40
0.045
309
GRIDFORMAT_END
 95
       32
302
GRIDFORMAT
  1
GRIDFORMAT_BEGIN
 90
        0
 91
        1
 62
     0
 92
       -2
340
14
 93
        0
 40
0.045
309
GRIDFORMAT_END
309
TABLEFORMAT_END
  1
CELLSTYLE_BEGIN
 90
        1
 91
        1
300
_TITLE
309
CELLSTYLE_END
300
CELLSTYLE
  1
TABLEFORMAT_BEGIN
 90
        5
170
     1
 91
        0
 92
        0
 62
   257
 93
        1
300
CONTENTFORMAT
  1
CONTENTFORMAT_BEGIN
 90
        0
 91
        0
 92
      512
 93
        0
300

 40
0.0
140
1.0
 94
        5
 62
     0
340
12
144
0.18
309
CONTENTFORMAT_END
171
     1
301
MARGIN
  1
CELLMARGIN_BEGIN
 40
0.06
 40
0.06
 40
0.06
 40
0.06
 40
0.06
 40
0.06
309
CELLMARGIN_END
 94
        6
 95
        1
302
GRIDFORMAT
  1
GRIDFORMAT_BEGIN
 90
        0
 91
        1
 62
     0
 92
       -2
340
14
 93
        0
 40
0.045
309
GRIDFORMAT_END
 95
        2
302
GRIDFORMAT
  1
GRIDFORMAT_BEGIN
 90
        0
 91
        1
 62
     0
 92
       -2
340
14
 93
        0
 40
0.045
309
GRIDFORMAT_END
 95
        4
302
GRIDFORMAT
  1
GRIDFORMAT_BEGIN
 90
        0
 91
        1
 62
     0
 92
       -2
340
14
 93
        0
 40
0.045
309
GRIDFORMAT_END
 95
        8
302
GRIDFORMAT
  1
GRIDFORMAT_BEGIN
 90
        0
 91
        1
 62
     0
 92
       -2
340
14
 93
        0
 40
0.045
309
GRIDFORMAT_END
 95
       16
302
GRIDFORMAT
  1
GRIDFORMAT_BEGIN
 90
        0
 91
        1
 62
     0
 92
       -2
340
14
 93
        0
 40
0.045
309
GRIDFORMAT_END
 95
       32
302
GRIDFORMAT
  1
GRIDFORMAT_BEGIN
 90
        0
 91
        1
 62
     0
 92
       -2
340
14
 93
        0
 40
0.045
309
GRIDFORMAT_END
309
TABLEFORMAT_END
  1
CELLSTYLE_BEGIN
 90
        2
 91
        1
300
_HEADER
309
CELLSTYLE_END
300
CELLSTYLE
  1
TABLEFORMAT_BEGIN
 90
        5
170
     1
 91
        0
 92
        0
 62
   257
 93
        1
300
CONTENTFORMAT
  1
CONTENTFORMAT_BEGIN
 90
        0
 91
        0
 92
      512
 93
        0
300

 40
0.0
140
1.0
 94
        2
 62
     0
340
12
144
0.18
309
CONTENTFORMAT_END
171
     1
301
MARGIN
  1
CELLMARGIN_BEGIN
 40
0.06
 40
0.06
 40
0.06
 40
0.06
 40
0.06
 40
0.06
309
CELLMARGIN_END
 94
        6
 95
        1
302
GRIDFORMAT
  1
GRIDFORMAT_BEGIN
 90
        0
 91
        1
 62
     0
 92
       -2
340
14
 93
        0
 40
0.045
309
GRIDFORMAT_END
 95
        2
302
GRIDFORMAT
  1
GRIDFORMAT_BEGIN
 90
        0
 91
        1
 62
     0
 92
       -2
340
14
 93
        0
 40
0.045
309
GRIDFORMAT_END
 95
        4
302
GRIDFORMAT
  1
GRIDFORMAT_BEGIN
 90
        0
 91
        1
 62
     0
 92
       -2
340
14
 93
        0
 40
0.045
309
GRIDFORMAT_END
 95
        8
302
GRIDFORMAT
  1
GRIDFORMAT_BEGIN
 90
        0
 91
        1
 62
     0
 92
       -2
340
14
 93
        0
 40
0.045
309
GRIDFORMAT_END
 95
       16
302
GRIDFORMAT
  1
GRIDFORMAT_BEGIN
 90
        0
 91
        1
 62
     0
 92
       -2
340
14
 93
        0
 40
0.045
309
GRIDFORMAT_END
 95
       32
302
GRIDFORMAT
  1
GRIDFORMAT_BEGIN
 90
        0
 91
        1
 62
     0
 92
       -2
340
14
 93
        0
 40
0.045
309
GRIDFORMAT_END
309
TABLEFORMAT_END
  1
CELLSTYLE_BEGIN
 90
        3
 91
        2
300
_DATA
309
CELLSTYLE_END
  0
ENDSEC
  0
EOF
