  0
SECTION
  2
HEADER
  9
$ACADVER
  1
AC1009
  9
$INSBASE
 10
0.0
 20
0.0
 30
0.0
  9
$EXTMIN
 10
-52.974766372195688
 20
78.619845533356056
 30
-0.0000000349181948
  9
$EXTMAX
 10
31.65056385022293
 20
161.77450133919911
 30
0.0000000814935747
  9
$LIMMIN
 10
0.0
 20
0.0
  9
$LIMMAX
 10
12.0
 20
9.0
  9
$ORTHOMODE
 70
     0
  9
$REGENMODE
 70
     1
  9
$FILLMODE
 70
     1
  9
$QTEXTMODE
 70
     0
  9
$MIRRTEXT
 70
     1
  9
$DRAGMODE
 70
     2
  9
$LTSCALE
 40
1.0
  9
$OSMODE
 70
    63
  9
$ATTMODE
 70
     1
  9
$TEXTSIZE
 40
0.2
  9
$TRACEWID
 40
0.05
  9
$TEXTSTYLE
  7
STANDARD
  9
$CLAYER
  8
0
  9
$CELTYPE
  6
CONTINUOUS
  9
$CECOLOR
 62
   256
  9
$DIMSCALE
 40
1.0
  9
$DIMASZ
 40
0.18
  9
$DIMEXO
 40
0.0625
  9
$DIMDLI
 40
0.38
  9
$DIMRND
 40
0.0
  9
$DIMDLE
 40
0.0
  9
$DIMEXE
 40
0.18
  9
$DIMTP
 40
0.0
  9
$DIMTM
 40
0.0
  9
$DIMTXT
 40
0.18
  9
$DIMCEN
 40
0.09
  9
$DIMTSZ
 40
0.0
  9
$DIMTOL
 70
     0
  9
$DIMLIM
 70
     0
  9
$DIMTIH
 70
     1
  9
$DIMTOH
 70
     1
  9
$DIMSE1
 70
     0
  9
$DIMSE2
 70
     0
  9
$DIMTAD
 70
     0
  9
$DIMZIN
 70
     0
  9
$DIMBLK
  1

  9
$DIMASO
 70
     1
  9
$DIMSHO
 70
     1
  9
$DIMPOST
  1

  9
$DIMAPOST
  1

  9
$DIMALT
 70
     0
  9
$DIMALTD
 70
     2
  9
$DIMALTF
 40
25.399999999999999
  9
$DIMLFAC
 40
1.0
  9
$DIMTOFL
 70
     0
  9
$DIMTVP
 40
0.0
  9
$DIMTIX
 70
     0
  9
$DIMSOXD
 70
     0
  9
$DIMSAH
 70
     0
  9
$DIMBLK1
  1

  9
$DIMBLK2
  1

  9
$DIMSTYLE
  2
STANDARD
  9
$DIMCLRD
 70
     0
  9
$DIMCLRE
 70
     0
  9
$DIMCLRT
 70
     0
  9
$DIMTFAC
 40
1.0
  9
$DIMGAP
 40
0.09
  9
$LUNITS
 70
     2
  9
$LUPREC
 70
     4
  9
$SKETCHINC
 40
0.1
  9
$FILLETRAD
 40
0.0
  9
$AUNITS
 70
     0
  9
$AUPREC
 70
     0
  9
$MENU
  1
.
  9
$ELEVATION
 40
0.0
  9
$PELEVATION
 40
0.0
  9
$THICKNESS
 40
0.0
  9
$LIMCHECK
 70
     0
  9
$BLIPMODE
 70
     0
  9
$CHAMFERA
 40
0.0
  9
$CHAMFERB
 40
0.0
  9
$SKPOLY
 70
     0
  9
$TDCREATE
 40
2452865.5295581939
  9
$TDUPDATE
 40
2452878.495505278
  9
$TDINDWG
 40
0.0015655671
  9
$TDUSRTIMER
 40
0.0015655671
  9
$USRTIMER
 70
     1
  9
$ANGBASE
 50
0.0
  9
$ANGDIR
 70
     0
  9
$PDMODE
 70
     0
  9
$PDSIZE
 40
0.0
  9
$PLINEWID
 40
0.0
  9
$COORDS
 70
     0
  9
$SPLFRAME
 70
     0
  9
$SPLINETYPE
 70
     6
  9
$SPLINESEGS
 70
     8
  9
$ATTDIA
 70
     1
  9
$ATTREQ
 70
     1
  9
$HANDLING
 70
     1
  9
$HANDSEED
  5
455
  9
$SURFTAB1
 70
     6
  9
$SURFTAB2
 70
     6
  9
$SURFTYPE
 70
     6
  9
$SURFU
 70
     6
  9
$SURFV
 70
     6
  9
$UCSNAME
  2

  9
$UCSORG
 10
0.0
 20
0.0
 30
0.0
  9
$UCSXDIR
 10
1.0
 20
0.0
 30
0.0
  9
$UCSYDIR
 10
0.0
 20
1.0
 30
0.0
  9
$PUCSNAME
  2

  9
$PUCSORG
 10
0.0
 20
0.0
 30
0.0
  9
$PUCSXDIR
 10
1.0
 20
0.0
 30
0.0
  9
$PUCSYDIR
 10
0.0
 20
1.0
 30
0.0
  9
$USERI1
 70
     0
  9
$USERI2
 70
     0
  9
$USERI3
 70
     0
  9
$USERI4
 70
     0
  9
$USERI5
 70
     0
  9
$USERR1
 40
0.0
  9
$USERR2
 40
0.0
  9
$USERR3
 40
0.0
  9
$USERR4
 40
0.0
  9
$USERR5
 40
0.0
  9
$WORLDVIEW
 70
     1
  9
$SHADEDGE
 70
     3
  9
$SHADEDIF
 70
    70
  9
$TILEMODE
 70
     1
  9
$MAXACTVP
 70
    64
  9
$PLIMCHECK
 70
     0
  9
$PEXTMIN
 10
1.0000000000000000E+020
 20
1.0000000000000000E+020
 30
1.0000000000000000E+020
  9
$PEXTMAX
 10
-1.0000000000000000E+020
 20
-1.0000000000000000E+020
 30
-1.0000000000000000E+020
  9
$PLIMMIN
 10
0.0
 20
0.0
  9
$PLIMMAX
 10
12.0
 20
9.0
  9
$UNITMODE
 70
     0
  9
$VISRETAIN
 70
     1
  9
$PLINEGEN
 70
     0
  9
$PSLTSCALE
 70
     1
  0
ENDSEC
  0
SECTION
  2
TABLES
  0
TABLE
  2
VPORT
 70
     3
  0
VPORT
  2
*ACTIVE
 70
     0
 10
0.0
 20
0.0
 11
1.0
 21
1.0
 12
-10.66210126098637
 22
120.1971734362775
 13
0.0
 23
0.0
 14
1.0
 24
1.0
 15
0.0
 25
0.0
 16
0.0
 26
0.0
 36
1.0
 17
0.0
 27
0.0
 37
0.0
 40
83.757954396937436
 41
1.5242130750605321
 42
50.0
 43
0.0
 44
0.0
 50
0.0
 51
0.0
 71
     0
 72
   100
 73
     1
 74
     1
 75
     0
 76
     0
 77
     0
 78
     0
  0
ENDTAB
  0
TABLE
  2
LTYPE
 70
    19
  0
LTYPE
  2
CONTINUOUS
 70
     0
  3
Solid line
 72
    65
 73
     0
 40
0.0
  0
LTYPE
  2
DASHED
 70
     0
  3
__ __ __ __ __ __ __ __ __ __ __ __ __ __ __
 72
    65
 73
     2
 40
3.5
 49
2.0
 49
-1.5
  0
LTYPE
  2
CENTER
 70
     0
  3
____ _ ____ _ ____ _ ____ _ ____ _ ____ _ ____
 72
    65
 73
     4
 40
17.5
 49
13.0
 49
-1.5
 49
1.5
 49
-1.5
  0
LTYPE
  2
PHANTOM
 70
     0
  3
_____ _ _ _____ _ _ _____ _ _ _____ _ _ ____  
 72
    65
 73
     6
 40
15.5
 49
8.0
 49
-1.5
 49
1.5
 49
-1.5
 49
1.5
 49
-1.5
  0
LTYPE
  2
DOT
 70
     0
  3
. . . . . . . . . . . . . . . . . . . . . . . .
 72
    65
 73
     2
 40
0.25
 49
0.0
 49
-0.25
  0
LTYPE
  2
AM_ISO02W050
 70
     0
  3
__ __ __ __ __ __ __ __ __ __ __ __ __ __ __
 72
    65
 73
     2
 40
7.5
 49
6.0
 49
-1.5
  0
LTYPE
  2
AM_ISO08W050
 70
     0
  3
____ . ____ . ____ . ____ . ____ . ____ . ____
 72
    65
 73
     4
 40
18.0
 49
12.0
 49
-1.5
 49
3.0
 49
-1.5
  0
LTYPE
  2
AM_ISO09W050
 70
     0
  3
_____ . . _____ . . _____ . . ____ .. ____
 72
    65
 73
     6
 40
22.5
 49
12.0
 49
-1.5
 49
3.0
 49
-1.5
 49
3.0
 49
-1.5
  0
LTYPE
  2
AMCONSTR
 70
     0
  3
_______________________
 72
    65
 73
     2
 40
9999.0
 49
9999.0
 49
0.0
  0
LTYPE
  2
AM_ISO08W050X2
 70
     0
  3
__ . __ . __ . __ . __ . __
 72
    65
 73
     4
 40
9.0
 49
6.0
 49
-0.75
 49
1.5
 49
-0.75
  0
LTYPE
  2
AM_ISO02W050X2
 70
     0
  3
 _ _ _ _ _ _ _ _ _ _ _ _
 72
    65
 73
     2
 40
3.75
 49
3.0
 49
-0.75
  0
LTYPE
  2
AMZIGZAG
 70
     0
  3
/\/-/\/-/\/-/\/-/\/-/\/
 72
    65
 73
     2
 40
11.000099999999991
 49
0.0001
 49
-11.0
  0
LTYPE
  2
HIDDEN
 70
     0
  3
Hidden __ __ __ __ __ __ __ __ __ __ __ __ __ _
 72
    65
 73
     2
 40
0.375
 49
0.25
 49
-0.125
  0
LTYPE
  2
PHANTOM2
 70
     0
  3
Phantom (.5x) ___ _ _ ___ _ _ ___ _ _ ___ _ _
 72
    65
 73
     6
 40
1.25
 49
0.625
 49
-0.125
 49
0.125
 49
-0.125
 49
0.125
 49
-0.125
  0
LTYPE
  2
CENTER2
 70
     0
  3
Center (.5x) ___ _ ___ _ ___ _ ___ _ ___ _ ___
 72
    65
 73
     4
 40
1.125
 49
0.75
 49
-0.125
 49
0.125
 49
-0.125
  0
LTYPE
  2
HIDDEN2
 70
     0
  3
Hidden (.5x) _ _ _ _ _ _ _ _ _ _ _ _ _ _ _ _ _
 72
    65
 73
     2
 40
0.1875
 49
0.125
 49
-0.0625
  0
LTYPE
  2
AMZIGZAG2
 70
     0
  3
/\/-/\/-/\/-/\/-/\/-/\/
 72
    65
 73
     2
 40
0.4401
 49
0.0001
 49
-0.4400000000000002
  0
LTYPE
  2
ACANSTGB
 70
     0
  3
__ . . __ . .
 72
    65
 73
     6
 40
0.35433070866
 49
0.15748031496
 49
-0.03937007874
 49
0.03937007874
 49
-0.03937007874
 49
0.03937007874
 49
-0.03937007874
  0
LTYPE
  2
ACANSTGL
 70
     0
  3
_ _ _ _ _
 72
    65
 73
     2
 40
0.11811023622
 49
0.07874015748
 49
-0.03937007874
  0
ENDTAB
  0
TABLE
  2
LAYER
 70
     3
  0
LAYER
  2
0
 70
     0
 62
     7
  6
CONTINUOUS
  0
LAYER
  2
1
 70
     0
 62
     7
  6
CONTINUOUS
  0
LAYER
  2
2
 70
     0
 62
     7
  6
CONTINUOUS
  0
ENDTAB
  0
TABLE
  2
STYLE
 70
     4
  0
STYLE
  2
STANDARD
 70
     0
 40
0.0
 41
1.0
 50
0.0
 71
     0
 42
0.2
  3
txt
  4
BIGFONT
  0
STYLE
  2

 70
     1
 40
0.0
 41
1.0
 50
0.0
 71
     0
 42
0.2
  3
ltypeshp.shx
  4

  0
STYLE
  2
ACANSTS
 70
     0
 40
1.0
 41
1.0
 50
0.0
 71
     0
 42
0.2
  3
romans.shx
  4
extfont.shx
  0
STYLE
  2
ACANSGDT
 70
     0
 40
0.0
 41
1.0
 50
0.0
 71
     0
 42
0.2
  3
amgdtans.shx
  4

  0
ENDTAB
  0
TABLE
  2
VIEW
 70
     0
  0
ENDTAB
  0
TABLE
  2
UCS
 70
     0
  0
ENDTAB
  0
TABLE
  2
APPID
 70
     4
  0
APPID
  2
ACAD
 70
     0
  0
APPID
  2
MCAD_NO_VIS
 70
     0
  0
APPID
  2
ACAD_TEMP_GRAPHIC
 70
     0
  0
APPID
  2
ACATTRIBSERVICES
 70
     0
  0
ENDTAB
  0
TABLE
  2
DIMSTYLE
 70
     7
  0
DIMSTYLE
  2
STANDARD
 70
     0
  3

  4

  5

  6

  7

 40
1.0
 41
0.18
 42
0.0625
 43
0.38
 44
0.18
 45
0.0
 46
0.0
 47
0.0
 48
0.0
140
0.18
141
0.09
142
0.0
143
25.399999999999999
144
1.0
145
0.0
146
1.0
147
0.09
 71
     0
 72
     0
 73
     1
 74
     1
 75
     0
 76
     0
 77
     0
 78
     0
170
     0
171
     2
172
     0
173
     0
174
     0
175
     0
176
     0
177
     0
178
     0
  0
DIMSTYLE
  2
AM_ANSI
 70
     0
  3

  4
mm
  5

  6

  7

 40
1.0
 41
0.1
 42
0.05
 43
0.5
 44
0.1
 45
0.0
 46
0.0
 47
0.1
 48
0.1
140
0.12
141
0.0
142
0.0
143
25.399999999999999
144
1.0
145
0.0
146
0.71
147
0.06
 71
     0
 72
     0
 73
     1
 74
     1
 75
     0
 76
     0
 77
     0
 78
     7
170
     0
171
     2
172
     0
173
     0
174
     0
175
     0
176
   256
177
   256
178
     2
  0
DIMSTYLE
  2
AM_ANSI$3
 70
     0
  3

  4
mm
  5

  6

  7

 40
1.0
 41
0.1
 42
0.05
 43
0.5
 44
0.1
 45
0.0
 46
0.0
 47
0.1
 48
0.1
140
0.12
141
0.0
142
0.0
143
25.399999999999999
144
1.0
145
0.0
146
0.71
147
0.06
 71
     0
 72
     0
 73
     1
 74
     1
 75
     0
 76
     0
 77
     0
 78
     7
170
     0
171
     2
172
     0
173
     0
174
     0
175
     0
176
   256
177
   256
178
     2
  0
DIMSTYLE
  2
AM_ANSI$4
 70
     0
  3

  4
mm
  5

  6

  7

 40
1.0
 41
0.1
 42
0.05
 43
0.5
 44
0.1
 45
0.0
 46
0.0
 47
0.1
 48
0.1
140
0.12
141
0.0
142
0.0
143
25.399999999999999
144
1.0
145
0.0
146
0.71
147
0.06
 71
     0
 72
     0
 73
     1
 74
     1
 75
     0
 76
     0
 77
     0
 78
     7
170
     0
171
     2
172
     0
173
     0
174
     0
175
     0
176
   256
177
   256
178
     2
  0
DIMSTYLE
  2
AM_ANSI$7
 70
     0
  3

  4
mm
  5

  6

  7

 40
1.0
 41
0.1
 42
0.05
 43
0.5
 44
0.1
 45
0.0
 46
0.0
 47
0.1
 48
0.1
140
0.24
141
0.0
142
0.0
143
25.399999999999999
144
1.0
145
0.0
146
0.71
147
0.06
 71
     0
 72
     0
 73
     1
 74
     1
 75
     0
 76
     0
 77
     0
 78
     7
170
     0
171
     2
172
     0
173
     0
174
     0
175
     0
176
   256
177
   256
178
     2
  0
DIMSTYLE
  2
AM_ANSI$SF
 70
     0
  3

  4
mm
  5

  6

  7

 40
1.0
 41
0.1
 42
0.05
 43
0.5
 44
0.1
 45
0.0
 46
0.0
 47
0.1
 48
0.1
140
0.12
141
0.0
142
0.0
143
25.399999999999999
144
1.0
145
0.0
146
0.71
147
0.06
 71
     0
 72
     0
 73
     1
 74
     1
 75
     1
 76
     1
 77
     0
 78
     7
170
     0
171
     2
172
     0
173
     0
174
     0
175
     0
176
   256
177
   256
178
     2
  0
DIMSTYLE
  2
AM_ANSI$SH
 70
     0
  3

  4
mm
  5

  6

  7

 40
1.0
 41
0.1
 42
0.05
 43
0.5
 44
0.1
 45
0.0
 46
0.0
 47
0.1
 48
0.1
140
0.12
141
0.0
142
0.0
143
25.399999999999999
144
1.0
145
0.0
146
0.71
147
0.06
 71
     0
 72
     0
 73
     1
 74
     1
 75
     1
 76
     1
 77
     0
 78
     7
170
     0
171
     2
172
     0
173
     1
174
     0
175
     0
176
   256
177
   256
178
     2
  0
ENDTAB
  0
ENDSEC
  0
SECTION
  2
BLOCKS
  0
BLOCK
  8
0
  2
$MODEL_SPACE
 70
     0
 10
0.0
 20
0.0
 30
0.0
  3
$MODEL_SPACE
  1

  0
ENDBLK
  5
3E1
  8
0
  0
BLOCK
 67
     1
  8
0
  2
$PAPER_SPACE
 70
     0
 10
0.0
 20
0.0
 30
0.0
  3
$PAPER_SPACE
  1

  0
ENDBLK
  5
3DD
 67
     1
  8
0
  0
BLOCK
  8
0
  2
GENAXEH
 70
     0
 10
0.0
 20
0.0
 30
0.0
  3
GENAXEH
  1

  0
LINE
  5
3A7
  8
0
 10
-1.0
 20
0.0
 30
0.0
 11
1.0
 21
0.0
 31
0.0
  0
ENDBLK
  5
3A9
  8
0
  0
ENDSEC
  0
SECTION
  2
ENTITIES
  0
LINE
  5
5D
  8
0
  6
CENTER
 62
     7
 10
-31.313507000000001
 20
126.74391
 30
0.0
 11
-31.313507000000001
 21
78.629631000000003
 31
0.0
  0
LINE
  5
6D
  8
0
  6
CONTINUOUS
 62
     7
 10
-46.813507000000001
 20
116.625
 30
0.0
 11
-46.813507000000001
 21
100.625
 31
0.0
  0
LINE
  5
6E
  8
0
  6
CONTINUOUS
 62
     7
 10
-15.813507
 20
116.625
 30
0.0
 11
-15.813507
 21
100.625
 31
0.0
  0
LINE
  5
6F
  8
0
  6
CONTINUOUS
 62
     7
 10
-45.813507000000001
 20
99.625
 30
0.0
 11
-16.813507000000001
 21
99.625
 31
0.0
  0
LINE
  5
70
  8
0
  6
CONTINUOUS
 62
     7
 10
-50.022613999999997
 20
117.625
 30
0.0
 11
-47.813506999999987
 21
117.625
 31
0.0
  0
LINE
  5
71
  8
0
  6
CONTINUOUS
 62
     7
 10
-14.813507
 20
117.625
 30
0.0
 11
-12.604397000000001
 21
117.625
 31
0.0
  0
LINE
  5
72
  8
0
  6
CONTINUOUS
 62
     7
 10
-49.813507000000001
 20
115.625
 30
0.0
 11
-49.813507000000001
 21
96.625000000000014
 31
0.0
  0
LINE
  5
73
  8
0
  6
CONTINUOUS
 62
     7
 10
-52.213509000000002
 20
115.625
 30
0.0
 11
-49.813507000000001
 21
115.625
 31
0.0
  0
LINE
  5
74
  8
0
  6
CONTINUOUS
 62
     7
 10
-47.813506999999987
 20
94.625
 30
0.0
 11
-14.813507
 21
94.625
 31
0.0
  0
LINE
  5
7E
  8
0
  6
CONTINUOUS
 62
     7
 10
-12.813507
 20
115.625
 30
0.0
 11
-12.813507
 21
96.625000000000014
 31
0.0
  0
LINE
  5
7F
  8
0
  6
CONTINUOUS
 62
     7
 10
-12.813507
 20
115.625
 30
0.0
 11
-10.413506
 21
115.625
 31
0.0
  0
LINE
  5
D1
  8
0
  6
CONTINUOUS
 62
     7
 10
-46.313507000000001
 20
116.45938
 30
0.0
 11
-46.313507000000001
 21
108.8593799999999
 31
0.0
  0
LINE
  5
D2
  8
0
  6
CONTINUOUS
 62
     7
 10
-37.313507000000001
 20
116.45938
 30
0.0
 11
-37.313507000000001
 21
113.45938
 31
0.0
  0
LINE
  5
D3
  8
0
  6
CONTINUOUS
 62
     7
 10
-44.313507000000001
 20
118.45938
 30
0.0
 11
-42.313507000000001
 21
118.45938
 31
0.0
  0
LINE
  5
D4
  8
0
  6
CONTINUOUS
 62
     7
 10
-39.313507000000001
 20
118.45938
 30
0.0
 11
-39.313507000000001
 21
116.45938
 31
0.0
  0
LINE
  5
D5
  8
0
  6
CONTINUOUS
 62
     7
 10
-42.313507000000001
 20
118.45938
 30
0.0
 11
-42.313507000000001
 21
116.45938
 31
0.0
  0
LINE
  5
D6
  8
0
  6
CONTINUOUS
 62
     7
 10
-44.313507000000001
 20
116.45938
 30
0.0
 11
-42.313507000000001
 21
116.45938
 31
0.0
  0
LINE
  5
D7
  8
0
  6
CONTINUOUS
 62
     7
 10
-39.313507000000001
 20
116.45938
 30
0.0
 11
-37.313507000000001
 21
116.45938
 31
0.0
  0
LINE
  5
D8
  8
0
  6
CONTINUOUS
 62
     7
 10
-39.313507000000001
 20
118.45938
 30
0.0
 11
-23.313507000000001
 21
118.45938
 31
0.0
  0
LINE
  5
D9
  8
0
  6
CONTINUOUS
 62
     7
 10
-44.313507000000001
 20
116.45938
 30
0.0
 11
-44.313507000000001
 21
113.45938
 31
0.0
  0
LINE
  5
DA
  8
0
  6
CONTINUOUS
 62
     7
 10
-44.313507000000001
 20
113.45938
 30
0.0
 11
-37.313507000000001
 21
113.45938
 31
0.0
  0
LINE
  5
DB
  8
0
  6
CONTINUOUS
 62
     7
 10
-23.313507000000001
 20
118.45938
 30
0.0
 11
-23.313507000000001
 21
116.45938
 31
0.0
  0
LINE
  5
DC
  8
0
  6
CONTINUOUS
 62
     7
 10
-20.313507000000001
 20
118.45938
 30
0.0
 11
-20.313507000000001
 21
116.45938
 31
0.0
  0
LINE
  5
DD
  8
0
  6
CONTINUOUS
 62
     7
 10
-20.313507000000001
 20
116.45938
 30
0.0
 11
-18.313507000000001
 21
116.45938
 31
0.0
  0
LINE
  5
DE
  8
0
  6
CONTINUOUS
 62
     7
 10
-25.313507000000001
 20
116.45938
 30
0.0
 11
-23.313507000000001
 21
116.45938
 31
0.0
  0
LINE
  5
DF
  8
0
  6
CONTINUOUS
 62
     7
 10
-20.313507000000001
 20
118.45938
 30
0.0
 11
-18.313507000000001
 21
118.45938
 31
0.0
  0
LINE
  5
E0
  8
0
  6
CONTINUOUS
 62
     7
 10
-18.313507000000001
 20
116.45938
 30
0.0
 11
-18.313507000000001
 21
113.45938
 31
0.0
  0
LINE
  5
E1
  8
0
  6
CONTINUOUS
 62
     7
 10
-25.313507000000001
 20
116.45938
 30
0.0
 11
-25.313507000000001
 21
113.45938
 31
0.0
  0
LINE
  5
E2
  8
0
  6
CONTINUOUS
 62
     7
 10
-25.313507000000001
 20
113.45938
 30
0.0
 11
-18.313507000000001
 21
113.45938
 31
0.0
  0
LINE
  5
E3
  8
0
  6
CONTINUOUS
 62
     7
 10
-16.313507000000001
 20
116.45938
 30
0.0
 11
-16.313507000000001
 21
108.8593799999999
 31
0.0
  0
LINE
  5
F5
  8
0
  6
CONTINUOUS
 62
     7
 10
-44.313507000000001
 20
115.15938
 30
0.0
 11
-37.313507000000001
 21
115.15938
 31
0.0
  0
LINE
  5
F6
  8
0
  6
CENTER
 62
     7
 10
-40.813507000000001
 20
135.96341000000001
 30
0.0
 11
-40.813507000000001
 21
115.15938
 31
0.0
  0
LINE
  5
F7
  8
0
  6
CONTINUOUS
 62
     7
 10
-43.313510999999998
 20
115.1593899999999
 30
0.0
 11
-42.313510999999998
 21
116.45938
 31
0.0
  0
LINE
  5
F8
  8
0
  6
CONTINUOUS
 62
     7
 10
-43.013511999999999
 20
115.15938
 30
0.0
 11
-42.313507000000001
 21
116.45938
 31
0.0
  0
LINE
  5
F9
  8
0
  6
CONTINUOUS
 62
     7
 10
-42.813506999999987
 20
115.15938
 30
0.0
 11
-42.313507000000001
 21
116.45938
 31
0.0
  0
LINE
  5
FA
  8
0
  6
CONTINUOUS
 62
     7
 10
-42.613509999999998
 20
115.15938
 30
0.0
 11
-42.313507000000001
 21
116.45938
 31
0.0
  0
LINE
  5
FB
  8
0
  6
CONTINUOUS
 62
     7
 10
-40.113506000000001
 20
131.45938000000001
 30
0.0
 11
-40.113506000000001
 21
115.15938
 31
0.0
  0
LINE
  5
FC
  8
0
  6
CONTINUOUS
 62
     7
 10
-42.013508000000002
 20
131.45938000000001
 30
0.0
 11
-42.013508000000002
 21
115.15938
 31
0.0
  0
LINE
  5
FD
  8
0
  6
CONTINUOUS
 62
     7
 10
-39.613506000000001
 20
131.45938000000001
 30
0.0
 11
-39.613506000000001
 21
115.15938
 31
0.0
  0
LINE
  5
FE
  8
0
  6
CONTINUOUS
 62
     7
 10
-38.313502999999997
 20
115.15938
 30
0.0
 11
-39.313502999999997
 21
116.45938
 31
0.0
  0
LINE
  5
FF
  8
0
  6
CONTINUOUS
 62
     7
 10
-38.613506000000001
 20
115.15938
 30
0.0
 11
-39.313502999999997
 21
116.45938
 31
0.0
  0
LINE
  5
100
  8
0
  6
CONTINUOUS
 62
     7
 10
-38.813507000000001
 20
115.1593899999999
 30
0.0
 11
-39.313507000000001
 21
116.45938
 31
0.0
  0
LINE
  5
101
  8
0
  6
CONTINUOUS
 62
     7
 10
-39.013503999999998
 20
115.15938
 30
0.0
 11
-39.313507000000001
 21
116.45938
 31
0.0
  0
LINE
  5
102
  8
0
  6
CONTINUOUS
 62
     7
 10
-42.463504999999998
 20
115.1593899999999
 30
0.0
 11
-42.31350299999999
 21
116.45938
 31
0.0
  0
LINE
  5
103
  8
0
  6
CONTINUOUS
 62
     7
 10
-39.163505999999991
 20
115.1593899999999
 30
0.0
 11
-39.313507000000001
 21
116.45938
 31
0.0
  0
LINE
  5
104
  8
0
  6
CONTINUOUS
 62
     7
 10
-40.613505999999987
 20
131.45938000000001
 30
0.0
 11
-40.613505999999987
 21
115.15938
 31
0.0
  0
LINE
  5
105
  8
0
  6
CONTINUOUS
 62
     7
 10
-41.013508000000002
 20
131.45938000000001
 30
0.0
 11
-41.013508000000002
 21
115.15938
 31
0.0
  0
LINE
  5
106
  8
0
  6
CONTINUOUS
 62
     7
 10
-39.348415000000003
 20
116.45938
 30
0.0
 11
-39.086590000000001
 21
131.45938000000001
 31
0.0
  0
LINE
  5
107
  8
0
  6
CONTINUOUS
 62
     7
 10
-42.540424000000002
 20
131.45938000000001
 30
0.0
 11
-42.278599
 21
116.45938
 31
0.0
  0
LINE
  5
108
  8
0
  6
CONTINUOUS
 62
     7
 10
-42.994807999999999
 20
131.45938000000001
 30
0.0
 11
-42.20869099999998
 21
116.45938
 31
0.0
  0
LINE
  5
109
  8
0
  6
CONTINUOUS
 62
     7
 10
-39.418320000000001
 20
116.45938
 30
0.0
 11
-38.632201999999999
 21
131.45938000000001
 31
0.0
  0
LINE
  5
10A
  8
0
  6
CONTINUOUS
 62
     7
 10
-22.013507999999991
 20
131.45938000000001
 30
0.0
 11
-22.013507999999991
 21
115.15938
 31
0.0
  0
LINE
  5
10B
  8
0
  6
CENTER
 62
     7
 10
-21.813507000000001
 20
135.96341000000001
 30
0.0
 11
-21.813507000000001
 21
115.15938
 31
0.0
  0
LINE
  5
10C
  8
0
  6
CONTINUOUS
 62
     7
 10
-21.113506000000001
 20
131.45938000000001
 30
0.0
 11
-21.113506000000001
 21
115.15938
 31
0.0
  0
LINE
  5
10D
  8
0
  6
CONTINUOUS
 62
     7
 10
-22.513507999999991
 20
131.45938000000001
 30
0.0
 11
-22.513507999999991
 21
115.15938
 31
0.0
  0
LINE
  5
10E
  8
0
  6
CONTINUOUS
 62
     7
 10
-20.613506000000001
 20
131.45938000000001
 30
0.0
 11
-20.613506000000001
 21
115.15938
 31
0.0
  0
LINE
  5
10F
  8
0
  6
CONTINUOUS
 62
     7
 10
-23.013507999999991
 20
131.45938000000001
 30
0.0
 11
-23.013507999999991
 21
115.15938
 31
0.0
  0
LINE
  5
110
  8
0
  6
CONTINUOUS
 62
     7
 10
-21.613506000000001
 20
131.45938000000001
 30
0.0
 11
-21.613506000000001
 21
115.15938
 31
0.0
  0
LINE
  5
111
  8
0
  6
CONTINUOUS
 62
     7
 10
-23.278597000000001
 20
116.45938
 30
0.0
 11
-23.540421999999982
 21
131.45938000000001
 31
0.0
  0
LINE
  5
112
  8
0
  6
CONTINUOUS
 62
     7
 10
-20.086591999999978
 20
131.45938000000001
 30
0.0
 11
-20.348417000000001
 21
116.45938
 31
0.0
  0
LINE
  5
113
  8
0
  6
CONTINUOUS
 62
     7
 10
-19.632206
 20
131.45938000000001
 30
0.0
 11
-20.418323999999998
 21
116.45938
 31
0.0
  0
LINE
  5
114
  8
0
  6
CONTINUOUS
 62
     7
 10
-23.208691000000002
 20
116.45938
 30
0.0
 11
-23.994807999999999
 21
131.45938000000001
 31
0.0
  0
LINE
  5
115
  8
0
  6
CONTINUOUS
 62
     7
 10
-18.313507000000001
 20
115.15938
 30
0.0
 11
-25.313507000000001
 21
115.15938
 31
0.0
  0
LINE
  5
116
  8
0
  6
CONTINUOUS
 62
     7
 10
-19.313507000000001
 20
115.15938
 30
0.0
 11
-20.313507000000001
 21
116.45938
 31
0.0
  0
LINE
  5
117
  8
0
  6
CONTINUOUS
 62
     7
 10
-19.613506000000001
 20
115.15938
 30
0.0
 11
-20.313504999999981
 21
116.45938
 31
0.0
  0
LINE
  5
118
  8
0
  6
CONTINUOUS
 62
     7
 10
-19.813507000000001
 20
115.1593899999999
 30
0.0
 11
-20.313507000000001
 21
116.45938
 31
0.0
  0
LINE
  5
119
  8
0
  6
CONTINUOUS
 62
     7
 10
-20.013507999999991
 20
115.1593899999999
 30
0.0
 11
-20.313504999999981
 21
116.45938
 31
0.0
  0
LINE
  5
11A
  8
0
  6
CONTINUOUS
 62
     7
 10
-24.313508999999989
 20
115.15938
 30
0.0
 11
-23.313508999999989
 21
116.45938
 31
0.0
  0
LINE
  5
11B
  8
0
  6
CONTINUOUS
 62
     7
 10
-24.01351
 20
115.15938
 30
0.0
 11
-23.313508999999989
 21
116.45938
 31
0.0
  0
LINE
  5
11C
  8
0
  6
CONTINUOUS
 62
     7
 10
-23.813507000000001
 20
115.15938
 30
0.0
 11
-23.313507000000001
 21
116.45938
 31
0.0
  0
LINE
  5
11D
  8
0
  6
CONTINUOUS
 62
     7
 10
-23.613510000000002
 20
115.1593899999999
 30
0.0
 11
-23.313508999999989
 21
116.45938
 31
0.0
  0
LINE
  5
11E
  8
0
  6
CONTINUOUS
 62
     7
 10
-20.163506999999981
 20
115.1593899999999
 30
0.0
 11
-20.313507000000001
 21
116.45938
 31
0.0
  0
LINE
  5
11F
  8
0
  6
CONTINUOUS
 62
     7
 10
-23.463508999999998
 20
115.1593899999999
 30
0.0
 11
-23.313507000000001
 21
116.45938
 31
0.0
  0
LINE
  5
122
  8
0
  6
CONTINUOUS
 62
     7
 10
-41.513508000000002
 20
131.45938000000001
 30
0.0
 11
-41.513508000000002
 21
115.15938
 31
0.0
  0
LINE
  5
183
  8
0
  6
CONTINUOUS
 62
     7
 10
-34.313507000000001
 20
92.025002000000015
 30
0.0
 11
-34.313507000000001
 21
90.625
 31
0.0
  0
LINE
  5
184
  8
0
  6
CONTINUOUS
 62
     7
 10
-28.313507000000001
 20
92.025002000000015
 30
0.0
 11
-28.313507000000001
 21
90.625
 31
0.0
  0
LINE
  5
185
  8
0
  6
CONTINUOUS
 62
     7
 10
-34.659927000000003
 20
92.025002000000015
 30
0.0
 11
-27.967093999999999
 21
92.025002000000015
 31
0.0
  0
LINE
  5
186
  8
0
  6
CONTINUOUS
 62
     7
 10
-24.502994999999991
 20
94.025002000000001
 30
0.0
 11
-27.967092999999991
 21
92.025002000000015
 31
0.0
  0
LINE
  5
187
  8
0
  6
CONTINUOUS
 62
     7
 10
-38.12401599999999
 20
94.024994000000007
 30
0.0
 11
-34.659919999999993
 21
92.024993999999964
 31
0.0
  0
LINE
  5
188
  8
0
  6
CONTINUOUS
 62
     7
 10
-41.313507000000001
 20
94.025002000000001
 30
0.0
 11
-21.313507000000001
 21
94.025002000000001
 31
0.0
  0
LINE
  5
189
  8
0
  6
CONTINUOUS
 62
     7
 10
-41.313507000000001
 20
94.625
 30
0.0
 11
-41.313507000000001
 21
94.025002000000001
 31
0.0
  0
LINE
  5
18A
  8
0
  6
CONTINUOUS
 62
     7
 10
-21.313507000000001
 20
94.625
 30
0.0
 11
-21.313507000000001
 21
94.025002000000001
 31
0.0
  0
LINE
  5
18D
  8
0
  6
CONTINUOUS
 62
     7
 10
-38.313507000000001
 20
101.625
 30
0.0
 11
-38.313507000000001
 21
99.625
 31
0.0
  0
LINE
  5
18E
  8
0
  6
CONTINUOUS
 62
     7
 10
-24.313507000000001
 20
101.625
 30
0.0
 11
-24.313507000000001
 21
99.625
 31
0.0
  0
LINE
  5
18F
  8
0
  6
CONTINUOUS
 62
     7
 10
-26.313507000000001
 20
104.30933
 30
0.0
 11
-26.313507000000001
 21
101.625
 31
0.0
  0
LINE
  5
190
  8
0
  6
CONTINUOUS
 62
     7
 10
-27.913506999999999
 20
104.60669
 30
0.0
 11
-27.913506999999999
 21
101.625
 31
0.0
  0
LINE
  5
191
  8
0
  6
CONTINUOUS
 62
     7
 10
-34.713509000000002
 20
104.60669
 30
0.0
 11
-34.713509000000002
 21
101.625
 31
0.0
  0
LINE
  5
192
  8
0
  6
CONTINUOUS
 62
     7
 10
-36.313507000000001
 20
104.30933
 30
0.0
 11
-36.313507000000001
 21
101.625
 31
0.0
  0
LINE
  5
1E8
  8
0
  6
CONTINUOUS
 62
     7
 10
-38.313507000000001
 20
101.625
 30
0.0
 11
-24.313507000000001
 21
101.625
 31
0.0
  0
LINE
  5
1EA
  8
0
  6
CONTINUOUS
 62
     7
 10
-34.313507000000001
 20
90.625
 30
0.0
 11
-28.313507000000001
 21
90.625
 31
0.0
  0
ARC
  5
202
  8
0
  6
CONTINUOUS
 62
     7
 10
-52.213509000000002
 20
116.22501
 30
0.0
 40
0.60000002
 50
130.11915999999991
 51
270.0
  0
ARC
  5
203
  8
0
  6
CONTINUOUS
 62
     7
 10
-12.604397000000001
 20
113.6249999999999
 30
0.0
 40
4.0
 50
49.880840999999997
 51
90.000003000000007
  0
ARC
  5
204
  8
0
  6
CONTINUOUS
 62
     7
 10
-10.413506
 20
116.22501
 30
0.0
 40
0.60000002
 50
270.0
 51
49.880840999999997
  0
ARC
  5
205
  8
0
  6
CONTINUOUS
 62
     7
 10
-47.813506999999987
 20
116.625
 30
0.0
 40
1.0
 50
0.0000025044777
 51
90.000003000000007
  0
ARC
  5
206
  8
0
  6
CONTINUOUS
 62
     7
 10
-14.813507
 20
116.625
 30
0.0
 40
1.0
 50
90.000009000000006
 51
180.00001
  0
ARC
  5
207
  8
0
  6
CONTINUOUS
 62
     7
 10
-47.813506999999987
 20
96.625000000000014
 30
0.0
 40
2.0
 50
179.99998999999991
 51
270.0
  0
ARC
  5
208
  8
0
  6
CONTINUOUS
 62
     7
 10
-14.813507
 20
96.625000000000014
 30
0.0
 40
2.0
 50
270.0
 51
0.0000025044777
  0
ARC
  5
209
  8
0
  6
CONTINUOUS
 62
     7
 10
-16.813507000000001
 20
100.625
 30
0.0
 40
1.0
 50
270.0
 51
0.0000025044777
  0
ARC
  5
20A
  8
0
  6
CONTINUOUS
 62
     7
 10
-45.813507000000001
 20
100.625
 30
0.0
 40
1.0
 50
179.99998999999991
 51
270.0
  0
ARC
  5
20B
  8
0
  6
CONTINUOUS
 62
     7
 10
-50.022613999999997
 20
113.6249999999999
 30
0.0
 40
4.0
 50
90.000009000000006
 51
130.11915999999991
  0
ARC
  5
22E
  8
0
  6
CONTINUOUS
 62
     7
 10
-40.313506999999987
 20
108.8593799999999
 30
0.0
 40
6.0
 50
179.99998999999991
 51
260.41725000000002
  0
ARC
  5
22F
  8
0
  6
CONTINUOUS
 62
     7
 10
-31.313507000000001
 20
81.85938299999998
 30
0.0
 40
23.0
 50
67.254687000000018
 51
112.74531
  0
ARC
  5
230
  8
0
  6
CONTINUOUS
 62
     7
 10
-40.979393000000002
 20
104.9152
 30
0.0
 40
2.0
 50
260.41725000000002
 51
292.74531000000002
  0
ARC
  5
231
  8
0
  6
CONTINUOUS
 62
     7
 10
-44.313507000000001
 20
116.45938
 30
0.0
 40
2.0
 50
89.999995999999982
 51
179.99998999999991
  0
ARC
  5
232
  8
0
  6
CONTINUOUS
 62
     7
 10
-18.313507000000001
 20
116.45938
 30
0.0
 40
2.0
 50
0.0000025044777
 51
90.000003000000007
  0
ARC
  5
233
  8
0
  6
CONTINUOUS
 62
     7
 10
-22.313507000000001
 20
108.8593799999999
 30
0.0
 40
6.0
 50
279.58274999999992
 51
0.0
  0
ARC
  5
234
  8
0
  6
CONTINUOUS
 62
     7
 10
-21.647618999999992
 20
104.9152
 30
0.0
 40
2.0
 50
247.25469000000001
 51
279.58274999999992
  0
LINE
  5
25C
  8
0
  6
CONTINUOUS
 62
     7
 10
-37.410643
 20
113.45938
 30
0.0
 11
-37.313507000000001
 21
113.55652000000001
 31
0.0
  0
LINE
  5
25D
  8
0
  6
CONTINUOUS
 62
     7
 10
-38.757680000000001
 20
113.45938
 30
0.0
 11
-37.313507000000001
 21
114.90356
 31
0.0
  0
LINE
  5
25E
  8
0
  6
CONTINUOUS
 62
     7
 10
-40.104717000000001
 20
113.45938
 30
0.0
 11
-38.404724000000002
 21
115.15938
 31
0.0
  0
LINE
  5
25F
  8
0
  6
CONTINUOUS
 62
     7
 10
-41.451754000000001
 20
113.45938
 30
0.0
 11
-39.751761000000002
 21
115.15938
 31
0.0
  0
LINE
  5
260
  8
0
  6
CONTINUOUS
 62
     7
 10
-42.79879099999998
 20
113.45938
 30
0.0
 11
-41.098797999999981
 21
115.15938
 31
0.0
  0
LINE
  5
261
  8
0
  6
CONTINUOUS
 62
     7
 10
-44.145828000000002
 20
113.45938
 30
0.0
 11
-42.445835000000002
 21
115.15938
 31
0.0
  0
LINE
  5
262
  8
0
  6
CONTINUOUS
 62
     7
 10
-44.313507000000001
 20
114.6387399999998
 30
0.0
 11
-43.792871999999988
 21
115.15938
 31
0.0
  0
LINE
  5
263
  8
0
  6
CONTINUOUS
 62
     7
 10
-18.552123000000002
 20
113.45938
 30
0.0
 11
-18.313507000000001
 21
113.69799999999979
 31
0.0
  0
LINE
  5
264
  8
0
  6
CONTINUOUS
 62
     7
 10
-19.899160999999999
 20
113.45938
 30
0.0
 11
-18.313507000000001
 21
115.0450399999999
 31
0.0
  0
LINE
  5
265
  8
0
  6
CONTINUOUS
 62
     7
 10
-21.246198
 20
113.45938
 30
0.0
 11
-19.546203999999982
 21
115.15938
 31
0.0
  0
LINE
  5
266
  8
0
  6
CONTINUOUS
 62
     7
 10
-22.593235
 20
113.45938
 30
0.0
 11
-20.893241
 21
115.15938
 31
0.0
  0
LINE
  5
267
  8
0
  6
CONTINUOUS
 62
     7
 10
-23.940272
 20
113.45938
 30
0.0
 11
-22.240277999999989
 21
115.15938
 31
0.0
  0
LINE
  5
268
  8
0
  6
CONTINUOUS
 62
     7
 10
-25.287309
 20
113.45938
 30
0.0
 11
-23.587315
 21
115.15938
 31
0.0
  0
LINE
  5
269
  8
0
  6
CONTINUOUS
 62
     7
 10
-25.313507000000001
 20
114.78022
 30
0.0
 11
-24.934353000000002
 21
115.15938
 31
0.0
  0
TEXT
  5
310
  8
0
  6
CONTINUOUS
 62
     7
 10
29.644221999999989
 20
99.182142000000013
 30
0.0
 40
3.2000000000000002
  1
10.5
 50
90.000003000000007
 41
1.4857143999999991
  0
LINE
  5
311
  8
0
  6
CONTINUOUS
 62
     7
 10
30.444220999999999
 20
94.625
 30
0.0
 11
30.444220999999999
 21
105.125
 31
0.0
  0
LINE
  5
312
  8
0
  6
CONTINUOUS
 62
     7
 10
30.444220999999999
 20
94.625
 30
0.0
 11
29.444220999999999
 21
97.625000000000014
 31
0.0
  0
LINE
  5
313
  8
0
  6
CONTINUOUS
 62
     7
 10
30.444220999999999
 20
94.625
 30
0.0
 11
31.444220999999992
 21
97.625000000000014
 31
0.0
  0
LINE
  5
314
  8
0
  6
CONTINUOUS
 62
     7
 10
30.444220999999999
 20
115.625
 30
0.0
 11
30.444220999999999
 21
105.125
 31
0.0
  0
LINE
  5
315
  8
0
  6
CONTINUOUS
 62
     7
 10
30.444220999999999
 20
115.625
 30
0.0
 11
31.444220999999992
 21
112.6249999999999
 31
0.0
  0
LINE
  5
316
  8
0
  6
CONTINUOUS
 62
     7
 10
30.444220999999999
 20
115.625
 30
0.0
 11
29.444220999999999
 21
112.6249999999999
 31
0.0
  0
LINE
  5
317
  8
0
  6
CONTINUOUS
 62
     7
 10
-14.813507
 20
94.625
 30
0.0
 11
31.644220000000001
 21
94.625
 31
0.0
  0
LINE
  5
318
  8
0
  6
CONTINUOUS
 62
     7
 10
-10.413506
 20
115.625
 30
0.0
 11
31.644220000000001
 21
115.625
 31
0.0
  0
TEXT
  5
319
  8
0
  6
CONTINUOUS
 62
     7
 10
29.644221999999989
 20
122.01652
 30
0.0
 40
3.2000000000000002
  1
(8)
 50
90.000003000000007
 41
1.285714399999998
  0
LINE
  5
31A
  8
0
  6
CONTINUOUS
 62
     7
 10
30.444220999999999
 20
118.45938
 30
0.0
 11
30.444220999999999
 21
126.3593799999999
 31
0.0
  0
LINE
  5
31B
  8
0
  6
CONTINUOUS
 62
     7
 10
30.444220999999999
 20
118.45938
 30
0.0
 11
29.444220999999999
 21
121.45938
 31
0.0
  0
LINE
  5
31C
  8
0
  6
CONTINUOUS
 62
     7
 10
30.444220999999999
 20
118.45938
 30
0.0
 11
31.444220999999992
 21
121.45938
 31
0.0
  0
LINE
  5
31D
  8
0
  6
CONTINUOUS
 62
     7
 10
30.444220999999999
 20
134.25937999999991
 30
0.0
 11
30.444220999999999
 21
126.3593799999999
 31
0.0
  0
LINE
  5
31E
  8
0
  6
CONTINUOUS
 62
     7
 10
30.444220999999999
 20
134.25937999999991
 30
0.0
 11
31.444220999999992
 21
131.25937999999991
 31
0.0
  0
LINE
  5
31F
  8
0
  6
CONTINUOUS
 62
     7
 10
30.444220999999999
 20
134.25937999999991
 30
0.0
 11
29.444220999999999
 21
131.25937999999991
 31
0.0
  0
LINE
  5
320
  8
0
  6
CONTINUOUS
 62
     7
 10
-18.313507000000001
 20
118.45938
 30
0.0
 11
31.644220000000001
 21
118.45938
 31
0.0
  0
LINE
  5
321
  8
0
  6
CONTINUOUS
 62
     7
 10
-21.813507000000001
 20
134.25937999999991
 30
0.0
 11
31.644220000000001
 21
134.25937999999991
 31
0.0
  0
TEXT
  5
322
  8
0
  6
CONTINUOUS
 62
     7
 10
29.644221000000002
 20
115.4821399999998
 30
0.0
 40
3.2000000000000002
  1
１
 50
90.000003000000007
 41
0.90036055
  0
LINE
  5
323
  8
0
  6
CONTINUOUS
 62
     7
 10
30.444220999999999
 20
115.625
 30
0.0
 11
30.444220999999999
 21
116.625
 31
0.0
  0
LINE
  5
324
  8
0
  6
CONTINUOUS
 62
     7
 10
30.444220999999999
 20
117.625
 30
0.0
 11
30.444220999999999
 21
116.625
 31
0.0
  0
CIRCLE
  5
325
  8
0
  6
CONTINUOUS
 62
     7
 10
30.444220999999999
 20
117.625
 30
0.0
 40
0.3
  0
LINE
  5
326
  8
0
  6
CONTINUOUS
 62
     7
 10
-12.604397000000001
 20
117.625
 30
0.0
 11
31.644220000000001
 21
117.625
 31
0.0
  0
TEXT
  5
327
  8
0
  6
CONTINUOUS
 62
     7
 10
-34.056364999999992
 20
151.18213
 30
0.0
 40
3.2000000000000002
  1
１５
 41
0.8643459000000001
  0
LINE
  5
328
  8
0
  6
CONTINUOUS
 62
     7
 10
-46.313507000000001
 20
150.38212999999999
 30
0.0
 11
-31.313507000000001
 21
150.38212999999999
 31
0.0
  0
LINE
  5
329
  8
0
  6
CONTINUOUS
 62
     7
 10
-46.313507000000001
 20
150.38212999999999
 30
0.0
 11
-43.313507000000001
 21
151.38212999999999
 31
0.0
  0
LINE
  5
32A
  8
0
  6
CONTINUOUS
 62
     7
 10
-46.313507000000001
 20
150.38212999999999
 30
0.0
 11
-43.313507000000001
 21
149.38212999999999
 31
0.0
  0
LINE
  5
32B
  8
0
  6
CONTINUOUS
 62
     7
 10
-16.313507000000001
 20
150.38212999999999
 30
0.0
 11
-31.313507000000001
 21
150.38212999999999
 31
0.0
  0
LINE
  5
32C
  8
0
  6
CONTINUOUS
 62
     7
 10
-16.313507000000001
 20
150.38212999999999
 30
0.0
 11
-19.313507000000001
 21
149.38212999999999
 31
0.0
  0
LINE
  5
32D
  8
0
  6
CONTINUOUS
 62
     7
 10
-16.313507000000001
 20
150.38212999999999
 30
0.0
 11
-19.313507000000001
 21
151.38212999999999
 31
0.0
  0
LINE
  5
32E
  8
0
  6
CONTINUOUS
 62
     7
 10
-46.313507000000001
 20
120.95938
 30
0.0
 11
-46.313507000000001
 21
151.8821299999999
 31
0.0
  0
LINE
  5
32F
  8
0
  6
CONTINUOUS
 62
     7
 10
-16.313507000000001
 20
120.95938
 30
0.0
 11
-16.313507000000001
 21
151.8821299999999
 31
0.0
  0
TEXT
  5
330
  8
0
  6
CONTINUOUS
 62
     7
 10
-37.256365000000002
 20
158.78246999999979
 30
0.0
 40
3.2000000000000002
  1
２１．５
 41
0.85124966
  0
LINE
  5
331
  8
0
  6
CONTINUOUS
 62
     7
 10
-52.813506999999987
 20
157.98247000000001
 30
0.0
 11
-31.313506
 21
157.98247000000001
 31
0.0
  0
LINE
  5
332
  8
0
  6
CONTINUOUS
 62
     7
 10
-52.813506999999987
 20
157.98247000000001
 30
0.0
 11
-49.813507000000001
 21
158.98247000000001
 31
0.0
  0
LINE
  5
333
  8
0
  6
CONTINUOUS
 62
     7
 10
-52.813506999999987
 20
157.98247000000001
 30
0.0
 11
-49.813507000000001
 21
156.98247000000001
 31
0.0
  0
LINE
  5
334
  8
0
  6
CONTINUOUS
 62
     7
 10
-9.8135051999999998
 20
157.98247000000001
 30
0.0
 11
-31.313506
 21
157.98247000000001
 31
0.0
  0
LINE
  5
335
  8
0
  6
CONTINUOUS
 62
     7
 10
-9.8135051999999998
 20
157.98247000000001
 30
0.0
 11
-12.813504999999999
 21
156.98247000000001
 31
0.0
  0
LINE
  5
336
  8
0
  6
CONTINUOUS
 62
     7
 10
-9.8135051999999998
 20
157.98247000000001
 30
0.0
 11
-12.813504999999999
 21
158.98247000000001
 31
0.0
  0
LINE
  5
337
  8
0
  6
CONTINUOUS
 62
     7
 10
-52.813506999999987
 20
119.22501
 30
0.0
 11
-52.813506999999987
 21
159.48247000000001
 31
0.0
  0
LINE
  5
338
  8
0
  6
CONTINUOUS
 62
     7
 10
-9.8135051999999998
 20
119.22501
 30
0.0
 11
-9.8135051999999998
 21
159.48247000000001
 31
0.0
  0
TEXT
  5
339
  8
0
  6
CONTINUOUS
 62
     7
 10
-35.656365000000001
 20
141.68971999999999
 30
0.0
 40
3.2000000000000002
  1
9.5
 41
1.3571429999999991
  0
LINE
  5
33A
  8
0
  6
CONTINUOUS
 62
     7
 10
-40.813507000000001
 20
140.88972000000001
 30
0.0
 11
-31.313507000000001
 21
140.88972000000001
 31
0.0
  0
LINE
  5
33B
  8
0
  6
CONTINUOUS
 62
     7
 10
-40.813507000000001
 20
140.88972000000001
 30
0.0
 11
-37.813507000000001
 21
141.8897199999999
 31
0.0
  0
LINE
  5
33C
  8
0
  6
CONTINUOUS
 62
     7
 10
-40.813507000000001
 20
140.88972000000001
 30
0.0
 11
-37.813507000000001
 21
139.8897199999999
 31
0.0
  0
LINE
  5
33D
  8
0
  6
CONTINUOUS
 62
     7
 10
-21.813507000000001
 20
140.88972000000001
 30
0.0
 11
-31.313507000000001
 21
140.88972000000001
 31
0.0
  0
LINE
  5
33E
  8
0
  6
CONTINUOUS
 62
     7
 10
-21.813507000000001
 20
140.88972000000001
 30
0.0
 11
-24.813507000000001
 21
139.8897199999999
 31
0.0
  0
LINE
  5
33F
  8
0
  6
CONTINUOUS
 62
     7
 10
-21.813507000000001
 20
140.88972000000001
 30
0.0
 11
-24.813507000000001
 21
141.8897199999999
 31
0.0
  0
LINE
  5
340
  8
0
  6
CONTINUOUS
 62
     7
 10
-40.813507000000001
 20
134.25937999999991
 30
0.0
 11
-40.813507000000001
 21
142.0897199999998
 31
0.0
  0
LINE
  5
341
  8
0
  6
CONTINUOUS
 62
     7
 10
-21.813507000000001
 20
134.25937999999991
 30
0.0
 11
-21.813507000000001
 21
142.0897199999998
 31
0.0
  0
TEXT
  5
342
  8
0
  6
CONTINUOUS
 62
     7
 10
29.644221999999989
 20
80.585739000000004
 30
0.0
 40
3.2000000000000002
  1
(3)
 50
90.000003000000007
 41
1.285714399999998
  0
LINE
  5
343
  8
0
  6
CONTINUOUS
 62
     7
 10
30.444220999999999
 20
94.625
 30
0.0
 11
30.444220999999999
 21
92.125
 31
0.0
  0
LINE
  5
344
  8
0
  6
CONTINUOUS
 62
     7
 10
30.444220999999999
 20
92.125
 30
0.0
 11
30.444220999999999
 21
80.585739000000004
 31
0.0
  0
LINE
  5
345
  8
0
  6
CONTINUOUS
 62
     7
 10
30.444220999999999
 20
89.625
 30
0.0
 11
30.444220999999999
 21
83.625
 31
0.0
  0
LINE
  5
346
  8
0
  6
CONTINUOUS
 62
     7
 10
30.444220999999999
 20
83.625
 30
0.0
 11
30.444220999999999
 21
92.125
 31
0.0
  0
LINE
  5
347
  8
0
  6
CONTINUOUS
 62
     7
 10
30.444220999999999
 20
89.625
 30
0.0
 11
31.444220999999992
 21
86.624999999999986
 31
0.0
  0
LINE
  5
348
  8
0
  6
CONTINUOUS
 62
     7
 10
30.444220999999999
 20
89.625
 30
0.0
 11
29.444220999999999
 21
86.624999999999986
 31
0.0
  0
LINE
  5
349
  8
0
  6
CONTINUOUS
 62
     7
 10
-28.313507000000001
 20
89.625
 30
0.0
 11
31.644221999999989
 21
89.625
 31
0.0
  0
ENDSEC
  0
EOF
