  0
SECTION
  2
HEADER
  9
$ACADVER
  1
AC1009
  9
$INSBASE
 10
0.0
 20
0.0
 30
0.0
  9
$EXTMIN
 10
-52.973006752886278
 20
78.625981764618359
 30
-0.0015258207003583
  9
$EXTMAX
 10
31.646804431103469
 20
161.7740738455868
 30
0.0000000349246037
  9
$LIMMIN
 10
0.0
 20
0.0
  9
$LIMMAX
 10
12.0
 20
9.0
  9
$ORTHOMODE
 70
     0
  9
$REGENMODE
 70
     1
  9
$FILLMODE
 70
     1
  9
$QTEXTMODE
 70
     0
  9
$MIRRTEXT
 70
     1
  9
$DRAGMODE
 70
     2
  9
$LTSCALE
 40
1.0
  9
$OSMODE
 70
    63
  9
$ATTMODE
 70
     1
  9
$TEXTSIZE
 40
0.2
  9
$TRACEWID
 40
0.05
  9
$TEXTSTYLE
  7
STANDARD
  9
$CLAYER
  8
0
  9
$CELTYPE
  6
CONTINUOUS
  9
$CECOLOR
 62
   256
  9
$DIMSCALE
 40
1.0
  9
$DIMASZ
 40
0.18
  9
$DIMEXO
 40
0.0625
  9
$DIMDLI
 40
0.38
  9
$DIMRND
 40
0.0
  9
$DIMDLE
 40
0.0
  9
$DIMEXE
 40
0.18
  9
$DIMTP
 40
0.0
  9
$DIMTM
 40
0.0
  9
$DIMTXT
 40
0.18
  9
$DIMCEN
 40
0.09
  9
$DIMTSZ
 40
0.0
  9
$DIMTOL
 70
     0
  9
$DIMLIM
 70
     0
  9
$DIMTIH
 70
     1
  9
$DIMTOH
 70
     1
  9
$DIMSE1
 70
     0
  9
$DIMSE2
 70
     0
  9
$DIMTAD
 70
     0
  9
$DIMZIN
 70
     0
  9
$DIMBLK
  1

  9
$DIMASO
 70
     1
  9
$DIMSHO
 70
     1
  9
$DIMPOST
  1

  9
$DIMAPOST
  1

  9
$DIMALT
 70
     0
  9
$DIMALTD
 70
     2
  9
$DIMALTF
 40
25.399999999999999
  9
$DIMLFAC
 40
1.0
  9
$DIMTOFL
 70
     0
  9
$DIMTVP
 40
0.0
  9
$DIMTIX
 70
     0
  9
$DIMSOXD
 70
     0
  9
$DIMSAH
 70
     0
  9
$DIMBLK1
  1

  9
$DIMBLK2
  1

  9
$DIMSTYLE
  2
STANDARD
  9
$DIMCLRD
 70
     0
  9
$DIMCLRE
 70
     0
  9
$DIMCLRT
 70
     0
  9
$DIMTFAC
 40
1.0
  9
$DIMGAP
 40
0.09
  9
$LUNITS
 70
     2
  9
$LUPREC
 70
     4
  9
$SKETCHINC
 40
0.1
  9
$FILLETRAD
 40
0.0
  9
$AUNITS
 70
     0
  9
$AUPREC
 70
     0
  9
$MENU
  1
.
  9
$ELEVATION
 40
0.0
  9
$PELEVATION
 40
0.0
  9
$THICKNESS
 40
0.0
  9
$LIMCHECK
 70
     0
  9
$BLIPMODE
 70
     0
  9
$CHAMFERA
 40
0.0
  9
$CHAMFERB
 40
0.0
  9
$SKPOLY
 70
     0
  9
$TDCREATE
 40
2452865.527138669
  9
$TDUPDATE
 40
2452878.4951860881
  9
$TDINDWG
 40
0.0030673148
  9
$TDUSRTIMER
 40
0.0030671296
  9
$USRTIMER
 70
     1
  9
$ANGBASE
 50
0.0
  9
$ANGDIR
 70
     0
  9
$PDMODE
 70
     0
  9
$PDSIZE
 40
0.0
  9
$PLINEWID
 40
0.0
  9
$COORDS
 70
     0
  9
$SPLFRAME
 70
     0
  9
$SPLINETYPE
 70
     6
  9
$SPLINESEGS
 70
     8
  9
$ATTDIA
 70
     1
  9
$ATTREQ
 70
     1
  9
$HANDLING
 70
     1
  9
$HANDSEED
  5
4A9
  9
$SURFTAB1
 70
     6
  9
$SURFTAB2
 70
     6
  9
$SURFTYPE
 70
     6
  9
$SURFU
 70
     6
  9
$SURFV
 70
     6
  9
$UCSNAME
  2

  9
$UCSORG
 10
0.0
 20
0.0
 30
0.0
  9
$UCSXDIR
 10
1.0
 20
0.0
 30
0.0
  9
$UCSYDIR
 10
0.0
 20
1.0
 30
0.0
  9
$PUCSNAME
  2

  9
$PUCSORG
 10
0.0
 20
0.0
 30
0.0
  9
$PUCSXDIR
 10
1.0
 20
0.0
 30
0.0
  9
$PUCSYDIR
 10
0.0
 20
1.0
 30
0.0
  9
$USERI1
 70
     0
  9
$USERI2
 70
     0
  9
$USERI3
 70
     0
  9
$USERI4
 70
     0
  9
$USERI5
 70
     0
  9
$USERR1
 40
0.0
  9
$USERR2
 40
0.0
  9
$USERR3
 40
0.0
  9
$USERR4
 40
0.0
  9
$USERR5
 40
0.0
  9
$WORLDVIEW
 70
     1
  9
$SHADEDGE
 70
     3
  9
$SHADEDIF
 70
    70
  9
$TILEMODE
 70
     1
  9
$MAXACTVP
 70
    64
  9
$PLIMCHECK
 70
     0
  9
$PEXTMIN
 10
1.0000000000000000E+020
 20
1.0000000000000000E+020
 30
1.0000000000000000E+020
  9
$PEXTMAX
 10
-1.0000000000000000E+020
 20
-1.0000000000000000E+020
 30
-1.0000000000000000E+020
  9
$PLIMMIN
 10
0.0
 20
0.0
  9
$PLIMMAX
 10
12.0
 20
9.0
  9
$UNITMODE
 70
     0
  9
$VISRETAIN
 70
     1
  9
$PLINEGEN
 70
     0
  9
$PSLTSCALE
 70
     1
  0
ENDSEC
  0
SECTION
  2
TABLES
  0
TABLE
  2
VPORT
 70
     3
  0
VPORT
  2
*ACTIVE
 70
     0
 10
0.0
 20
0.0
 11
1.0
 21
1.0
 12
-10.663101160891401
 22
120.20002780510249
 13
0.0
 23
0.0
 14
1.0
 24
1.0
 15
0.0
 25
0.0
 16
0.0
 26
0.0
 36
1.0
 17
0.0
 27
0.0
 37
0.0
 40
83.751343051326174
 41
1.5242130750605321
 42
50.0
 43
0.0
 44
0.0
 50
0.0
 51
0.0
 71
     0
 72
   100
 73
     1
 74
     1
 75
     0
 76
     0
 77
     0
 78
     0
  0
ENDTAB
  0
TABLE
  2
LTYPE
 70
    19
  0
LTYPE
  2
CONTINUOUS
 70
     0
  3
Solid line
 72
    65
 73
     0
 40
0.0
  0
LTYPE
  2
DASHED
 70
     0
  3
__ __ __ __ __ __ __ __ __ __ __ __ __ __ __
 72
    65
 73
     2
 40
3.5
 49
2.0
 49
-1.5
  0
LTYPE
  2
CENTER
 70
     0
  3
____ _ ____ _ ____ _ ____ _ ____ _ ____ _ ____
 72
    65
 73
     4
 40
17.5
 49
13.0
 49
-1.5
 49
1.5
 49
-1.5
  0
LTYPE
  2
PHANTOM
 70
     0
  3
_____ _ _ _____ _ _ _____ _ _ _____ _ _ ____  
 72
    65
 73
     6
 40
15.5
 49
8.0
 49
-1.5
 49
1.5
 49
-1.5
 49
1.5
 49
-1.5
  0
LTYPE
  2
DOT
 70
     0
  3
. . . . . . . . . . . . . . . . . . . . . . . .
 72
    65
 73
     2
 40
0.25
 49
0.0
 49
-0.25
  0
LTYPE
  2
AM_ISO02W050
 70
     0
  3
__ __ __ __ __ __ __ __ __ __ __ __ __ __ __
 72
    65
 73
     2
 40
7.5
 49
6.0
 49
-1.5
  0
LTYPE
  2
AM_ISO08W050
 70
     0
  3
____ . ____ . ____ . ____ . ____ . ____ . ____
 72
    65
 73
     4
 40
18.0
 49
12.0
 49
-1.5
 49
3.0
 49
-1.5
  0
LTYPE
  2
AM_ISO09W050
 70
     0
  3
_____ . . _____ . . _____ . . ____ .. ____
 72
    65
 73
     6
 40
22.5
 49
12.0
 49
-1.5
 49
3.0
 49
-1.5
 49
3.0
 49
-1.5
  0
LTYPE
  2
AMCONSTR
 70
     0
  3
_______________________
 72
    65
 73
     2
 40
9999.0
 49
9999.0
 49
0.0
  0
LTYPE
  2
AM_ISO08W050X2
 70
     0
  3
__ . __ . __ . __ . __ . __
 72
    65
 73
     4
 40
9.0
 49
6.0
 49
-0.75
 49
1.5
 49
-0.75
  0
LTYPE
  2
AM_ISO02W050X2
 70
     0
  3
 _ _ _ _ _ _ _ _ _ _ _ _
 72
    65
 73
     2
 40
3.75
 49
3.0
 49
-0.75
  0
LTYPE
  2
AMZIGZAG
 70
     0
  3
/\/-/\/-/\/-/\/-/\/-/\/
 72
    65
 73
     2
 40
11.000099999999991
 49
0.0001
 49
-11.0
  0
LTYPE
  2
HIDDEN
 70
     0
  3
Hidden __ __ __ __ __ __ __ __ __ __ __ __ __ _
 72
    65
 73
     2
 40
0.375
 49
0.25
 49
-0.125
  0
LTYPE
  2
PHANTOM2
 70
     0
  3
Phantom (.5x) ___ _ _ ___ _ _ ___ _ _ ___ _ _
 72
    65
 73
     6
 40
1.25
 49
0.625
 49
-0.125
 49
0.125
 49
-0.125
 49
0.125
 49
-0.125
  0
LTYPE
  2
CENTER2
 70
     0
  3
Center (.5x) ___ _ ___ _ ___ _ ___ _ ___ _ ___
 72
    65
 73
     4
 40
1.125
 49
0.75
 49
-0.125
 49
0.125
 49
-0.125
  0
LTYPE
  2
HIDDEN2
 70
     0
  3
Hidden (.5x) _ _ _ _ _ _ _ _ _ _ _ _ _ _ _ _ _
 72
    65
 73
     2
 40
0.1875
 49
0.125
 49
-0.0625
  0
LTYPE
  2
AMZIGZAG2
 70
     0
  3
/\/-/\/-/\/-/\/-/\/-/\/
 72
    65
 73
     2
 40
0.4401
 49
0.0001
 49
-0.4400000000000003
  0
LTYPE
  2
ACANSTGB
 70
     0
  3
__ . . __ . .
 72
    65
 73
     6
 40
0.35433070866
 49
0.15748031496
 49
-0.03937007874
 49
0.03937007874
 49
-0.03937007874
 49
0.03937007874
 49
-0.03937007874
  0
LTYPE
  2
ACANSTGL
 70
     0
  3
_ _ _ _ _
 72
    65
 73
     2
 40
0.11811023622
 49
0.07874015748
 49
-0.03937007874
  0
ENDTAB
  0
TABLE
  2
LAYER
 70
     3
  0
LAYER
  2
0
 70
     0
 62
     7
  6
CONTINUOUS
  0
LAYER
  2
1
 70
     0
 62
     7
  6
CONTINUOUS
  0
LAYER
  2
2
 70
     0
 62
     7
  6
CONTINUOUS
  0
ENDTAB
  0
TABLE
  2
STYLE
 70
     4
  0
STYLE
  2
STANDARD
 70
     0
 40
0.0
 41
1.0
 50
0.0
 71
     0
 42
0.2
  3
txt
  4
BIGFONT
  0
STYLE
  2

 70
     1
 40
0.0
 41
1.0
 50
0.0
 71
     0
 42
0.2
  3
ltypeshp.shx
  4

  0
STYLE
  2
ACANSTS
 70
     0
 40
1.0
 41
1.0
 50
0.0
 71
     0
 42
0.2
  3
romans.shx
  4
extfont.shx
  0
STYLE
  2
ACANSGDT
 70
     0
 40
0.0
 41
1.0
 50
0.0
 71
     0
 42
0.2
  3
amgdtans.shx
  4

  0
ENDTAB
  0
TABLE
  2
VIEW
 70
     0
  0
ENDTAB
  0
TABLE
  2
UCS
 70
     0
  0
ENDTAB
  0
TABLE
  2
APPID
 70
     4
  0
APPID
  2
ACAD
 70
     0
  0
APPID
  2
MCAD_NO_VIS
 70
     0
  0
APPID
  2
ACAD_TEMP_GRAPHIC
 70
     0
  0
APPID
  2
ACATTRIBSERVICES
 70
     0
  0
ENDTAB
  0
TABLE
  2
DIMSTYLE
 70
     7
  0
DIMSTYLE
  2
STANDARD
 70
     0
  3

  4

  5

  6

  7

 40
1.0
 41
0.18
 42
0.0625
 43
0.38
 44
0.18
 45
0.0
 46
0.0
 47
0.0
 48
0.0
140
0.18
141
0.09
142
0.0
143
25.399999999999999
144
1.0
145
0.0
146
1.0
147
0.09
 71
     0
 72
     0
 73
     1
 74
     1
 75
     0
 76
     0
 77
     0
 78
     0
170
     0
171
     2
172
     0
173
     0
174
     0
175
     0
176
     0
177
     0
178
     0
  0
DIMSTYLE
  2
AM_ANSI
 70
     0
  3

  4
mm
  5

  6

  7

 40
1.0
 41
0.1
 42
0.05
 43
0.5
 44
0.1
 45
0.0
 46
0.0
 47
0.1
 48
0.1
140
0.12
141
0.0
142
0.0
143
25.399999999999999
144
1.0
145
0.0
146
0.71
147
0.06
 71
     0
 72
     0
 73
     1
 74
     1
 75
     0
 76
     0
 77
     0
 78
     7
170
     0
171
     2
172
     0
173
     0
174
     0
175
     0
176
   256
177
   256
178
     2
  0
DIMSTYLE
  2
AM_ANSI$3
 70
     0
  3

  4
mm
  5

  6

  7

 40
1.0
 41
0.1
 42
0.05
 43
0.5
 44
0.1
 45
0.0
 46
0.0
 47
0.1
 48
0.1
140
0.12
141
0.0
142
0.0
143
25.399999999999999
144
1.0
145
0.0
146
0.71
147
0.06
 71
     0
 72
     0
 73
     1
 74
     1
 75
     0
 76
     0
 77
     0
 78
     7
170
     0
171
     2
172
     0
173
     0
174
     0
175
     0
176
   256
177
   256
178
     2
  0
DIMSTYLE
  2
AM_ANSI$4
 70
     0
  3

  4
mm
  5

  6

  7

 40
1.0
 41
0.1
 42
0.05
 43
0.5
 44
0.1
 45
0.0
 46
0.0
 47
0.1
 48
0.1
140
0.12
141
0.0
142
0.0
143
25.399999999999999
144
1.0
145
0.0
146
0.71
147
0.06
 71
     0
 72
     0
 73
     1
 74
     1
 75
     0
 76
     0
 77
     0
 78
     7
170
     0
171
     2
172
     0
173
     0
174
     0
175
     0
176
   256
177
   256
178
     2
  0
DIMSTYLE
  2
AM_ANSI$7
 70
     0
  3

  4
mm
  5

  6

  7

 40
1.0
 41
0.1
 42
0.05
 43
0.5
 44
0.1
 45
0.0
 46
0.0
 47
0.1
 48
0.1
140
0.24
141
0.0
142
0.0
143
25.399999999999999
144
1.0
145
0.0
146
0.71
147
0.06
 71
     0
 72
     0
 73
     1
 74
     1
 75
     0
 76
     0
 77
     0
 78
     7
170
     0
171
     2
172
     0
173
     0
174
     0
175
     0
176
   256
177
   256
178
     2
  0
DIMSTYLE
  2
AM_ANSI$SF
 70
     0
  3

  4
mm
  5

  6

  7

 40
1.0
 41
0.1
 42
0.05
 43
0.5
 44
0.1
 45
0.0
 46
0.0
 47
0.1
 48
0.1
140
0.12
141
0.0
142
0.0
143
25.399999999999999
144
1.0
145
0.0
146
0.71
147
0.06
 71
     0
 72
     0
 73
     1
 74
     1
 75
     1
 76
     1
 77
     0
 78
     7
170
     0
171
     2
172
     0
173
     0
174
     0
175
     0
176
   256
177
   256
178
     2
  0
DIMSTYLE
  2
AM_ANSI$SH
 70
     0
  3

  4
mm
  5

  6

  7

 40
1.0
 41
0.1
 42
0.05
 43
0.5
 44
0.1
 45
0.0
 46
0.0
 47
0.1
 48
0.1
140
0.12
141
0.0
142
0.0
143
25.399999999999999
144
1.0
145
0.0
146
0.71
147
0.06
 71
     0
 72
     0
 73
     1
 74
     1
 75
     1
 76
     1
 77
     0
 78
     7
170
     0
171
     2
172
     0
173
     1
174
     0
175
     0
176
   256
177
   256
178
     2
  0
ENDTAB
  0
ENDSEC
  0
SECTION
  2
BLOCKS
  0
BLOCK
  8
0
  2
$MODEL_SPACE
 70
     0
 10
0.0
 20
0.0
 30
0.0
  3
$MODEL_SPACE
  1

  0
ENDBLK
  5
435
  8
0
  0
BLOCK
 67
     1
  8
0
  2
$PAPER_SPACE
 70
     0
 10
0.0
 20
0.0
 30
0.0
  3
$PAPER_SPACE
  1

  0
ENDBLK
  5
431
 67
     1
  8
0
  0
BLOCK
  8
0
  2
GENAXEH
 70
     0
 10
0.0
 20
0.0
 30
0.0
  3
GENAXEH
  1

  0
LINE
  5
356
  8
0
 10
-1.0
 20
0.0
 30
0.0
 11
1.0
 21
0.0
 31
0.0
  0
ENDBLK
  5
358
  8
0
  0
ENDSEC
  0
SECTION
  2
ENTITIES
  0
LINE
  5
156
  8
0
  6
CENTER
 62
     7
 10
-31.313507000000001
 20
126.74391
 30
0.0
 11
-31.313507000000001
 21
78.629631000000003
 31
0.0
  0
LINE
  5
157
  8
0
  6
CONTINUOUS
 62
     7
 10
-46.813507000000001
 20
116.625
 30
0.0
 11
-46.813507000000001
 21
100.625
 31
0.0
  0
LINE
  5
158
  8
0
  6
CONTINUOUS
 62
     7
 10
-15.813507
 20
116.625
 30
0.0
 11
-15.813507
 21
100.625
 31
0.0
  0
LINE
  5
159
  8
0
  6
CONTINUOUS
 62
     7
 10
-45.813507000000001
 20
99.625
 30
0.0
 11
-16.813507000000001
 21
99.625
 31
0.0
  0
LINE
  5
15A
  8
0
  6
CONTINUOUS
 62
     7
 10
-50.022613999999997
 20
117.625
 30
0.0
 11
-47.813506999999987
 21
117.625
 31
0.0
  0
LINE
  5
15B
  8
0
  6
CONTINUOUS
 62
     7
 10
-14.813507
 20
117.625
 30
0.0
 11
-12.604397000000001
 21
117.625
 31
0.0
  0
LINE
  5
15C
  8
0
  6
CONTINUOUS
 62
     7
 10
-49.813507000000001
 20
115.625
 30
0.0
 11
-49.813507000000001
 21
96.625000000000014
 31
0.0
  0
LINE
  5
15D
  8
0
  6
CONTINUOUS
 62
     7
 10
-52.213509000000002
 20
115.625
 30
0.0
 11
-49.813507000000001
 21
115.625
 31
0.0
  0
LINE
  5
15E
  8
0
  6
CONTINUOUS
 62
     7
 10
-47.813506999999987
 20
94.625
 30
0.0
 11
-14.813507
 21
94.625
 31
0.0
  0
LINE
  5
15F
  8
0
  6
CONTINUOUS
 62
     7
 10
-12.813507
 20
115.625
 30
0.0
 11
-12.813507
 21
96.625000000000014
 31
0.0
  0
LINE
  5
160
  8
0
  6
CONTINUOUS
 62
     7
 10
-12.813507
 20
115.625
 30
0.0
 11
-10.413506
 21
115.625
 31
0.0
  0
LINE
  5
161
  8
0
  6
CONTINUOUS
 62
     7
 10
-46.313507000000001
 20
116.45938
 30
0.0
 11
-46.313507000000001
 21
108.8593799999999
 31
0.0
  0
LINE
  5
162
  8
0
  6
CONTINUOUS
 62
     7
 10
-44.113509999999977
 20
116.25937999999999
 30
0.0
 11
-44.113509999999977
 21
113.6593799999999
 31
0.0
  0
LINE
  5
163
  8
0
  6
CONTINUOUS
 62
     7
 10
-37.51350399999999
 20
116.25937999999999
 30
0.0
 11
-37.51350399999999
 21
113.6593799999999
 31
0.0
  0
LINE
  5
164
  8
0
  6
CONTINUOUS
 62
     7
 10
-39.813507000000001
 20
116.25937999999999
 30
0.0
 11
-37.51350399999999
 21
116.25937999999999
 31
0.0
  0
LINE
  5
165
  8
0
  6
CONTINUOUS
 62
     7
 10
-44.113509999999977
 20
116.25937999999999
 30
0.0
 11
-41.813507000000001
 21
116.25937999999999
 31
0.0
  0
LINE
  5
166
  8
0
  6
CONTINUOUS
 62
     7
 10
-44.113509999999977
 20
113.6593799999999
 30
0.0
 11
-37.51350399999999
 21
113.6593799999999
 31
0.0
  0
LINE
  5
167
  8
0
  6
CONTINUOUS
 62
     7
 10
-41.813507000000001
 20
116.25937999999999
 30
0.0
 11
-40.813507000000001
 21
134.25937999999991
 31
0.0
  0
LINE
  5
168
  8
0
  6
CONTINUOUS
 62
     7
 10
-40.813507000000001
 20
134.25937999999991
 30
0.0
 11
-39.813507000000001
 21
116.25937999999999
 31
0.0
  0
LINE
  5
169
  8
0
  6
CONTINUOUS
 62
     7
 10
-37.313507000000001
 20
116.45938
 30
0.0
 11
-37.313507000000001
 21
113.45938
 31
0.0
  0
LINE
  5
16A
  8
0
  6
CONTINUOUS
 62
     7
 10
-44.313507000000001
 20
118.45938
 30
0.0
 11
-42.313507000000001
 21
118.45938
 31
0.0
  0
LINE
  5
16B
  8
0
  6
CONTINUOUS
 62
     7
 10
-39.313507000000001
 20
118.45938
 30
0.0
 11
-39.313507000000001
 21
116.45938
 31
0.0
  0
LINE
  5
16C
  8
0
  6
CONTINUOUS
 62
     7
 10
-42.313507000000001
 20
118.45938
 30
0.0
 11
-42.313507000000001
 21
116.45938
 31
0.0
  0
LINE
  5
16D
  8
0
  6
CONTINUOUS
 62
     7
 10
-44.313507000000001
 20
116.45938
 30
0.0
 11
-42.313507000000001
 21
116.45938
 31
0.0
  0
LINE
  5
16E
  8
0
  6
CONTINUOUS
 62
     7
 10
-39.313507000000001
 20
116.45938
 30
0.0
 11
-37.313507000000001
 21
116.45938
 31
0.0
  0
LINE
  5
16F
  8
0
  6
CONTINUOUS
 62
     7
 10
-39.313507000000001
 20
118.45938
 30
0.0
 11
-23.313507000000001
 21
118.45938
 31
0.0
  0
LINE
  5
170
  8
0
  6
CONTINUOUS
 62
     7
 10
-44.313507000000001
 20
116.45938
 30
0.0
 11
-44.313507000000001
 21
113.45938
 31
0.0
  0
LINE
  5
171
  8
0
  6
CONTINUOUS
 62
     7
 10
-44.313507000000001
 20
113.45938
 30
0.0
 11
-37.313507000000001
 21
113.45938
 31
0.0
  0
LINE
  5
172
  8
0
  6
CONTINUOUS
 62
     7
 10
-25.113510000000002
 20
116.25937999999999
 30
0.0
 11
-25.113510000000002
 21
113.6593799999999
 31
0.0
  0
LINE
  5
173
  8
0
  6
CONTINUOUS
 62
     7
 10
-18.513504000000001
 20
116.25937999999999
 30
0.0
 11
-18.513504000000001
 21
113.6593799999999
 31
0.0
  0
LINE
  5
174
  8
0
  6
CONTINUOUS
 62
     7
 10
-20.813507000000001
 20
116.25937999999999
 30
0.0
 11
-18.513504000000001
 21
116.25937999999999
 31
0.0
  0
LINE
  5
175
  8
0
  6
CONTINUOUS
 62
     7
 10
-25.113510000000002
 20
116.25937999999999
 30
0.0
 11
-22.813507000000001
 21
116.25937999999999
 31
0.0
  0
LINE
  5
176
  8
0
  6
CONTINUOUS
 62
     7
 10
-25.113510000000002
 20
113.6593799999999
 30
0.0
 11
-18.513504000000001
 21
113.6593799999999
 31
0.0
  0
LINE
  5
177
  8
0
  6
CONTINUOUS
 62
     7
 10
-22.813507000000001
 20
116.25937999999999
 30
0.0
 11
-21.813507000000001
 21
134.25937999999991
 31
0.0
  0
LINE
  5
178
  8
0
  6
CONTINUOUS
 62
     7
 10
-21.813507000000001
 20
134.25937999999991
 30
0.0
 11
-20.813507000000001
 21
116.25937999999999
 31
0.0
  0
LINE
  5
179
  8
0
  6
CONTINUOUS
 62
     7
 10
-23.313507000000001
 20
118.45938
 30
0.0
 11
-23.313507000000001
 21
116.45938
 31
0.0
  0
LINE
  5
17A
  8
0
  6
CONTINUOUS
 62
     7
 10
-20.313507000000001
 20
118.45938
 30
0.0
 11
-20.313507000000001
 21
116.45938
 31
0.0
  0
LINE
  5
17B
  8
0
  6
CONTINUOUS
 62
     7
 10
-20.313507000000001
 20
116.45938
 30
0.0
 11
-18.313507000000001
 21
116.45938
 31
0.0
  0
LINE
  5
17C
  8
0
  6
CONTINUOUS
 62
     7
 10
-25.313507000000001
 20
116.45938
 30
0.0
 11
-23.313507000000001
 21
116.45938
 31
0.0
  0
LINE
  5
17D
  8
0
  6
CONTINUOUS
 62
     7
 10
-20.313507000000001
 20
118.45938
 30
0.0
 11
-18.313507000000001
 21
118.45938
 31
0.0
  0
LINE
  5
17E
  8
0
  6
CONTINUOUS
 62
     7
 10
-18.313507000000001
 20
116.45938
 30
0.0
 11
-18.313507000000001
 21
113.45938
 31
0.0
  0
LINE
  5
17F
  8
0
  6
CONTINUOUS
 62
     7
 10
-25.313507000000001
 20
116.45938
 30
0.0
 11
-25.313507000000001
 21
113.45938
 31
0.0
  0
LINE
  5
180
  8
0
  6
CONTINUOUS
 62
     7
 10
-25.313507000000001
 20
113.45938
 30
0.0
 11
-18.313507000000001
 21
113.45938
 31
0.0
  0
LINE
  5
181
  8
0
  6
CONTINUOUS
 62
     7
 10
-16.313507000000001
 20
116.45938
 30
0.0
 11
-16.313507000000001
 21
108.8593799999999
 31
0.0
  0
LINE
  5
187
  8
0
  6
CONTINUOUS
 62
     7
 10
-34.313507000000001
 20
92.025002000000015
 30
0.0
 11
-34.313507000000001
 21
90.625
 31
0.0
  0
LINE
  5
188
  8
0
  6
CONTINUOUS
 62
     7
 10
-34.659927000000003
 20
92.025002000000015
 30
0.0
 11
-27.967093999999999
 21
92.025002000000015
 31
0.0
  0
LINE
  5
189
  8
0
  6
CONTINUOUS
 62
     7
 10
-38.12401599999999
 20
94.024994000000007
 30
0.0
 11
-34.659919999999993
 21
92.024993999999964
 31
0.0
  0
LINE
  5
18A
  8
0
  6
CONTINUOUS
 62
     7
 10
-41.313507000000001
 20
94.025002000000001
 30
0.0
 11
-21.313507000000001
 21
94.025002000000001
 31
0.0
  0
LINE
  5
18B
  8
0
  6
CONTINUOUS
 62
     7
 10
-41.313507000000001
 20
94.625
 30
0.0
 11
-41.313507000000001
 21
94.025002000000001
 31
0.0
  0
LINE
  5
18C
  8
0
  6
CONTINUOUS
 62
     7
 10
-21.313507000000001
 20
94.625
 30
0.0
 11
-21.313507000000001
 21
94.025002000000001
 31
0.0
  0
LINE
  5
18D
  8
0
  6
CONTINUOUS
 62
     7
 10
-24.502994999999991
 20
94.025002000000001
 30
0.0
 11
-27.967092999999991
 21
92.025002000000015
 31
0.0
  0
LINE
  5
18E
  8
0
  6
CONTINUOUS
 62
     7
 10
-28.313507000000001
 20
92.025002000000015
 30
0.0
 11
-28.313507000000001
 21
90.625
 31
0.0
  0
LINE
  5
191
  8
0
  6
CONTINUOUS
 62
     7
 10
-38.313507000000001
 20
101.625
 30
0.0
 11
-38.313507000000001
 21
99.625
 31
0.0
  0
LINE
  5
192
  8
0
  6
CONTINUOUS
 62
     7
 10
-36.313507000000001
 20
104.30933
 30
0.0
 11
-36.313507000000001
 21
101.625
 31
0.0
  0
LINE
  5
193
  8
0
  6
CONTINUOUS
 62
     7
 10
-34.713509000000002
 20
104.60669
 30
0.0
 11
-34.713509000000002
 21
101.625
 31
0.0
  0
LINE
  5
194
  8
0
  6
CONTINUOUS
 62
     7
 10
-27.913506999999999
 20
104.60669
 30
0.0
 11
-27.913506999999999
 21
101.625
 31
0.0
  0
LINE
  5
195
  8
0
  6
CONTINUOUS
 62
     7
 10
-26.313507000000001
 20
104.30933
 30
0.0
 11
-26.313507000000001
 21
101.625
 31
0.0
  0
LINE
  5
196
  8
0
  6
CONTINUOUS
 62
     7
 10
-24.313507000000001
 20
101.625
 30
0.0
 11
-24.313507000000001
 21
99.625
 31
0.0
  0
LINE
  5
1AC
  8
0
  6
CONTINUOUS
 62
     7
 10
-38.313507000000001
 20
101.625
 30
0.0
 11
-24.313507000000001
 21
101.625
 31
0.0
  0
LINE
  5
1AD
  8
0
  6
CONTINUOUS
 62
     7
 10
-34.313507000000001
 20
90.625
 30
0.0
 11
-28.313507000000001
 21
90.625
 31
0.0
  0
ARC
  5
20F
  8
0
  6
CONTINUOUS
 62
     7
 10
-21.647618999999992
 20
104.9152
 30
0.0
 40
2.0
 50
247.25469000000001
 51
279.58274999999992
  0
ARC
  5
210
  8
0
  6
CONTINUOUS
 62
     7
 10
-40.313506999999987
 20
108.8593799999999
 30
0.0
 40
6.0
 50
179.99998999999991
 51
260.41725000000002
  0
ARC
  5
211
  8
0
  6
CONTINUOUS
 62
     7
 10
-45.813507000000001
 20
100.625
 30
0.0
 40
1.0
 50
179.99998999999991
 51
270.0
  0
ARC
  5
212
  8
0
  6
CONTINUOUS
 62
     7
 10
-50.022613999999997
 20
113.6249999999999
 30
0.0
 40
4.0
 50
90.000009000000006
 51
130.11915999999991
  0
ARC
  5
213
  8
0
  6
CONTINUOUS
 62
     7
 10
-31.313507000000001
 20
81.85938299999998
 30
0.0
 40
23.0
 50
67.254687000000018
 51
112.74531
  0
ARC
  5
214
  8
0
  6
CONTINUOUS
 62
     7
 10
-18.313507000000001
 20
116.45938
 30
0.0
 40
2.0
 50
0.0000025044777
 51
90.000003000000007
  0
ARC
  5
215
  8
0
  6
CONTINUOUS
 62
     7
 10
-22.313507000000001
 20
108.8593799999999
 30
0.0
 40
6.0
 50
279.58274999999992
 51
0.0
  0
ARC
  5
216
  8
0
  6
CONTINUOUS
 62
     7
 10
-44.313507000000001
 20
116.45938
 30
0.0
 40
2.0
 50
89.999995999999982
 51
179.99998999999991
  0
ARC
  5
217
  8
0
  6
CONTINUOUS
 62
     7
 10
-16.813507000000001
 20
100.625
 30
0.0
 40
1.0
 50
270.0
 51
0.0000025044777
  0
ARC
  5
218
  8
0
  6
CONTINUOUS
 62
     7
 10
-40.979393000000002
 20
104.9152
 30
0.0
 40
2.0
 50
260.41725000000002
 51
292.74531000000002
  0
ARC
  5
219
  8
0
  6
CONTINUOUS
 62
     7
 10
-12.604397000000001
 20
113.6249999999999
 30
0.0
 40
4.0
 50
49.880840999999997
 51
90.000003000000007
  0
ARC
  5
21A
  8
0
  6
CONTINUOUS
 62
     7
 10
-10.413506
 20
116.22501
 30
0.0
 40
0.60000002
 50
270.0
 51
49.880840999999997
  0
ARC
  5
21B
  8
0
  6
CONTINUOUS
 62
     7
 10
-47.813506999999987
 20
116.625
 30
0.0
 40
1.0
 50
0.0000025044777
 51
90.000003000000007
  0
ARC
  5
21C
  8
0
  6
CONTINUOUS
 62
     7
 10
-14.813507
 20
116.625
 30
0.0
 40
1.0
 50
90.000009000000006
 51
180.00001
  0
ARC
  5
21D
  8
0
  6
CONTINUOUS
 62
     7
 10
-47.813506999999987
 20
96.625000000000014
 30
0.0
 40
2.0
 50
179.99998999999991
 51
270.0
  0
ARC
  5
21E
  8
0
  6
CONTINUOUS
 62
     7
 10
-14.813507
 20
96.625000000000014
 30
0.0
 40
2.0
 50
270.0
 51
0.0000025044777
  0
ARC
  5
21F
  8
0
  6
CONTINUOUS
 62
     7
 10
-52.213509000000002
 20
116.22501
 30
0.0
 40
0.60000002
 50
130.11915999999991
 51
270.0
  0
TEXT
  5
2AA
  8
0
  6
CONTINUOUS
 62
     7
 10
-34.056364999999992
 20
151.18213
 30
0.0
 40
3.2000000000000002
  1
１５
 41
0.8643459000000001
  0
LINE
  5
2AB
  8
0
  6
CONTINUOUS
 62
     7
 10
-46.313507000000001
 20
150.38212999999999
 30
0.0
 11
-31.313507000000001
 21
150.38212999999999
 31
0.0
  0
LINE
  5
2AC
  8
0
  6
CONTINUOUS
 62
     7
 10
-46.313507000000001
 20
150.38212999999999
 30
0.0
 11
-43.313507000000001
 21
151.38212999999999
 31
0.0
  0
LINE
  5
2AD
  8
0
  6
CONTINUOUS
 62
     7
 10
-46.313507000000001
 20
150.38212999999999
 30
0.0
 11
-43.313507000000001
 21
149.38212999999999
 31
0.0
  0
LINE
  5
2AE
  8
0
  6
CONTINUOUS
 62
     7
 10
-16.313507000000001
 20
150.38212999999999
 30
0.0
 11
-31.313507000000001
 21
150.38212999999999
 31
0.0
  0
LINE
  5
2AF
  8
0
  6
CONTINUOUS
 62
     7
 10
-16.313507000000001
 20
150.38212999999999
 30
0.0
 11
-19.313507000000001
 21
149.38212999999999
 31
0.0
  0
LINE
  5
2B0
  8
0
  6
CONTINUOUS
 62
     7
 10
-16.313507000000001
 20
150.38212999999999
 30
0.0
 11
-19.313507000000001
 21
151.38212999999999
 31
0.0
  0
LINE
  5
2B1
  8
0
  6
CONTINUOUS
 62
     7
 10
-46.313507000000001
 20
120.95938
 30
0.0
 11
-46.313507000000001
 21
151.8821299999999
 31
0.0
  0
LINE
  5
2B2
  8
0
  6
CONTINUOUS
 62
     7
 10
-16.313507000000001
 20
120.95938
 30
0.0
 11
-16.313507000000001
 21
151.8821299999999
 31
0.0
  0
TEXT
  5
2B3
  8
0
  6
CONTINUOUS
 62
     7
 10
-37.256365000000002
 20
158.78246999999979
 30
0.0
 40
3.2000000000000002
  1
２１．５
 41
0.85124966
  0
LINE
  5
2B4
  8
0
  6
CONTINUOUS
 62
     7
 10
-52.813506999999987
 20
157.98247000000001
 30
0.0
 11
-31.313506
 21
157.98247000000001
 31
0.0
  0
LINE
  5
2B5
  8
0
  6
CONTINUOUS
 62
     7
 10
-52.813506999999987
 20
157.98247000000001
 30
0.0
 11
-49.813507000000001
 21
158.98247000000001
 31
0.0
  0
LINE
  5
2B6
  8
0
  6
CONTINUOUS
 62
     7
 10
-52.813506999999987
 20
157.98247000000001
 30
0.0
 11
-49.813507000000001
 21
156.98247000000001
 31
0.0
  0
LINE
  5
2B7
  8
0
  6
CONTINUOUS
 62
     7
 10
-9.8135051999999998
 20
157.98247000000001
 30
0.0
 11
-31.313506
 21
157.98247000000001
 31
0.0
  0
LINE
  5
2B8
  8
0
  6
CONTINUOUS
 62
     7
 10
-9.8135051999999998
 20
157.98247000000001
 30
0.0
 11
-12.813504999999999
 21
156.98247000000001
 31
0.0
  0
LINE
  5
2B9
  8
0
  6
CONTINUOUS
 62
     7
 10
-9.8135051999999998
 20
157.98247000000001
 30
0.0
 11
-12.813504999999999
 21
158.98247000000001
 31
0.0
  0
LINE
  5
2BA
  8
0
  6
CONTINUOUS
 62
     7
 10
-52.813506999999987
 20
119.22501
 30
0.0
 11
-52.813506999999987
 21
159.48247000000001
 31
0.0
  0
LINE
  5
2BB
  8
0
  6
CONTINUOUS
 62
     7
 10
-9.8135051999999998
 20
119.22501
 30
0.0
 11
-9.8135051999999998
 21
159.48247000000001
 31
0.0
  0
TEXT
  5
2D1
  8
0
  6
CONTINUOUS
 62
     7
 10
29.644221999999989
 20
99.182142000000013
 30
0.0
 40
3.2000000000000002
  1
10.5
 50
90.000003000000007
 41
1.4857143999999991
  0
LINE
  5
2D2
  8
0
  6
CONTINUOUS
 62
     7
 10
30.444220999999999
 20
94.625
 30
0.0
 11
30.444220999999999
 21
105.125
 31
0.0
  0
LINE
  5
2D3
  8
0
  6
CONTINUOUS
 62
     7
 10
30.444220999999999
 20
94.625
 30
0.0
 11
29.444220999999999
 21
97.625000000000014
 31
0.0
  0
LINE
  5
2D4
  8
0
  6
CONTINUOUS
 62
     7
 10
30.444220999999999
 20
94.625
 30
0.0
 11
31.444220999999992
 21
97.625000000000014
 31
0.0
  0
LINE
  5
2D5
  8
0
  6
CONTINUOUS
 62
     7
 10
30.444220999999999
 20
115.625
 30
0.0
 11
30.444220999999999
 21
105.125
 31
0.0
  0
LINE
  5
2D6
  8
0
  6
CONTINUOUS
 62
     7
 10
30.444220999999999
 20
115.625
 30
0.0
 11
31.444220999999992
 21
112.6249999999999
 31
0.0
  0
LINE
  5
2D7
  8
0
  6
CONTINUOUS
 62
     7
 10
30.444220999999999
 20
115.625
 30
0.0
 11
29.444220999999999
 21
112.6249999999999
 31
0.0
  0
LINE
  5
2D8
  8
0
  6
CONTINUOUS
 62
     7
 10
-14.813507
 20
94.625
 30
0.0
 11
31.644220000000001
 21
94.625
 31
0.0
  0
LINE
  5
2D9
  8
0
  6
CONTINUOUS
 62
     7
 10
-10.413506
 20
115.625
 30
0.0
 11
31.644220000000001
 21
115.625
 31
0.0
  0
TEXT
  5
2DA
  8
0
  6
CONTINUOUS
 62
     7
 10
29.644221999999989
 20
122.01652
 30
0.0
 40
3.2000000000000002
  1
(8)
 50
90.000003000000007
 41
1.285714399999998
  0
LINE
  5
2DB
  8
0
  6
CONTINUOUS
 62
     7
 10
30.444220999999999
 20
118.45938
 30
0.0
 11
30.444220999999999
 21
126.3593799999999
 31
0.0
  0
LINE
  5
2DC
  8
0
  6
CONTINUOUS
 62
     7
 10
30.444220999999999
 20
118.45938
 30
0.0
 11
29.444220999999999
 21
121.45938
 31
0.0
  0
LINE
  5
2DD
  8
0
  6
CONTINUOUS
 62
     7
 10
30.444220999999999
 20
118.45938
 30
0.0
 11
31.444220999999992
 21
121.45938
 31
0.0
  0
LINE
  5
2DE
  8
0
  6
CONTINUOUS
 62
     7
 10
30.444220999999999
 20
134.25937999999991
 30
0.0
 11
30.444220999999999
 21
126.3593799999999
 31
0.0
  0
LINE
  5
2DF
  8
0
  6
CONTINUOUS
 62
     7
 10
30.444220999999999
 20
134.25937999999991
 30
0.0
 11
31.444220999999992
 21
131.25937999999991
 31
0.0
  0
LINE
  5
2E0
  8
0
  6
CONTINUOUS
 62
     7
 10
30.444220999999999
 20
134.25937999999991
 30
0.0
 11
29.444220999999999
 21
131.25937999999991
 31
0.0
  0
LINE
  5
2E1
  8
0
  6
CONTINUOUS
 62
     7
 10
-18.313507000000001
 20
118.45938
 30
0.0
 11
31.644220000000001
 21
118.45938
 31
0.0
  0
LINE
  5
2E2
  8
0
  6
CONTINUOUS
 62
     7
 10
-21.813507000000001
 20
134.25937999999991
 30
0.0
 11
31.644220000000001
 21
134.25937999999991
 31
0.0
  0
TEXT
  5
2E3
  8
0
  6
CONTINUOUS
 62
     7
 10
-35.656365000000001
 20
141.68971999999999
 30
0.0
 40
3.2000000000000002
  1
9.5
 41
1.3571429999999991
  0
LINE
  5
2E4
  8
0
  6
CONTINUOUS
 62
     7
 10
-40.813507000000001
 20
140.88972000000001
 30
0.0
 11
-31.313507000000001
 21
140.88972000000001
 31
0.0
  0
LINE
  5
2E5
  8
0
  6
CONTINUOUS
 62
     7
 10
-40.813507000000001
 20
140.88972000000001
 30
0.0
 11
-37.813507000000001
 21
141.8897199999999
 31
0.0
  0
LINE
  5
2E6
  8
0
  6
CONTINUOUS
 62
     7
 10
-40.813507000000001
 20
140.88972000000001
 30
0.0
 11
-37.813507000000001
 21
139.8897199999999
 31
0.0
  0
LINE
  5
2E7
  8
0
  6
CONTINUOUS
 62
     7
 10
-21.813507000000001
 20
140.88972000000001
 30
0.0
 11
-31.313507000000001
 21
140.88972000000001
 31
0.0
  0
LINE
  5
2E8
  8
0
  6
CONTINUOUS
 62
     7
 10
-21.813507000000001
 20
140.88972000000001
 30
0.0
 11
-24.813507000000001
 21
139.8897199999999
 31
0.0
  0
LINE
  5
2E9
  8
0
  6
CONTINUOUS
 62
     7
 10
-21.813507000000001
 20
140.88972000000001
 30
0.0
 11
-24.813507000000001
 21
141.8897199999999
 31
0.0
  0
LINE
  5
2EA
  8
0
  6
CONTINUOUS
 62
     7
 10
-40.813507000000001
 20
134.25937999999991
 30
0.0
 11
-40.813507000000001
 21
142.08971999999969
 31
0.0
  0
LINE
  5
2EB
  8
0
  6
CONTINUOUS
 62
     7
 10
-21.813507000000001
 20
134.25937999999991
 30
0.0
 11
-21.813507000000001
 21
142.08971999999969
 31
0.0
  0
TEXT
  5
2EC
  8
0
  6
CONTINUOUS
 62
     7
 10
29.644221000000002
 20
115.4821399999997
 30
0.0
 40
3.2000000000000002
  1
１
 50
90.000003000000007
 41
0.90036055
  0
LINE
  5
2ED
  8
0
  6
CONTINUOUS
 62
     7
 10
30.444220999999999
 20
115.625
 30
0.0
 11
30.444220999999999
 21
116.625
 31
0.0
  0
LINE
  5
2EE
  8
0
  6
CONTINUOUS
 62
     7
 10
30.444220999999999
 20
117.625
 30
0.0
 11
30.444220999999999
 21
116.625
 31
0.0
  0
CIRCLE
  5
2EF
  8
0
  6
CONTINUOUS
 62
     7
 10
30.444220999999999
 20
117.625
 30
0.0
 40
0.3
  0
LINE
  5
2F0
  8
0
  6
CONTINUOUS
 62
     7
 10
-12.604397000000001
 20
117.625
 30
0.0
 11
31.644220000000001
 21
117.625
 31
0.0
  0
TEXT
  5
2F1
  8
0
  6
CONTINUOUS
 62
     7
 10
29.644221999999989
 20
80.449295000000006
 30
0.0
 40
3.2000000000000002
  1
(3)
 50
90.000003000000007
 41
1.285714399999998
  0
LINE
  5
2F2
  8
0
  6
CONTINUOUS
 62
     7
 10
30.444220999999999
 20
89.625
 30
0.0
 11
30.444220999999999
 21
83.625
 31
0.0
  0
LINE
  5
2F3
  8
0
  6
CONTINUOUS
 62
     7
 10
30.444220999999999
 20
83.625
 30
0.0
 11
30.444220999999999
 21
92.125
 31
0.0
  0
LINE
  5
2F4
  8
0
  6
CONTINUOUS
 62
     7
 10
30.444220999999999
 20
92.125
 30
0.0
 11
30.444220999999999
 21
80.449295000000006
 31
0.0
  0
LINE
  5
2F5
  8
0
  6
CONTINUOUS
 62
     7
 10
30.444220999999999
 20
89.625
 30
0.0
 11
31.444220999999992
 21
86.624999999999986
 31
0.0
  0
LINE
  5
2F6
  8
0
  6
CONTINUOUS
 62
     7
 10
30.444220999999999
 20
89.625
 30
0.0
 11
29.444220999999999
 21
86.624999999999986
 31
0.0
  0
LINE
  5
2F7
  8
0
  6
CONTINUOUS
 62
     7
 10
30.444220999999999
 20
94.625
 30
0.0
 11
30.444220999999999
 21
92.125
 31
0.0
  0
LINE
  5
2F8
  8
0
  6
CONTINUOUS
 62
     7
 10
-28.313507000000001
 20
89.625
 30
0.0
 11
31.644221999999989
 21
89.625
 31
0.0
  0
ENDSEC
  0
EOF
