  0
SECTION
  2
HEADER
  9
$ACADVER
  1
AC1009
  9
$INSBASE
 10
0.0
 20
0.0
 30
0.0
  9
$EXTMIN
 10
-186.67778367205671
 20
70.239662314711723
 30
-0.0000000000112498
  9
$EXTMAX
 10
-111.9970304800722
 20
161.9877179753351
 30
0.0000000000002956
  9
$LIMMIN
 10
0.0
 20
0.0
  9
$LIMMAX
 10
12.0
 20
9.0
  9
$ORTHOMODE
 70
     0
  9
$REGENMODE
 70
     1
  9
$FILLMODE
 70
     1
  9
$QTEXTMODE
 70
     0
  9
$MIRRTEXT
 70
     1
  9
$DRAGMODE
 70
     2
  9
$LTSCALE
 40
1.0
  9
$OSMODE
 70
    63
  9
$ATTMODE
 70
     1
  9
$TEXTSIZE
 40
0.2
  9
$TRACEWID
 40
0.05
  9
$TEXTSTYLE
  7
STANDARD
  9
$CLAYER
  8
0
  9
$CELTYPE
  6
CONTINUOUS
  9
$CECOLOR
 62
   256
  9
$DIMSCALE
 40
1.0
  9
$DIMASZ
 40
0.18
  9
$DIMEXO
 40
0.0625
  9
$DIMDLI
 40
0.38
  9
$DIMRND
 40
0.0
  9
$DIMDLE
 40
0.0
  9
$DIMEXE
 40
0.18
  9
$DIMTP
 40
0.0
  9
$DIMTM
 40
0.0
  9
$DIMTXT
 40
0.18
  9
$DIMCEN
 40
0.09
  9
$DIMTSZ
 40
0.0
  9
$DIMTOL
 70
     0
  9
$DIMLIM
 70
     0
  9
$DIMTIH
 70
     1
  9
$DIMTOH
 70
     1
  9
$DIMSE1
 70
     0
  9
$DIMSE2
 70
     0
  9
$DIMTAD
 70
     0
  9
$DIMZIN
 70
     0
  9
$DIMBLK
  1

  9
$DIMASO
 70
     1
  9
$DIMSHO
 70
     1
  9
$DIMPOST
  1

  9
$DIMAPOST
  1

  9
$DIMALT
 70
     0
  9
$DIMALTD
 70
     2
  9
$DIMALTF
 40
25.399999999999999
  9
$DIMLFAC
 40
1.0
  9
$DIMTOFL
 70
     0
  9
$DIMTVP
 40
0.0
  9
$DIMTIX
 70
     0
  9
$DIMSOXD
 70
     0
  9
$DIMSAH
 70
     0
  9
$DIMBLK1
  1

  9
$DIMBLK2
  1

  9
$DIMSTYLE
  2
STANDARD
  9
$DIMCLRD
 70
     0
  9
$DIMCLRE
 70
     0
  9
$DIMCLRT
 70
     0
  9
$DIMTFAC
 40
1.0
  9
$DIMGAP
 40
0.09
  9
$LUNITS
 70
     2
  9
$LUPREC
 70
     4
  9
$SKETCHINC
 40
0.1
  9
$FILLETRAD
 40
0.0
  9
$AUNITS
 70
     0
  9
$AUPREC
 70
     0
  9
$MENU
  1
.
  9
$ELEVATION
 40
0.0
  9
$PELEVATION
 40
0.0
  9
$THICKNESS
 40
0.0
  9
$LIMCHECK
 70
     0
  9
$BLIPMODE
 70
     0
  9
$CHAMFERA
 40
0.0
  9
$CHAMFERB
 40
0.0
  9
$SKPOLY
 70
     0
  9
$TDCREATE
 40
2452865.527138669
  9
$TDUPDATE
 40
2452878.494874849
  9
$TDINDWG
 40
0.0027942361
  9
$TDUSRTIMER
 40
0.0027936921
  9
$USRTIMER
 70
     1
  9
$ANGBASE
 50
0.0
  9
$ANGDIR
 70
     0
  9
$PDMODE
 70
     0
  9
$PDSIZE
 40
0.0
  9
$PLINEWID
 40
0.0
  9
$COORDS
 70
     0
  9
$SPLFRAME
 70
     0
  9
$SPLINETYPE
 70
     6
  9
$SPLINESEGS
 70
     8
  9
$ATTDIA
 70
     1
  9
$ATTREQ
 70
     1
  9
$HANDLING
 70
     1
  9
$HANDSEED
  5
497
  9
$SURFTAB1
 70
     6
  9
$SURFTAB2
 70
     6
  9
$SURFTYPE
 70
     6
  9
$SURFU
 70
     6
  9
$SURFV
 70
     6
  9
$UCSNAME
  2

  9
$UCSORG
 10
0.0
 20
0.0
 30
0.0
  9
$UCSXDIR
 10
1.0
 20
0.0
 30
0.0
  9
$UCSYDIR
 10
0.0
 20
1.0
 30
0.0
  9
$PUCSNAME
  2

  9
$PUCSORG
 10
0.0
 20
0.0
 30
0.0
  9
$PUCSXDIR
 10
1.0
 20
0.0
 30
0.0
  9
$PUCSYDIR
 10
0.0
 20
1.0
 30
0.0
  9
$USERI1
 70
     0
  9
$USERI2
 70
     0
  9
$USERI3
 70
     0
  9
$USERI4
 70
     0
  9
$USERI5
 70
     0
  9
$USERR1
 40
0.0
  9
$USERR2
 40
0.0
  9
$USERR3
 40
0.0
  9
$USERR4
 40
0.0
  9
$USERR5
 40
0.0
  9
$WORLDVIEW
 70
     1
  9
$SHADEDGE
 70
     3
  9
$SHADEDIF
 70
    70
  9
$TILEMODE
 70
     1
  9
$MAXACTVP
 70
    64
  9
$PLIMCHECK
 70
     0
  9
$PEXTMIN
 10
1.0000000000000000E+020
 20
1.0000000000000000E+020
 30
1.0000000000000000E+020
  9
$PEXTMAX
 10
-1.0000000000000000E+020
 20
-1.0000000000000000E+020
 30
-1.0000000000000000E+020
  9
$PLIMMIN
 10
0.0
 20
0.0
  9
$PLIMMAX
 10
12.0
 20
9.0
  9
$UNITMODE
 70
     0
  9
$VISRETAIN
 70
     1
  9
$PLINEGEN
 70
     0
  9
$PSLTSCALE
 70
     1
  0
ENDSEC
  0
SECTION
  2
TABLES
  0
TABLE
  2
VPORT
 70
     3
  0
VPORT
  2
*ACTIVE
 70
     0
 10
0.0
 20
0.0
 11
1.0
 21
1.0
 12
-149.33740707606441
 22
116.1136901450234
 13
0.0
 23
0.0
 14
1.0
 24
1.0
 15
0.0
 25
0.0
 16
0.0
 26
0.0
 36
1.0
 17
0.0
 27
0.0
 37
0.0
 40
92.413700562635157
 41
1.5242130750605321
 42
50.0
 43
0.0
 44
0.0
 50
0.0
 51
0.0
 71
     0
 72
   100
 73
     1
 74
     1
 75
     0
 76
     0
 77
     0
 78
     0
  0
ENDTAB
  0
TABLE
  2
LTYPE
 70
    19
  0
LTYPE
  2
CONTINUOUS
 70
     0
  3
Solid line
 72
    65
 73
     0
 40
0.0
  0
LTYPE
  2
DASHED
 70
     0
  3
__ __ __ __ __ __ __ __ __ __ __ __ __ __ __
 72
    65
 73
     2
 40
3.5
 49
2.0
 49
-1.5
  0
LTYPE
  2
CENTER
 70
     0
  3
____ _ ____ _ ____ _ ____ _ ____ _ ____ _ ____
 72
    65
 73
     4
 40
17.5
 49
13.0
 49
-1.5
 49
1.5
 49
-1.5
  0
LTYPE
  2
PHANTOM
 70
     0
  3
_____ _ _ _____ _ _ _____ _ _ _____ _ _ ____  
 72
    65
 73
     6
 40
15.5
 49
8.0
 49
-1.5
 49
1.5
 49
-1.5
 49
1.5
 49
-1.5
  0
LTYPE
  2
DOT
 70
     0
  3
. . . . . . . . . . . . . . . . . . . . . . . .
 72
    65
 73
     2
 40
0.25
 49
0.0
 49
-0.25
  0
LTYPE
  2
AM_ISO02W050
 70
     0
  3
__ __ __ __ __ __ __ __ __ __ __ __ __ __ __
 72
    65
 73
     2
 40
7.5
 49
6.0
 49
-1.5
  0
LTYPE
  2
AM_ISO08W050
 70
     0
  3
____ . ____ . ____ . ____ . ____ . ____ . ____
 72
    65
 73
     4
 40
18.0
 49
12.0
 49
-1.5
 49
3.0
 49
-1.5
  0
LTYPE
  2
AM_ISO09W050
 70
     0
  3
_____ . . _____ . . _____ . . ____ .. ____
 72
    65
 73
     6
 40
22.5
 49
12.0
 49
-1.5
 49
3.0
 49
-1.5
 49
3.0
 49
-1.5
  0
LTYPE
  2
AMCONSTR
 70
     0
  3
_______________________
 72
    65
 73
     2
 40
9999.0
 49
9999.0
 49
0.0
  0
LTYPE
  2
AM_ISO08W050X2
 70
     0
  3
__ . __ . __ . __ . __ . __
 72
    65
 73
     4
 40
9.0
 49
6.0
 49
-0.75
 49
1.5
 49
-0.75
  0
LTYPE
  2
AM_ISO02W050X2
 70
     0
  3
 _ _ _ _ _ _ _ _ _ _ _ _
 72
    65
 73
     2
 40
3.75
 49
3.0
 49
-0.75
  0
LTYPE
  2
AMZIGZAG
 70
     0
  3
/\/-/\/-/\/-/\/-/\/-/\/
 72
    65
 73
     2
 40
11.000099999999991
 49
0.0001
 49
-11.0
  0
LTYPE
  2
HIDDEN
 70
     0
  3
Hidden __ __ __ __ __ __ __ __ __ __ __ __ __ _
 72
    65
 73
     2
 40
0.375
 49
0.25
 49
-0.125
  0
LTYPE
  2
PHANTOM2
 70
     0
  3
Phantom (.5x) ___ _ _ ___ _ _ ___ _ _ ___ _ _
 72
    65
 73
     6
 40
1.25
 49
0.625
 49
-0.125
 49
0.125
 49
-0.125
 49
0.125
 49
-0.125
  0
LTYPE
  2
CENTER2
 70
     0
  3
Center (.5x) ___ _ ___ _ ___ _ ___ _ ___ _ ___
 72
    65
 73
     4
 40
1.125
 49
0.75
 49
-0.125
 49
0.125
 49
-0.125
  0
LTYPE
  2
HIDDEN2
 70
     0
  3
Hidden (.5x) _ _ _ _ _ _ _ _ _ _ _ _ _ _ _ _ _
 72
    65
 73
     2
 40
0.1875
 49
0.125
 49
-0.0625
  0
LTYPE
  2
AMZIGZAG2
 70
     0
  3
/\/-/\/-/\/-/\/-/\/-/\/
 72
    65
 73
     2
 40
0.4401
 49
0.0001
 49
-0.4400000000000003
  0
LTYPE
  2
ACANSTGB
 70
     0
  3
__ . . __ . .
 72
    65
 73
     6
 40
0.35433070866
 49
0.15748031496
 49
-0.03937007874
 49
0.03937007874
 49
-0.03937007874
 49
0.03937007874
 49
-0.03937007874
  0
LTYPE
  2
ACANSTGL
 70
     0
  3
_ _ _ _ _
 72
    65
 73
     2
 40
0.11811023622
 49
0.07874015748
 49
-0.03937007874
  0
ENDTAB
  0
TABLE
  2
LAYER
 70
     3
  0
LAYER
  2
0
 70
     0
 62
     7
  6
CONTINUOUS
  0
LAYER
  2
1
 70
     0
 62
     7
  6
CONTINUOUS
  0
LAYER
  2
2
 70
     0
 62
     7
  6
CONTINUOUS
  0
ENDTAB
  0
TABLE
  2
STYLE
 70
     4
  0
STYLE
  2
STANDARD
 70
     0
 40
0.0
 41
1.0
 50
0.0
 71
     0
 42
0.2
  3
txt
  4
BIGFONT
  0
STYLE
  2

 70
     1
 40
0.0
 41
1.0
 50
0.0
 71
     0
 42
0.2
  3
ltypeshp.shx
  4

  0
STYLE
  2
ACANSTS
 70
     0
 40
1.0
 41
1.0
 50
0.0
 71
     0
 42
0.2
  3
romans.shx
  4
extfont.shx
  0
STYLE
  2
ACANSGDT
 70
     0
 40
0.0
 41
1.0
 50
0.0
 71
     0
 42
0.2
  3
amgdtans.shx
  4

  0
ENDTAB
  0
TABLE
  2
VIEW
 70
     0
  0
ENDTAB
  0
TABLE
  2
UCS
 70
     0
  0
ENDTAB
  0
TABLE
  2
APPID
 70
     4
  0
APPID
  2
ACAD
 70
     0
  0
APPID
  2
MCAD_NO_VIS
 70
     0
  0
APPID
  2
ACAD_TEMP_GRAPHIC
 70
     0
  0
APPID
  2
ACATTRIBSERVICES
 70
     0
  0
ENDTAB
  0
TABLE
  2
DIMSTYLE
 70
     7
  0
DIMSTYLE
  2
STANDARD
 70
     0
  3

  4

  5

  6

  7

 40
1.0
 41
0.18
 42
0.0625
 43
0.38
 44
0.18
 45
0.0
 46
0.0
 47
0.0
 48
0.0
140
0.18
141
0.09
142
0.0
143
25.399999999999999
144
1.0
145
0.0
146
1.0
147
0.09
 71
     0
 72
     0
 73
     1
 74
     1
 75
     0
 76
     0
 77
     0
 78
     0
170
     0
171
     2
172
     0
173
     0
174
     0
175
     0
176
     0
177
     0
178
     0
  0
DIMSTYLE
  2
AM_ANSI
 70
     0
  3

  4
mm
  5

  6

  7

 40
1.0
 41
0.1
 42
0.05
 43
0.5
 44
0.1
 45
0.0
 46
0.0
 47
0.1
 48
0.1
140
0.12
141
0.0
142
0.0
143
25.399999999999999
144
1.0
145
0.0
146
0.71
147
0.06
 71
     0
 72
     0
 73
     1
 74
     1
 75
     0
 76
     0
 77
     0
 78
     7
170
     0
171
     2
172
     0
173
     0
174
     0
175
     0
176
   256
177
   256
178
     2
  0
DIMSTYLE
  2
AM_ANSI$3
 70
     0
  3

  4
mm
  5

  6

  7

 40
1.0
 41
0.1
 42
0.05
 43
0.5
 44
0.1
 45
0.0
 46
0.0
 47
0.1
 48
0.1
140
0.12
141
0.0
142
0.0
143
25.399999999999999
144
1.0
145
0.0
146
0.71
147
0.06
 71
     0
 72
     0
 73
     1
 74
     1
 75
     0
 76
     0
 77
     0
 78
     7
170
     0
171
     2
172
     0
173
     0
174
     0
175
     0
176
   256
177
   256
178
     2
  0
DIMSTYLE
  2
AM_ANSI$4
 70
     0
  3

  4
mm
  5

  6

  7

 40
1.0
 41
0.1
 42
0.05
 43
0.5
 44
0.1
 45
0.0
 46
0.0
 47
0.1
 48
0.1
140
0.12
141
0.0
142
0.0
143
25.399999999999999
144
1.0
145
0.0
146
0.71
147
0.06
 71
     0
 72
     0
 73
     1
 74
     1
 75
     0
 76
     0
 77
     0
 78
     7
170
     0
171
     2
172
     0
173
     0
174
     0
175
     0
176
   256
177
   256
178
     2
  0
DIMSTYLE
  2
AM_ANSI$7
 70
     0
  3

  4
mm
  5

  6

  7

 40
1.0
 41
0.1
 42
0.05
 43
0.5
 44
0.1
 45
0.0
 46
0.0
 47
0.1
 48
0.1
140
0.24
141
0.0
142
0.0
143
25.399999999999999
144
1.0
145
0.0
146
0.71
147
0.06
 71
     0
 72
     0
 73
     1
 74
     1
 75
     0
 76
     0
 77
     0
 78
     7
170
     0
171
     2
172
     0
173
     0
174
     0
175
     0
176
   256
177
   256
178
     2
  0
DIMSTYLE
  2
AM_ANSI$SF
 70
     0
  3

  4
mm
  5

  6

  7

 40
1.0
 41
0.1
 42
0.05
 43
0.5
 44
0.1
 45
0.0
 46
0.0
 47
0.1
 48
0.1
140
0.12
141
0.0
142
0.0
143
25.399999999999999
144
1.0
145
0.0
146
0.71
147
0.06
 71
     0
 72
     0
 73
     1
 74
     1
 75
     1
 76
     1
 77
     0
 78
     7
170
     0
171
     2
172
     0
173
     0
174
     0
175
     0
176
   256
177
   256
178
     2
  0
DIMSTYLE
  2
AM_ANSI$SH
 70
     0
  3

  4
mm
  5

  6

  7

 40
1.0
 41
0.1
 42
0.05
 43
0.5
 44
0.1
 45
0.0
 46
0.0
 47
0.1
 48
0.1
140
0.12
141
0.0
142
0.0
143
25.399999999999999
144
1.0
145
0.0
146
0.71
147
0.06
 71
     0
 72
     0
 73
     1
 74
     1
 75
     1
 76
     1
 77
     0
 78
     7
170
     0
171
     2
172
     0
173
     1
174
     0
175
     0
176
   256
177
   256
178
     2
  0
ENDTAB
  0
ENDSEC
  0
SECTION
  2
BLOCKS
  0
BLOCK
  8
0
  2
$MODEL_SPACE
 70
     0
 10
0.0
 20
0.0
 30
0.0
  3
$MODEL_SPACE
  1

  0
ENDBLK
  5
423
  8
0
  0
BLOCK
 67
     1
  8
0
  2
$PAPER_SPACE
 70
     0
 10
0.0
 20
0.0
 30
0.0
  3
$PAPER_SPACE
  1

  0
ENDBLK
  5
41F
 67
     1
  8
0
  0
BLOCK
  8
0
  2
GENAXEH
 70
     0
 10
0.0
 20
0.0
 30
0.0
  3
GENAXEH
  1

  0
LINE
  5
356
  8
0
 10
-1.0
 20
0.0
 30
0.0
 11
1.0
 21
0.0
 31
0.0
  0
ENDBLK
  5
358
  8
0
  0
ENDSEC
  0
SECTION
  2
ENTITIES
  0
LINE
  5
8B
  8
0
  6
CONTINUOUS
 62
     7
 10
-134.81351000000001
 20
119.02500000000001
 30
0.0
 11
-134.81351000000001
 21
103.02500000000001
 31
0.0
  0
LINE
  5
8C
  8
0
  6
CONTINUOUS
 62
     7
 10
-135.81351000000001
 20
102.02500000000001
 30
0.0
 11
-164.81351000000001
 21
102.02500000000001
 31
0.0
  0
LINE
  5
8D
  8
0
  6
CONTINUOUS
 62
     7
 10
-131.60439999999991
 20
120.02500000000001
 30
0.0
 11
-133.81351000000001
 21
120.02500000000001
 31
0.0
  0
LINE
  5
8E
  8
0
  6
CONTINUOUS
 62
     7
 10
-165.81351000000001
 20
119.02500000000001
 30
0.0
 11
-165.81351000000001
 21
103.02500000000001
 31
0.0
  0
LINE
  5
8F
  8
0
  6
CONTINUOUS
 62
     7
 10
-166.81351000000001
 20
120.02500000000001
 30
0.0
 11
-169.02260999999979
 21
120.02500000000001
 31
0.0
  0
LINE
  5
90
  8
0
  6
CONTINUOUS
 62
     7
 10
-168.81351000000001
 20
118.02500000000001
 30
0.0
 11
-168.81351000000001
 21
99.025002000000001
 31
0.0
  0
LINE
  5
91
  8
0
  6
CONTINUOUS
 62
     7
 10
-168.81351000000001
 20
118.02500000000001
 30
0.0
 11
-171.21350000000001
 21
118.02500000000001
 31
0.0
  0
LINE
  5
92
  8
0
  6
CONTINUOUS
 62
     7
 10
-131.81351000000001
 20
118.02500000000001
 30
0.0
 11
-131.81351000000001
 21
99.025002000000001
 31
0.0
  0
LINE
  5
93
  8
0
  6
CONTINUOUS
 62
     7
 10
-129.41351
 20
118.02500000000001
 30
0.0
 11
-131.81351000000001
 21
118.02500000000001
 31
0.0
  0
LINE
  5
94
  8
0
  6
CENTER
 62
     7
 10
-150.31351000000001
 20
129.14391000000001
 30
0.0
 11
-150.31351000000001
 21
80.314811999999989
 31
0.0
  0
LINE
  5
E5
  8
0
  6
CONTINUOUS
 62
     7
 10
-165.31351000000001
 20
109.75201
 30
0.0
 11
-165.31351000000001
 21
117.35201000000001
 31
0.0
  0
LINE
  5
E6
  8
0
  6
CONTINUOUS
 62
     7
 10
-135.31351000000001
 20
109.75201
 30
0.0
 11
-135.31351000000001
 21
117.35201000000001
 31
0.0
  0
LINE
  5
E7
  8
0
  6
CONTINUOUS
 62
     7
 10
-137.31351000000001
 20
107.75201
 30
0.0
 11
-139.31351000000001
 21
107.75201
 31
0.0
  0
LINE
  5
E8
  8
0
  6
CONTINUOUS
 62
     7
 10
-142.31351000000001
 20
107.75201
 30
0.0
 11
-142.31351000000001
 21
109.75201
 31
0.0
  0
LINE
  5
E9
  8
0
  6
CONTINUOUS
 62
     7
 10
-139.31351000000001
 20
107.75201
 30
0.0
 11
-139.31351000000001
 21
109.75201
 31
0.0
  0
LINE
  5
EA
  8
0
  6
CONTINUOUS
 62
     7
 10
-158.31350999999981
 20
107.75201
 30
0.0
 11
-158.31350999999981
 21
109.75201
 31
0.0
  0
LINE
  5
EB
  8
0
  6
CONTINUOUS
 62
     7
 10
-161.31351000000001
 20
107.75201
 30
0.0
 11
-161.31351000000001
 21
109.75201
 31
0.0
  0
LINE
  5
EC
  8
0
  6
CONTINUOUS
 62
     7
 10
-137.31351000000001
 20
109.75201
 30
0.0
 11
-139.31351000000001
 21
109.75201
 31
0.0
  0
LINE
  5
ED
  8
0
  6
CONTINUOUS
 62
     7
 10
-142.31351000000001
 20
109.75201
 30
0.0
 11
-144.31351000000001
 21
109.75201
 31
0.0
  0
LINE
  5
EE
  8
0
  6
CONTINUOUS
 62
     7
 10
-161.31351000000001
 20
109.75201
 30
0.0
 11
-163.31351000000001
 21
109.75201
 31
0.0
  0
LINE
  5
EF
  8
0
  6
CONTINUOUS
 62
     7
 10
-156.31351000000001
 20
109.75201
 30
0.0
 11
-158.31350999999981
 21
109.75201
 31
0.0
  0
LINE
  5
F0
  8
0
  6
CONTINUOUS
 62
     7
 10
-142.31351000000001
 20
107.75201
 30
0.0
 11
-158.31350999999981
 21
107.75201
 31
0.0
  0
LINE
  5
F1
  8
0
  6
CONTINUOUS
 62
     7
 10
-161.31351000000001
 20
107.75201
 30
0.0
 11
-163.31351000000001
 21
107.75201
 31
0.0
  0
LINE
  5
F2
  8
0
  6
CONTINUOUS
 62
     7
 10
-137.31351000000001
 20
109.75201
 30
0.0
 11
-137.31351000000001
 21
112.75201
 31
0.0
  0
LINE
  5
F3
  8
0
  6
CONTINUOUS
 62
     7
 10
-163.31351000000001
 20
109.75201
 30
0.0
 11
-163.31351000000001
 21
112.75201
 31
0.0
  0
LINE
  5
F4
  8
0
  6
CONTINUOUS
 62
     7
 10
-144.31351000000001
 20
109.75201
 30
0.0
 11
-144.31351000000001
 21
112.75201
 31
0.0
  0
LINE
  5
F5
  8
0
  6
CONTINUOUS
 62
     7
 10
-156.31351000000001
 20
109.75201
 30
0.0
 11
-156.31351000000001
 21
112.75201
 31
0.0
  0
LINE
  5
F6
  8
0
  6
CONTINUOUS
 62
     7
 10
-137.31351000000001
 20
112.75201
 30
0.0
 11
-144.31351000000001
 21
112.75201
 31
0.0
  0
LINE
  5
F7
  8
0
  6
CONTINUOUS
 62
     7
 10
-156.31351000000001
 20
112.75201
 30
0.0
 11
-163.31351000000001
 21
112.75201
 31
0.0
  0
LINE
  5
116
  8
0
  6
CONTINUOUS
 62
     7
 10
-143.31351000000001
 20
104.02500000000001
 30
0.0
 11
-143.31351000000001
 21
102.02500000000001
 31
0.0
  0
LINE
  5
13B
  8
0
  6
CONTINUOUS
 62
     7
 10
-160.31351000000001
 20
96.425003000000004
 30
0.0
 11
-140.31351000000001
 21
96.425003000000004
 31
0.0
  0
LINE
  5
13C
  8
0
  6
CONTINUOUS
 62
     7
 10
-157.12400999999991
 20
96.424994999999996
 30
0.0
 11
-153.65991
 21
94.424994999999996
 31
0.0
  0
LINE
  5
13D
  8
0
  6
CONTINUOUS
 62
     7
 10
-143.50300999999979
 20
96.424994999999996
 30
0.0
 11
-146.96708999999981
 21
94.425003000000004
 31
0.0
  0
LINE
  5
13E
  8
0
  6
CONTINUOUS
 62
     7
 10
-133.81351000000001
 20
97.025002000000015
 30
0.0
 11
-166.81351000000001
 21
97.025002000000015
 31
0.0
  0
LINE
  5
13F
  8
0
  6
CONTINUOUS
 62
     7
 10
-153.6599299999998
 20
94.425003000000004
 30
0.0
 11
-146.96708999999981
 21
94.425003000000004
 31
0.0
  0
LINE
  5
144
  8
0
  6
CONTINUOUS
 62
     7
 10
-153.31351000000001
 20
94.425003000000004
 30
0.0
 11
-153.31351000000001
 21
93.025002000000001
 31
0.0
  0
LINE
  5
145
  8
0
  6
CONTINUOUS
 62
     7
 10
-147.31351000000001
 20
94.425003000000004
 30
0.0
 11
-147.31351000000001
 21
93.025002000000001
 31
0.0
  0
LINE
  5
146
  8
0
  6
CONTINUOUS
 62
     7
 10
-140.31351000000001
 20
97.025002000000015
 30
0.0
 11
-140.31351000000001
 21
96.425003000000004
 31
0.0
  0
LINE
  5
147
  8
0
  6
CONTINUOUS
 62
     7
 10
-160.31351000000001
 20
97.025002000000015
 30
0.0
 11
-160.31351000000001
 21
96.425003000000004
 31
0.0
  0
LINE
  5
148
  8
0
  6
CONTINUOUS
 62
     7
 10
-157.31351000000001
 20
104.02500000000001
 30
0.0
 11
-157.31351000000001
 21
102.02500000000001
 31
0.0
  0
LINE
  5
149
  8
0
  6
CONTINUOUS
 62
     7
 10
-155.31351000000001
 20
107.75201
 30
0.0
 11
-155.31351000000001
 21
104.02500000000001
 31
0.0
  0
LINE
  5
14A
  8
0
  6
CONTINUOUS
 62
     7
 10
-153.71350000000001
 20
107.75201
 30
0.0
 11
-153.71350000000001
 21
104.02500000000001
 31
0.0
  0
LINE
  5
14B
  8
0
  6
CONTINUOUS
 62
     7
 10
-146.91351
 20
107.75201
 30
0.0
 11
-146.91351
 21
104.02500000000001
 31
0.0
  0
LINE
  5
14C
  8
0
  6
CONTINUOUS
 62
     7
 10
-145.31351000000001
 20
107.75201
 30
0.0
 11
-145.31351000000001
 21
104.02500000000001
 31
0.0
  0
LINE
  5
1A8
  8
0
  6
CONTINUOUS
 62
     7
 10
-143.31351000000001
 20
104.02500000000001
 30
0.0
 11
-157.31351000000001
 21
104.02500000000001
 31
0.0
  0
LINE
  5
1A9
  8
0
  6
CONTINUOUS
 62
     7
 10
-153.31351000000001
 20
93.025002000000001
 30
0.0
 11
-147.31351000000001
 21
93.025002000000001
 31
0.0
  0
ARC
  5
1D0
  8
0
  6
CONTINUOUS
 62
     7
 10
-133.81351000000001
 20
119.02500000000001
 30
0.0
 40
1.0
 50
89.999995999999982
 51
180.00001
  0
ARC
  5
1D1
  8
0
  6
CONTINUOUS
 62
     7
 10
-133.81351000000001
 20
99.025002000000001
 30
0.0
 40
2.0
 50
270.00000999999997
 51
0.0000043257115
  0
ARC
  5
1D2
  8
0
  6
CONTINUOUS
 62
     7
 10
-135.81351000000001
 20
103.02500000000001
 30
0.0
 40
1.0
 50
270.00000999999997
 51
0.0000043257115
  0
ARC
  5
1D3
  8
0
  6
CONTINUOUS
 62
     7
 10
-166.81351000000001
 20
99.025002000000001
 30
0.0
 40
2.0
 50
180.00001
 51
270.0
  0
ARC
  5
1D4
  8
0
  6
CONTINUOUS
 62
     7
 10
-166.81351000000001
 20
119.02500000000001
 30
0.0
 40
1.0
 50
0.0
 51
89.999995999999982
  0
ARC
  5
1D5
  8
0
  6
CONTINUOUS
 62
     7
 10
-164.81351000000001
 20
103.02500000000001
 30
0.0
 40
1.0
 50
180.00001
 51
270.0
  0
ARC
  5
1D6
  8
0
  6
CONTINUOUS
 62
     7
 10
-169.02260999999979
 20
116.02500000000001
 30
0.0
 40
4.0
 50
89.999995999999982
 51
130.11915999999991
  0
ARC
  5
1D7
  8
0
  6
CONTINUOUS
 62
     7
 10
-171.21350000000001
 20
118.62501
 30
0.0
 40
0.60000002
 50
130.11915999999991
 51
270.0
  0
ARC
  5
1D8
  8
0
  6
CONTINUOUS
 62
     7
 10
-129.41351
 20
118.62501
 30
0.0
 40
0.60000002
 50
270.00000999999997
 51
49.880844000000003
  0
ARC
  5
1D9
  8
0
  6
CONTINUOUS
 62
     7
 10
-131.60439999999991
 20
116.02500000000001
 30
0.0
 40
4.0
 50
49.880837
 51
89.999995999999982
  0
ARC
  5
1FC
  8
0
  6
CONTINUOUS
 62
     7
 10
-150.31351000000001
 20
144.35201999999981
 30
0.0
 40
23.0
 50
247.25469000000001
 51
292.74531000000002
  0
ARC
  5
1FD
  8
0
  6
CONTINUOUS
 62
     7
 10
-140.6476099999999
 20
121.2962
 30
0.0
 40
2.0
 50
80.417247000000003
 51
112.74531
  0
ARC
  5
1FE
  8
0
  6
CONTINUOUS
 62
     7
 10
-159.97939999999991
 20
121.2962
 30
0.0
 40
2.0
 50
67.254687000000018
 51
99.582751000000016
  0
ARC
  5
200
  8
0
  6
CONTINUOUS
 62
     7
 10
-137.31351000000001
 20
109.75201
 30
0.0
 40
2.0
 50
270.0
 51
359.99998999999991
  0
ARC
  5
201
  8
0
  6
CONTINUOUS
 62
     7
 10
-163.31351000000001
 20
109.75201
 30
0.0
 40
2.0
 50
180.00001
 51
270.0
  0
ARC
  5
202
  8
0
  6
CONTINUOUS
 62
     7
 10
-141.31351000000001
 20
117.35201000000001
 30
0.0
 40
6.0
 50
359.99998999999991
 51
80.417247000000003
  0
ARC
  5
203
  8
0
  6
CONTINUOUS
 62
     7
 10
-159.31351000000001
 20
117.35201000000001
 30
0.0
 40
6.0
 50
99.582751000000016
 51
180.00001
  0
TEXT
  5
28F
  8
0
  6
CONTINUOUS
 62
     7
 10
-156.25636
 20
72.54019599999998
 30
0.0
 40
3.2000000000000002
  1
１８．５
 41
0.85124966
  0
LINE
  5
290
  8
0
  6
CONTINUOUS
 62
     7
 10
-168.81351000000001
 20
71.740195999999997
 30
0.0
 11
-150.31351000000001
 21
71.740195999999997
 31
0.0
  0
LINE
  5
291
  8
0
  6
CONTINUOUS
 62
     7
 10
-168.81351000000001
 20
71.740195999999997
 30
0.0
 11
-165.81351000000001
 21
72.740195999999983
 31
0.0
  0
LINE
  5
292
  8
0
  6
CONTINUOUS
 62
     7
 10
-168.81351000000001
 20
71.740195999999997
 30
0.0
 11
-165.81351000000001
 21
70.740195999999983
 31
0.0
  0
LINE
  5
293
  8
0
  6
CONTINUOUS
 62
     7
 10
-131.81351000000001
 20
71.740195999999997
 30
0.0
 11
-150.31351000000001
 21
71.740195999999997
 31
0.0
  0
LINE
  5
294
  8
0
  6
CONTINUOUS
 62
     7
 10
-131.81351000000001
 20
71.740195999999997
 30
0.0
 11
-134.81351000000001
 21
70.740195999999983
 31
0.0
  0
LINE
  5
295
  8
0
  6
CONTINUOUS
 62
     7
 10
-131.81351000000001
 20
71.740195999999997
 30
0.0
 11
-134.81351000000001
 21
72.740195999999983
 31
0.0
  0
LINE
  5
296
  8
0
  6
CONTINUOUS
 62
     7
 10
-168.81351000000001
 20
101.625
 30
0.0
 11
-168.81351000000001
 21
70.240195999999983
 31
0.0
  0
LINE
  5
297
  8
0
  6
CONTINUOUS
 62
     7
 10
-131.81351000000001
 20
101.625
 30
0.0
 11
-131.81351000000001
 21
70.240195999999983
 31
0.0
  0
TEXT
  5
298
  8
0
  6
CONTINUOUS
 62
     7
 10
-156.25636
 20
158.78246999999979
 30
0.0
 40
3.2000000000000002
  1
21.5
 41
1.3928572999999991
  0
LINE
  5
299
  8
0
  6
CONTINUOUS
 62
     7
 10
-171.81351000000001
 20
157.98247000000001
 30
0.0
 11
-150.31351000000001
 21
157.98247000000001
 31
0.0
  0
LINE
  5
29A
  8
0
  6
CONTINUOUS
 62
     7
 10
-171.81351000000001
 20
157.98247000000001
 30
0.0
 11
-168.81351000000001
 21
158.98247000000001
 31
0.0
  0
LINE
  5
29B
  8
0
  6
CONTINUOUS
 62
     7
 10
-171.81351000000001
 20
157.98247000000001
 30
0.0
 11
-168.81351000000001
 21
156.98247000000001
 31
0.0
  0
LINE
  5
29C
  8
0
  6
CONTINUOUS
 62
     7
 10
-128.81351000000001
 20
157.98247000000001
 30
0.0
 11
-150.31351000000001
 21
157.98247000000001
 31
0.0
  0
LINE
  5
29D
  8
0
  6
CONTINUOUS
 62
     7
 10
-128.81351000000001
 20
157.98247000000001
 30
0.0
 11
-131.81351000000001
 21
156.98247000000001
 31
0.0
  0
LINE
  5
29E
  8
0
  6
CONTINUOUS
 62
     7
 10
-128.81351000000001
 20
157.98247000000001
 30
0.0
 11
-131.81351000000001
 21
158.98247000000001
 31
0.0
  0
LINE
  5
29F
  8
0
  6
CONTINUOUS
 62
     7
 10
-171.81351000000001
 20
121.22501
 30
0.0
 11
-171.81351000000001
 21
159.48247000000001
 31
0.0
  0
LINE
  5
2A0
  8
0
  6
CONTINUOUS
 62
     7
 10
-128.81351000000001
 20
121.22501
 30
0.0
 11
-128.81351000000001
 21
159.48247000000001
 31
0.0
  0
TEXT
  5
2A1
  8
0
  6
CONTINUOUS
 62
     7
 10
-153.05636000000001
 20
151.18213
 30
0.0
 40
3.2000000000000002
  1
１５
 41
0.8643459000000001
  0
LINE
  5
2A2
  8
0
  6
CONTINUOUS
 62
     7
 10
-165.31351000000001
 20
150.38212999999999
 30
0.0
 11
-150.31351000000001
 21
150.38212999999999
 31
0.0
  0
LINE
  5
2A3
  8
0
  6
CONTINUOUS
 62
     7
 10
-165.31351000000001
 20
150.38212999999999
 30
0.0
 11
-162.31351000000001
 21
151.38212999999999
 31
0.0
  0
LINE
  5
2A4
  8
0
  6
CONTINUOUS
 62
     7
 10
-165.31351000000001
 20
150.38212999999999
 30
0.0
 11
-162.31351000000001
 21
149.38212999999999
 31
0.0
  0
LINE
  5
2A5
  8
0
  6
CONTINUOUS
 62
     7
 10
-135.31351000000001
 20
150.38212999999999
 30
0.0
 11
-150.31351000000001
 21
150.38212999999999
 31
0.0
  0
LINE
  5
2A6
  8
0
  6
CONTINUOUS
 62
     7
 10
-135.31351000000001
 20
150.38212999999999
 30
0.0
 11
-138.31351000000001
 21
149.38212999999999
 31
0.0
  0
LINE
  5
2A7
  8
0
  6
CONTINUOUS
 62
     7
 10
-135.31351000000001
 20
150.38212999999999
 30
0.0
 11
-138.31351000000001
 21
151.38212999999999
 31
0.0
  0
LINE
  5
2A8
  8
0
  6
CONTINUOUS
 62
     7
 10
-165.31351000000001
 20
118.75201
 30
0.0
 11
-165.31351000000001
 21
151.8821299999999
 31
0.0
  0
LINE
  5
2A9
  8
0
  6
CONTINUOUS
 62
     7
 10
-135.31351000000001
 20
118.75201
 30
0.0
 11
-135.31351000000001
 21
151.8821299999999
 31
0.0
  0
TEXT
  5
2C1
  8
0
  6
CONTINUOUS
 62
     7
 10
-114.00303
 20
101.5821399999999
 30
0.0
 40
3.2000000000000002
  1
１０．５
 50
90.000003000000007
 41
0.85124966
  0
LINE
  5
2C2
  8
0
  6
CONTINUOUS
 62
     7
 10
-113.20303
 20
97.025002000000015
 30
0.0
 11
-113.20303
 21
107.52500000000001
 31
0.0
  0
LINE
  5
2C3
  8
0
  6
CONTINUOUS
 62
     7
 10
-113.20303
 20
97.025002000000015
 30
0.0
 11
-114.20303
 21
100.02500000000001
 31
0.0
  0
LINE
  5
2C4
  8
0
  6
CONTINUOUS
 62
     7
 10
-113.20303
 20
97.025002000000015
 30
0.0
 11
-112.20303
 21
100.02500000000001
 31
0.0
  0
LINE
  5
2C5
  8
0
  6
CONTINUOUS
 62
     7
 10
-113.20303
 20
118.02500000000001
 30
0.0
 11
-113.20303
 21
107.52500000000001
 31
0.0
  0
LINE
  5
2C6
  8
0
  6
CONTINUOUS
 62
     7
 10
-113.20303
 20
118.02500000000001
 30
0.0
 11
-112.20303
 21
115.02499999999991
 31
0.0
  0
LINE
  5
2C7
  8
0
  6
CONTINUOUS
 62
     7
 10
-113.20303
 20
118.02500000000001
 30
0.0
 11
-114.20303
 21
115.02499999999991
 31
0.0
  0
LINE
  5
2C8
  8
0
  6
CONTINUOUS
 62
     7
 10
-129.41351
 20
118.02500000000001
 30
0.0
 11
-112.0030399999997
 21
118.02500000000001
 31
0.0
  0
TEXT
  5
2C9
  8
0
  6
CONTINUOUS
 62
     7
 10
-114.00303
 20
122.2622499999999
 30
0.0
 40
3.2000000000000002
  1
１
 50
90.000003000000007
 41
0.90036055
  0
LINE
  5
2CA
  8
0
  6
CONTINUOUS
 62
     7
 10
-113.20303
 20
118.02500000000001
 30
0.0
 11
-113.20303
 21
119.02500000000001
 31
0.0
  0
LINE
  5
2CB
  8
0
  6
CONTINUOUS
 62
     7
 10
-113.20303
 20
119.02500000000001
 30
0.0
 11
-113.20303
 21
124.54796999999991
 31
0.0
  0
LINE
  5
2CC
  8
0
  6
CONTINUOUS
 62
     7
 10
-113.20303
 20
120.02500000000001
 30
0.0
 11
-113.20303
 21
126.02500000000001
 31
0.0
  0
LINE
  5
2CD
  8
0
  6
CONTINUOUS
 62
     7
 10
-113.20303
 20
126.02500000000001
 30
0.0
 11
-113.20303
 21
119.02500000000001
 31
0.0
  0
LINE
  5
2CE
  8
0
  6
CONTINUOUS
 62
     7
 10
-113.20303
 20
120.02500000000001
 30
0.0
 11
-114.20303
 21
123.02500000000001
 31
0.0
  0
LINE
  5
2CF
  8
0
  6
CONTINUOUS
 62
     7
 10
-113.20303
 20
120.02500000000001
 30
0.0
 11
-112.20303
 21
123.02500000000001
 31
0.0
  0
LINE
  5
2D0
  8
0
  6
CONTINUOUS
 62
     7
 10
-131.60439999999991
 20
120.02500000000001
 30
0.0
 11
-112.0030399999997
 21
120.02500000000001
 31
0.0
  0
TEXT
  5
2F9
  8
0
  6
CONTINUOUS
 62
     7
 10
-114.00303
 20
82.256125999999981
 30
0.0
 40
3.2000000000000002
  1
(3)
 50
90.000003000000007
 41
1.285714399999998
  0
LINE
  5
2FA
  8
0
  6
CONTINUOUS
 62
     7
 10
-113.20303
 20
97.025002000000015
 30
0.0
 11
-113.20303
 21
94.525002000000015
 31
0.0
  0
LINE
  5
2FB
  8
0
  6
CONTINUOUS
 62
     7
 10
-113.20303
 20
94.525002000000015
 30
0.0
 11
-113.20303
 21
82.256125999999981
 31
0.0
  0
LINE
  5
2FC
  8
0
  6
CONTINUOUS
 62
     7
 10
-113.20303
 20
92.025002000000015
 30
0.0
 11
-113.20303
 21
86.025001999999986
 31
0.0
  0
LINE
  5
2FD
  8
0
  6
CONTINUOUS
 62
     7
 10
-113.20303
 20
86.025001999999986
 30
0.0
 11
-113.20303
 21
94.525002000000015
 31
0.0
  0
LINE
  5
2FE
  8
0
  6
CONTINUOUS
 62
     7
 10
-113.20303
 20
92.025002000000015
 30
0.0
 11
-112.20303
 21
89.025002000000001
 31
0.0
  0
LINE
  5
2FF
  8
0
  6
CONTINUOUS
 62
     7
 10
-113.20303
 20
92.025002000000015
 30
0.0
 11
-114.20303
 21
89.025002000000001
 31
0.0
  0
LINE
  5
300
  8
0
  6
CONTINUOUS
 62
     7
 10
-133.81351000000001
 20
97.025002000000015
 30
0.0
 11
-112.0030399999997
 21
97.025002000000015
 31
0.0
  0
LINE
  5
301
  8
0
  6
CONTINUOUS
 62
     7
 10
-147.31351000000001
 20
92.025002000000015
 30
0.0
 11
-112.0030399999997
 21
92.025002000000015
 31
0.0
  0
TEXT
  5
302
  8
0
  6
CONTINUOUS
 62
     7
 10
-183.47049000000001
 20
96.882143999999997
 30
0.0
 40
3.2000000000000002
  1
(14.5)
 50
90.000003000000007
 41
1.3899615000000001
  0
LINE
  5
303
  8
0
  6
CONTINUOUS
 62
     7
 10
-182.67049
 20
120.02500000000001
 30
0.0
 11
-182.67049
 21
106.02500000000001
 31
0.0
  0
LINE
  5
304
  8
0
  6
CONTINUOUS
 62
     7
 10
-182.67049
 20
120.02500000000001
 30
0.0
 11
-181.67048999999969
 21
117.02500000000001
 31
0.0
  0
LINE
  5
305
  8
0
  6
CONTINUOUS
 62
     7
 10
-182.67049
 20
120.02500000000001
 30
0.0
 11
-183.6704899999998
 21
117.02500000000001
 31
0.0
  0
LINE
  5
306
  8
0
  6
CONTINUOUS
 62
     7
 10
-182.67049
 20
92.025002000000015
 30
0.0
 11
-182.67049
 21
106.02500000000001
 31
0.0
  0
LINE
  5
307
  8
0
  6
CONTINUOUS
 62
     7
 10
-182.67049
 20
92.025002000000015
 30
0.0
 11
-183.6704899999998
 21
95.025002000000001
 31
0.0
  0
LINE
  5
308
  8
0
  6
CONTINUOUS
 62
     7
 10
-182.67049
 20
92.025002000000015
 30
0.0
 11
-181.67048999999969
 21
95.025002000000001
 31
0.0
  0
LINE
  5
309
  8
0
  6
CONTINUOUS
 62
     7
 10
-169.02260999999979
 20
120.02500000000001
 30
0.0
 11
-183.87047999999999
 21
120.02500000000001
 31
0.0
  0
LINE
  5
30A
  8
0
  6
CONTINUOUS
 62
     7
 10
-153.31351000000001
 20
92.025002000000015
 30
0.0
 11
-183.87047999999999
 21
92.025002000000015
 31
0.0
  0
ENDSEC
  0
EOF
