  0
SECTION
  2
HEADER
  9
$ACADVER
  1
AC1009
  9
$INSBASE
 10
0.0
 20
0.0
 30
0.0
  9
$EXTMIN
 10
-47.707640524380388
 20
-62.913222587799282
 30
-0.0015258207003583
  9
$EXTMAX
 10
40.019562503345689
 20
186.3800665691727
 30
0.0000000349246037
  9
$LIMMIN
 10
0.0
 20
0.0
  9
$LIMMAX
 10
12.0
 20
9.0
  9
$ORTHOMODE
 70
     0
  9
$REGENMODE
 70
     1
  9
$FILLMODE
 70
     1
  9
$QTEXTMODE
 70
     0
  9
$MIRRTEXT
 70
     1
  9
$DRAGMODE
 70
     2
  9
$LTSCALE
 40
1.0
  9
$OSMODE
 70
    37
  9
$ATTMODE
 70
     1
  9
$TEXTSIZE
 40
0.2
  9
$TRACEWID
 40
0.05
  9
$TEXTSTYLE
  7
STANDARD
  9
$CLAYER
  8
0
  9
$CELTYPE
  6
CONTINUOUS
  9
$CECOLOR
 62
   256
  9
$DIMSCALE
 40
1.0
  9
$DIMASZ
 40
0.18
  9
$DIMEXO
 40
0.0625
  9
$DIMDLI
 40
0.38
  9
$DIMRND
 40
0.0
  9
$DIMDLE
 40
0.0
  9
$DIMEXE
 40
0.18
  9
$DIMTP
 40
0.0
  9
$DIMTM
 40
0.0
  9
$DIMTXT
 40
0.18
  9
$DIMCEN
 40
0.09
  9
$DIMTSZ
 40
0.0
  9
$DIMTOL
 70
     0
  9
$DIMLIM
 70
     0
  9
$DIMTIH
 70
     1
  9
$DIMTOH
 70
     1
  9
$DIMSE1
 70
     0
  9
$DIMSE2
 70
     0
  9
$DIMTAD
 70
     0
  9
$DIMZIN
 70
     0
  9
$DIMBLK
  1

  9
$DIMASO
 70
     1
  9
$DIMSHO
 70
     1
  9
$DIMPOST
  1

  9
$DIMAPOST
  1

  9
$DIMALT
 70
     0
  9
$DIMALTD
 70
     2
  9
$DIMALTF
 40
25.399999999999999
  9
$DIMLFAC
 40
1.0
  9
$DIMTOFL
 70
     0
  9
$DIMTVP
 40
0.0
  9
$DIMTIX
 70
     0
  9
$DIMSOXD
 70
     0
  9
$DIMSAH
 70
     0
  9
$DIMBLK1
  1

  9
$DIMBLK2
  1

  9
$DIMSTYLE
  2
STANDARD
  9
$DIMCLRD
 70
     0
  9
$DIMCLRE
 70
     0
  9
$DIMCLRT
 70
     0
  9
$DIMTFAC
 40
1.0
  9
$DIMGAP
 40
0.09
  9
$LUNITS
 70
     2
  9
$LUPREC
 70
     4
  9
$SKETCHINC
 40
0.1
  9
$FILLETRAD
 40
0.0
  9
$AUNITS
 70
     0
  9
$AUPREC
 70
     0
  9
$MENU
  1
.
  9
$ELEVATION
 40
0.0
  9
$PELEVATION
 40
0.0
  9
$THICKNESS
 40
0.0
  9
$LIMCHECK
 70
     0
  9
$BLIPMODE
 70
     0
  9
$CHAMFERA
 40
0.0
  9
$CHAMFERB
 40
0.0
  9
$SKPOLY
 70
     0
  9
$TDCREATE
 40
2452865.5356839471
  9
$TDUPDATE
 40
2452865.5379428822
  9
$TDINDWG
 40
0.0022594676
  9
$TDUSRTIMER
 40
0.0022594676
  9
$USRTIMER
 70
     1
  9
$ANGBASE
 50
0.0
  9
$ANGDIR
 70
     0
  9
$PDMODE
 70
     0
  9
$PDSIZE
 40
0.0
  9
$PLINEWID
 40
0.0
  9
$COORDS
 70
     0
  9
$SPLFRAME
 70
     0
  9
$SPLINETYPE
 70
     6
  9
$SPLINESEGS
 70
     8
  9
$ATTDIA
 70
     1
  9
$ATTREQ
 70
     1
  9
$HANDLING
 70
     1
  9
$HANDSEED
  5
369
  9
$SURFTAB1
 70
     6
  9
$SURFTAB2
 70
     6
  9
$SURFTYPE
 70
     6
  9
$SURFU
 70
     6
  9
$SURFV
 70
     6
  9
$UCSNAME
  2

  9
$UCSORG
 10
0.0
 20
0.0
 30
0.0
  9
$UCSXDIR
 10
1.0
 20
0.0
 30
0.0
  9
$UCSYDIR
 10
0.0
 20
1.0
 30
0.0
  9
$PUCSNAME
  2

  9
$PUCSORG
 10
0.0
 20
0.0
 30
0.0
  9
$PUCSXDIR
 10
1.0
 20
0.0
 30
0.0
  9
$PUCSYDIR
 10
0.0
 20
1.0
 30
0.0
  9
$USERI1
 70
     0
  9
$USERI2
 70
     0
  9
$USERI3
 70
     0
  9
$USERI4
 70
     0
  9
$USERI5
 70
     0
  9
$USERR1
 40
0.0
  9
$USERR2
 40
0.0
  9
$USERR3
 40
0.0
  9
$USERR4
 40
0.0
  9
$USERR5
 40
0.0
  9
$WORLDVIEW
 70
     1
  9
$SHADEDGE
 70
     3
  9
$SHADEDIF
 70
    70
  9
$TILEMODE
 70
     1
  9
$MAXACTVP
 70
    64
  9
$PLIMCHECK
 70
     0
  9
$PEXTMIN
 10
1.0000000000000000E+020
 20
1.0000000000000000E+020
 30
1.0000000000000000E+020
  9
$PEXTMAX
 10
-1.0000000000000000E+020
 20
-1.0000000000000000E+020
 30
-1.0000000000000000E+020
  9
$PLIMMIN
 10
0.0
 20
0.0
  9
$PLIMMAX
 10
12.0
 20
9.0
  9
$UNITMODE
 70
     0
  9
$VISRETAIN
 70
     1
  9
$PLINEGEN
 70
     0
  9
$PSLTSCALE
 70
     1
  0
ENDSEC
  0
SECTION
  2
TABLES
  0
TABLE
  2
VPORT
 70
     3
  0
VPORT
  2
*ACTIVE
 70
     0
 10
0.0
 20
0.0
 11
1.0
 21
1.0
 12
-3.844039010517363
 22
61.733421990686743
 13
0.0
 23
0.0
 14
1.0
 24
1.0
 15
0.0
 25
0.0
 16
0.0
 26
0.0
 36
1.0
 17
0.0
 27
0.0
 37
0.0
 40
251.1019466357408
 41
1.3389830508474569
 42
50.0
 43
0.0
 44
0.0
 50
0.0
 51
0.0
 71
     0
 72
   100
 73
     1
 74
     1
 75
     0
 76
     0
 77
     0
 78
     0
  0
ENDTAB
  0
TABLE
  2
LTYPE
 70
    19
  0
LTYPE
  2
CONTINUOUS
 70
     0
  3
Solid line
 72
    65
 73
     0
 40
0.0
  0
LTYPE
  2
DASHED
 70
     0
  3
__ __ __ __ __ __ __ __ __ __ __ __ __ __ __
 72
    65
 73
     2
 40
3.5
 49
2.0
 49
-1.5
  0
LTYPE
  2
CENTER
 70
     0
  3
____ _ ____ _ ____ _ ____ _ ____ _ ____ _ ____
 72
    65
 73
     4
 40
17.5
 49
13.0
 49
-1.5
 49
1.5
 49
-1.5
  0
LTYPE
  2
PHANTOM
 70
     0
  3
_____ _ _ _____ _ _ _____ _ _ _____ _ _ ____  
 72
    65
 73
     6
 40
15.5
 49
8.0
 49
-1.5
 49
1.5
 49
-1.5
 49
1.5
 49
-1.5
  0
LTYPE
  2
DOT
 70
     0
  3
. . . . . . . . . . . . . . . . . . . . . . . .
 72
    65
 73
     2
 40
0.25
 49
0.0
 49
-0.25
  0
LTYPE
  2
AM_ISO02W050
 70
     0
  3
__ __ __ __ __ __ __ __ __ __ __ __ __ __ __
 72
    65
 73
     2
 40
7.5
 49
6.0
 49
-1.5
  0
LTYPE
  2
AM_ISO08W050
 70
     0
  3
____ . ____ . ____ . ____ . ____ . ____ . ____
 72
    65
 73
     4
 40
18.0
 49
12.0
 49
-1.5
 49
3.0
 49
-1.5
  0
LTYPE
  2
AM_ISO09W050
 70
     0
  3
_____ . . _____ . . _____ . . ____ .. ____
 72
    65
 73
     6
 40
22.5
 49
12.0
 49
-1.5
 49
3.0
 49
-1.5
 49
3.0
 49
-1.5
  0
LTYPE
  2
AMCONSTR
 70
     0
  3
_______________________
 72
    65
 73
     2
 40
9999.0
 49
9999.0
 49
0.0
  0
LTYPE
  2
AM_ISO08W050X2
 70
     0
  3
__ . __ . __ . __ . __ . __
 72
    65
 73
     4
 40
9.0
 49
6.0
 49
-0.75
 49
1.5
 49
-0.75
  0
LTYPE
  2
AM_ISO02W050X2
 70
     0
  3
 _ _ _ _ _ _ _ _ _ _ _ _
 72
    65
 73
     2
 40
3.75
 49
3.0
 49
-0.75
  0
LTYPE
  2
AMZIGZAG
 70
     0
  3
/\/-/\/-/\/-/\/-/\/-/\/
 72
    65
 73
     2
 40
11.000099999999991
 49
0.0001
 49
-11.0
  0
LTYPE
  2
HIDDEN
 70
     0
  3
Hidden __ __ __ __ __ __ __ __ __ __ __ __ __ _
 72
    65
 73
     2
 40
0.375
 49
0.25
 49
-0.125
  0
LTYPE
  2
PHANTOM2
 70
     0
  3
Phantom (.5x) ___ _ _ ___ _ _ ___ _ _ ___ _ _
 72
    65
 73
     6
 40
1.25
 49
0.625
 49
-0.125
 49
0.125
 49
-0.125
 49
0.125
 49
-0.125
  0
LTYPE
  2
CENTER2
 70
     0
  3
Center (.5x) ___ _ ___ _ ___ _ ___ _ ___ _ ___
 72
    65
 73
     4
 40
1.125
 49
0.75
 49
-0.125
 49
0.125
 49
-0.125
  0
LTYPE
  2
HIDDEN2
 70
     0
  3
Hidden (.5x) _ _ _ _ _ _ _ _ _ _ _ _ _ _ _ _ _
 72
    65
 73
     2
 40
0.1875
 49
0.125
 49
-0.0625
  0
LTYPE
  2
AMZIGZAG2
 70
     0
  3
/\/-/\/-/\/-/\/-/\/-/\/
 72
    65
 73
     2
 40
0.4401
 49
0.0001
 49
-0.4400000000000001
  0
LTYPE
  2
ACANSTGB
 70
     0
  3
__ . . __ . .
 72
    65
 73
     6
 40
0.35433070866
 49
0.15748031496
 49
-0.03937007874
 49
0.03937007874
 49
-0.03937007874
 49
0.03937007874
 49
-0.03937007874
  0
LTYPE
  2
ACANSTGL
 70
     0
  3
_ _ _ _ _
 72
    65
 73
     2
 40
0.11811023622
 49
0.07874015748
 49
-0.03937007874
  0
ENDTAB
  0
TABLE
  2
LAYER
 70
     3
  0
LAYER
  2
0
 70
     0
 62
     7
  6
CONTINUOUS
  0
LAYER
  2
1
 70
     0
 62
     7
  6
CONTINUOUS
  0
LAYER
  2
2
 70
     0
 62
     7
  6
CONTINUOUS
  0
ENDTAB
  0
TABLE
  2
STYLE
 70
     4
  0
STYLE
  2
STANDARD
 70
     0
 40
0.0
 41
1.0
 50
0.0
 71
     0
 42
0.2
  3
txt
  4
BIGFONT
  0
STYLE
  2

 70
     1
 40
0.0
 41
1.0
 50
0.0
 71
     0
 42
0.2
  3
ltypeshp.shx
  4

  0
STYLE
  2
ACANSTS
 70
     0
 40
1.0
 41
1.0
 50
0.0
 71
     0
 42
0.2
  3
romans.shx
  4
extfont.shx
  0
STYLE
  2
ACANSGDT
 70
     0
 40
0.0
 41
1.0
 50
0.0
 71
     0
 42
0.2
  3
amgdtans.shx
  4

  0
ENDTAB
  0
TABLE
  2
VIEW
 70
     0
  0
ENDTAB
  0
TABLE
  2
UCS
 70
     0
  0
ENDTAB
  0
TABLE
  2
APPID
 70
     4
  0
APPID
  2
ACAD
 70
     0
  0
APPID
  2
MCAD_NO_VIS
 70
     0
  0
APPID
  2
ACAD_TEMP_GRAPHIC
 70
     0
  0
APPID
  2
ACATTRIBSERVICES
 70
     0
  0
ENDTAB
  0
TABLE
  2
DIMSTYLE
 70
     7
  0
DIMSTYLE
  2
STANDARD
 70
     0
  3

  4

  5

  6

  7

 40
1.0
 41
0.18
 42
0.0625
 43
0.38
 44
0.18
 45
0.0
 46
0.0
 47
0.0
 48
0.0
140
0.18
141
0.09
142
0.0
143
25.399999999999999
144
1.0
145
0.0
146
1.0
147
0.09
 71
     0
 72
     0
 73
     1
 74
     1
 75
     0
 76
     0
 77
     0
 78
     0
170
     0
171
     2
172
     0
173
     0
174
     0
175
     0
176
     0
177
     0
178
     0
  0
DIMSTYLE
  2
AM_ANSI
 70
     0
  3

  4
mm
  5

  6

  7

 40
1.0
 41
0.1
 42
0.05
 43
0.5
 44
0.1
 45
0.0
 46
0.0
 47
0.1
 48
0.1
140
0.12
141
0.0
142
0.0
143
25.399999999999999
144
1.0
145
0.0
146
0.71
147
0.06
 71
     0
 72
     0
 73
     1
 74
     1
 75
     0
 76
     0
 77
     0
 78
     7
170
     0
171
     2
172
     0
173
     0
174
     0
175
     0
176
   256
177
   256
178
     2
  0
DIMSTYLE
  2
AM_ANSI$3
 70
     0
  3

  4
mm
  5

  6

  7

 40
1.0
 41
0.1
 42
0.05
 43
0.5
 44
0.1
 45
0.0
 46
0.0
 47
0.1
 48
0.1
140
0.12
141
0.0
142
0.0
143
25.399999999999999
144
1.0
145
0.0
146
0.71
147
0.06
 71
     0
 72
     0
 73
     1
 74
     1
 75
     0
 76
     0
 77
     0
 78
     7
170
     0
171
     2
172
     0
173
     0
174
     0
175
     0
176
   256
177
   256
178
     2
  0
DIMSTYLE
  2
AM_ANSI$4
 70
     0
  3

  4
mm
  5

  6

  7

 40
1.0
 41
0.1
 42
0.05
 43
0.5
 44
0.1
 45
0.0
 46
0.0
 47
0.1
 48
0.1
140
0.12
141
0.0
142
0.0
143
25.399999999999999
144
1.0
145
0.0
146
0.71
147
0.06
 71
     0
 72
     0
 73
     1
 74
     1
 75
     0
 76
     0
 77
     0
 78
     7
170
     0
171
     2
172
     0
173
     0
174
     0
175
     0
176
   256
177
   256
178
     2
  0
DIMSTYLE
  2
AM_ANSI$7
 70
     0
  3

  4
mm
  5

  6

  7

 40
1.0
 41
0.1
 42
0.05
 43
0.5
 44
0.1
 45
0.0
 46
0.0
 47
0.1
 48
0.1
140
0.24
141
0.0
142
0.0
143
25.399999999999999
144
1.0
145
0.0
146
0.71
147
0.06
 71
     0
 72
     0
 73
     1
 74
     1
 75
     0
 76
     0
 77
     0
 78
     7
170
     0
171
     2
172
     0
173
     0
174
     0
175
     0
176
   256
177
   256
178
     2
  0
DIMSTYLE
  2
AM_ANSI$SF
 70
     0
  3

  4
mm
  5

  6

  7

 40
1.0
 41
0.1
 42
0.05
 43
0.5
 44
0.1
 45
0.0
 46
0.0
 47
0.1
 48
0.1
140
0.12
141
0.0
142
0.0
143
25.399999999999999
144
1.0
145
0.0
146
0.71
147
0.06
 71
     0
 72
     0
 73
     1
 74
     1
 75
     1
 76
     1
 77
     0
 78
     7
170
     0
171
     2
172
     0
173
     0
174
     0
175
     0
176
   256
177
   256
178
     2
  0
DIMSTYLE
  2
AM_ANSI$SH
 70
     0
  3

  4
mm
  5

  6
GENAXEH
  7

 40
1.0
 41
0.1
 42
0.05
 43
0.5
 44
0.1
 45
0.0
 46
0.0
 47
0.1
 48
0.1
140
0.12
141
0.0
142
0.0
143
25.399999999999999
144
1.0
145
0.0
146
0.71
147
0.06
 71
     0
 72
     0
 73
     1
 74
     1
 75
     1
 76
     1
 77
     0
 78
     7
170
     0
171
     2
172
     0
173
     1
174
     0
175
     0
176
   256
177
   256
178
     2
  0
ENDTAB
  0
ENDSEC
  0
SECTION
  2
BLOCKS
  0
BLOCK
  8
0
  2
$MODEL_SPACE
 70
     0
 10
0.0
 20
0.0
 30
0.0
  3
$MODEL_SPACE
  1

  0
ENDBLK
  5
20
  8
0
  0
BLOCK
 67
     1
  8
0
  2
$PAPER_SPACE
 70
     0
 10
0.0
 20
0.0
 30
0.0
  3
$PAPER_SPACE
  1

  0
ENDBLK
  5
1C
 67
     1
  8
0
  0
BLOCK
  8
0
  2
GENAXEH
 70
     0
 10
0.0
 20
0.0
 30
0.0
  3
GENAXEH
  1

  0
LINE
  5
34E
  8
0
 10
-1.0
 20
0.0
 30
0.0
 11
1.0
 21
0.0
 31
0.0
  0
ENDBLK
  5
350
  8
0
  0
ENDSEC
  0
SECTION
  2
ENTITIES
  0
LINE
  5
30
  8
0
  6
CONTINUOUS
 62
     7
 10
-23.703125
 20
170.2091390599432
 30
0.0
 11
-23.703125
 21
91.209139059943254
 31
0.0
  0
LINE
  5
3D
  8
0
  6
CENTER
 62
     7
 10
-4.5031250000000114
 20
170.2091390599432
 30
0.0
 11
-4.5031250000000114
 21
91.209139059943254
 31
0.0
  0
LINE
  5
3E
  8
0
  6
CENTER
 62
     7
 10
5.8968849999999966
 20
170.2091390599432
 30
0.0
 11
5.8968849999999966
 21
91.209139059943254
 31
0.0
  0
LINE
  5
3F
  8
0
  6
CONTINUOUS
 62
     7
 10
12.89688499999999
 20
170.2091390599432
 30
0.0
 11
12.89688499999999
 21
91.209139059943254
 31
0.0
  0
LINE
  5
41
  8
0
  6
CONTINUOUS
 62
     7
 10
-21.703125
 20
170.2091390599432
 30
0.0
 11
-21.703125
 21
91.209139059943254
 31
0.0
  0
LINE
  5
43
  8
0
  6
CONTINUOUS
 62
     7
 10
-11.50312500000001
 20
170.2091390599432
 30
0.0
 11
-11.50312500000001
 21
91.209139059943254
 31
0.0
  0
LINE
  5
48
  8
0
  6
CENTER
 62
     7
 10
-10.00312500000001
 20
20.209139059943251
 30
0.0
 11
0.9968749999999886
 21
20.209139059943251
 31
0.0
  0
LINE
  5
49
  8
0
  6
CENTER
 62
     7
 10
0.3968849999999975
 20
155.2091390599432
 30
0.0
 11
11.39688499999999
 21
155.2091390599432
 31
0.0
  0
LINE
  5
4A
  8
0
  6
CENTER
 62
     7
 10
-10.00312500000001
 20
160.2091390599432
 30
0.0
 11
0.9968749999999886
 21
160.2091390599432
 31
0.0
  0
LINE
  5
4B
  8
0
  6
CENTER
 62
     7
 10
0.3968849999999975
 20
145.2091390599432
 30
0.0
 11
11.39688499999999
 21
145.2091390599432
 31
0.0
  0
LINE
  5
4C
  8
0
  6
CENTER
 62
     7
 10
-10.00312500000001
 20
150.2091390599432
 30
0.0
 11
0.9968749999999886
 21
150.2091390599432
 31
0.0
  0
LINE
  5
4D
  8
0
  6
CENTER
 62
     7
 10
0.3968849999999975
 20
135.2091390599432
 30
0.0
 11
11.39688499999999
 21
135.2091390599432
 31
0.0
  0
LINE
  5
4E
  8
0
  6
CENTER
 62
     7
 10
-10.00312500000001
 20
140.2091390599432
 30
0.0
 11
0.9968749999999886
 21
140.2091390599432
 31
0.0
  0
LINE
  5
4F
  8
0
  6
CENTER
 62
     7
 10
0.3968849999999975
 20
125.2091390599432
 30
0.0
 11
11.39688499999999
 21
125.2091390599432
 31
0.0
  0
LINE
  5
50
  8
0
  6
CENTER
 62
     7
 10
-10.00312500000001
 20
130.2091390599432
 30
0.0
 11
0.9968749999999886
 21
130.2091390599432
 31
0.0
  0
LINE
  5
51
  8
0
  6
CENTER
 62
     7
 10
0.3968849999999975
 20
115.2091390599432
 30
0.0
 11
11.39688499999999
 21
115.2091390599432
 31
0.0
  0
LINE
  5
52
  8
0
  6
CENTER
 62
     7
 10
-10.00312500000001
 20
120.2091390599432
 30
0.0
 11
0.9968749999999886
 21
120.2091390599432
 31
0.0
  0
LINE
  5
53
  8
0
  6
CENTER
 62
     7
 10
0.3968849999999975
 20
105.2091390599432
 30
0.0
 11
11.39688499999999
 21
105.2091390599432
 31
0.0
  0
LINE
  5
54
  8
0
  6
CENTER
 62
     7
 10
-10.00312500000001
 20
110.2091390599432
 30
0.0
 11
0.9968749999999886
 21
110.2091390599432
 31
0.0
  0
LINE
  5
55
  8
0
  6
CENTER
 62
     7
 10
0.3968849999999975
 20
95.209139059943254
 30
0.0
 11
11.39688499999999
 21
95.209139059943254
 31
0.0
  0
LINE
  5
56
  8
0
  6
CENTER
 62
     7
 10
-10.00312500000001
 20
100.2091390599432
 30
0.0
 11
0.9968749999999886
 21
100.2091390599432
 31
0.0
  0
LINE
  5
57
  8
0
  6
CENTER
 62
     7
 10
0.3968849999999975
 20
85.209139059943254
 30
0.0
 11
11.39688499999999
 21
85.209139059943254
 31
0.0
  0
LINE
  5
58
  8
0
  6
CENTER
 62
     7
 10
0.3968849999999975
 20
75.209139059943254
 30
0.0
 11
11.39688499999999
 21
75.209139059943254
 31
0.0
  0
LINE
  5
59
  8
0
  6
CENTER
 62
     7
 10
-10.00312500000001
 20
80.209139059943254
 30
0.0
 11
0.9968749999999886
 21
80.209139059943254
 31
0.0
  0
LINE
  5
5A
  8
0
  6
CENTER
 62
     7
 10
0.3968849999999975
 20
65.209139059943254
 30
0.0
 11
11.39688499999999
 21
65.209139059943254
 31
0.0
  0
LINE
  5
5B
  8
0
  6
CENTER
 62
     7
 10
-10.00312500000001
 20
70.209139059943254
 30
0.0
 11
0.9968749999999886
 21
70.209139059943254
 31
0.0
  0
LINE
  5
5C
  8
0
  6
CENTER
 62
     7
 10
0.3968849999999975
 20
55.209139059943247
 30
0.0
 11
11.39688499999999
 21
55.209139059943247
 31
0.0
  0
LINE
  5
5D
  8
0
  6
CENTER
 62
     7
 10
-10.00312500000001
 20
60.209139059943247
 30
0.0
 11
0.9968749999999886
 21
60.209139059943247
 31
0.0
  0
LINE
  5
5E
  8
0
  6
CENTER
 62
     7
 10
0.3968849999999975
 20
45.209139059943247
 30
0.0
 11
11.39688499999999
 21
45.209139059943247
 31
0.0
  0
LINE
  5
5F
  8
0
  6
CENTER
 62
     7
 10
-10.00312500000001
 20
50.209139059943247
 30
0.0
 11
0.9968749999999886
 21
50.209139059943247
 31
0.0
  0
LINE
  5
60
  8
0
  6
CENTER
 62
     7
 10
0.3968849999999975
 20
35.209139059943247
 30
0.0
 11
11.39688499999999
 21
35.209139059943247
 31
0.0
  0
LINE
  5
61
  8
0
  6
CENTER
 62
     7
 10
-10.00312500000001
 20
40.209139059943247
 30
0.0
 11
0.9968749999999886
 21
40.209139059943247
 31
0.0
  0
LINE
  5
62
  8
0
  6
CENTER
 62
     7
 10
0.3968849999999975
 20
25.209139059943251
 30
0.0
 11
11.39688499999999
 21
25.209139059943251
 31
0.0
  0
LINE
  5
63
  8
0
  6
CENTER
 62
     7
 10
-10.00312500000001
 20
30.209139059943251
 30
0.0
 11
0.9968749999999886
 21
30.209139059943251
 31
0.0
  0
LINE
  5
65
  8
0
  6
CONTINUOUS
 62
     7
 10
-23.703125
 20
170.2091390599432
 30
0.0
 11
12.89688499999999
 21
170.2091390599432
 31
0.0
  0
LINE
  5
66
  8
0
  6
CONTINUOUS
 62
     7
 10
-23.703125
 20
10.209139059943251
 30
0.0
 11
12.89688499999999
 21
10.209139059943251
 31
0.0
  0
LINE
  5
69
  8
0
  6
CONTINUOUS
 62
     7
 10
-47.703125
 20
-3.7908609400567448
 30
0.0
 11
-31.703125
 21
-3.7908609400567448
 31
0.0
  0
LINE
  5
6A
  8
0
  6
CONTINUOUS
 62
     7
 10
-47.703125
 20
4.2091390599432543
 30
0.0
 11
-31.703125
 21
4.2091390599432543
 31
0.0
  0
LINE
  5
6B
  8
0
  6
CONTINUOUS
 62
     7
 10
-47.703125
 20
-3.7908609400567448
 30
0.0
 11
-47.703125
 21
4.2091390599432543
 31
0.0
  0
LINE
  5
6C
  8
0
  6
CONTINUOUS
 62
     7
 10
-31.703125
 20
-3.7908609400567448
 30
0.0
 11
-31.703125
 21
4.2091390599432543
 31
0.0
  0
LINE
  5
6D
  8
0
  6
CONTINUOUS
 62
     7
 10
-47.703125
 20
184.2091390599432
 30
0.0
 11
-31.703125
 21
184.2091390599432
 31
0.0
  0
LINE
  5
6E
  8
0
  6
CONTINUOUS
 62
     7
 10
-47.703125
 20
176.2091390599432
 30
0.0
 11
-31.703125
 21
176.2091390599432
 31
0.0
  0
LINE
  5
6F
  8
0
  6
CONTINUOUS
 62
     7
 10
-47.703125
 20
184.2091390599432
 30
0.0
 11
-47.703125
 21
176.2091390599432
 31
0.0
  0
LINE
  5
70
  8
0
  6
CONTINUOUS
 62
     7
 10
-31.703125
 20
184.2091390599432
 30
0.0
 11
-31.703125
 21
176.2091390599432
 31
0.0
  0
LINE
  5
74
  8
0
  6
CONTINUOUS
 62
     7
 10
-20.703125
 20
-37.375
 30
0.0
 11
-20.703125
 21
-48.875
 31
0.0
  0
LINE
  5
75
  8
0
  6
CONTINUOUS
 62
     7
 10
-10.503125000000001
 20
-37.375
 30
0.0
 11
-10.503125000000001
 21
-48.875
 31
0.0
  0
LINE
  5
76
  8
0
  6
CONTINUOUS
 62
     7
 10
-20.703125
 20
-48.875
 30
0.0
 11
-10.503125000000001
 21
-48.875
 31
0.0
  0
LINE
  5
77
  8
0
  6
CONTINUOUS
 62
     7
 10
-9.5031251999999995
 20
-37.375
 30
0.0
 11
-9.5031251999999995
 21
-48.875
 31
0.0
  0
LINE
  5
78
  8
0
  6
CONTINUOUS
 62
     7
 10
-20.703125
 20
-49.875
 30
0.0
 11
-9.5031328000000013
 21
-49.875
 31
0.0
  0
LINE
  5
79
  8
0
  6
CONTINUOUS
 62
     7
 10
-21.703125
 20
-37.375
 30
0.0
 11
-21.703125
 21
-54.375
 31
0.0
  0
LINE
  5
7A
  8
0
  6
CONTINUOUS
 62
     7
 10
-9.5031251999999995
 20
-37.375
 30
0.0
 11
12.896881
 21
-37.375
 31
0.0
  0
LINE
  5
7B
  8
0
  6
CONTINUOUS
 62
     7
 10
12.896881
 20
-37.375
 30
0.0
 11
12.896881
 21
-54.375
 31
0.0
  0
LINE
  5
7C
  8
0
  6
CONTINUOUS
 62
     7
 10
-22.703125
 20
-37.375
 30
0.0
 11
-22.703125
 21
-54.375
 31
0.0
  0
LINE
  5
7D
  8
0
  6
CONTINUOUS
 62
     7
 10
13.896881
 20
-37.375
 30
0.0
 11
13.896881
 21
-54.375
 31
0.0
  0
LINE
  5
7E
  8
0
  6
CENTER
 62
     7
 10
-3.5031249999999989
 20
-33.875
 30
0.0
 11
-3.5031249999999989
 21
-42.374999999999993
 31
0.0
  0
LINE
  5
7F
  8
0
  6
CENTER
 62
     7
 10
6.896881099999999
 20
-33.875
 30
0.0
 11
6.896881099999999
 21
-42.374999999999993
 31
0.0
  0
LINE
  5
80
  8
0
  6
CONTINUOUS
 62
     7
 10
-22.703125
 20
-54.375
 30
0.0
 11
-21.703125
 21
-54.375
 31
0.0
  0
LINE
  5
81
  8
0
  6
PHANTOM
 62
     7
 10
-9.5031251999999995
 20
-38.375
 30
0.0
 11
12.896881
 21
-38.375
 31
0.0
  0
LINE
  5
82
  8
0
  6
CONTINUOUS
 62
     7
 10
12.896881
 20
-54.375
 30
0.0
 11
13.896881
 21
-54.375
 31
0.0
  0
LINE
  5
83
  8
0
  6
CONTINUOUS
 62
     7
 10
-11.003125000000001
 20
-47.875
 30
0.0
 11
-18.003124
 21
-47.875
 31
0.0
  0
LINE
  5
84
  8
0
  6
CONTINUOUS
 62
     7
 10
-11.003125000000001
 20
-47.875
 30
0.0
 11
-11.003125000000001
 21
-48.875
 31
0.0
  0
LINE
  5
85
  8
0
  6
CONTINUOUS
 62
     7
 10
-18.003124
 20
-47.875
 30
0.0
 11
-18.003124
 21
-48.875
 31
0.0
  0
LINE
  5
86
  8
0
  6
CONTINUOUS
 62
     7
 10
-13.003125000000001
 20
-53.375
 30
0.0
 11
-16.003123999999989
 21
-53.375
 31
0.0
  0
LINE
  5
87
  8
0
  6
CONTINUOUS
 62
     7
 10
-9.5031328000000013
 20
-50.174999
 30
0.0
 11
-19.503132000000001
 21
-50.174999
 31
0.0
  0
LINE
  5
88
  8
0
  6
CONTINUOUS
 62
     7
 10
-19.503132000000001
 20
-49.875
 30
0.0
 11
-19.503132000000001
 21
-50.174999
 31
0.0
  0
LINE
  5
89
  8
0
  6
CONTINUOUS
 62
     7
 10
-16.503133999999989
 20
-51.275005
 30
0.0
 11
-18.408386
 21
-50.175007000000001
 31
0.0
  0
LINE
  5
8A
  8
0
  6
CONTINUOUS
 62
     7
 10
-12.503125000000001
 20
-51.275002000000001
 30
0.0
 11
-16.503123999999989
 21
-51.275002000000001
 31
0.0
  0
LINE
  5
8B
  8
0
  6
CONTINUOUS
 62
     7
 10
-10.597878
 20
-50.174995000000003
 30
0.0
 11
-12.503132000000001
 21
-51.274994
 31
0.0
  0
LINE
  5
8C
  8
0
  6
CONTINUOUS
 62
     7
 10
-9.5031328000000013
 20
-49.875
 30
0.0
 11
-9.5031328000000013
 21
-50.174999
 31
0.0
  0
LINE
  5
8D
  8
0
  6
CONTINUOUS
 62
     7
 10
-10.803125
 20
-36.875
 30
0.0
 11
-10.803125
 21
-45.875
 31
0.0
  0
LINE
  5
8E
  8
0
  6
CONTINUOUS
 62
     7
 10
-11.303125
 20
-36.375
 30
0.0
 11
-14.210232
 21
-36.375
 31
0.0
  0
LINE
  5
8F
  8
0
  6
CONTINUOUS
 62
     7
 10
-20.403126
 20
-41.375
 30
0.0
 11
-20.403126
 21
-45.875
 31
0.0
  0
LINE
  5
90
  8
0
  6
CONTINUOUS
 62
     7
 10
-14.796018
 20
-36.375
 30
0.0
 11
-18.903126
 21
-36.375
 31
0.0
  0
LINE
  5
91
  8
0
  6
CONTINUOUS
 62
     7
 10
-14.503124
 20
-36.667891999999988
 30
0.0
 11
-14.796018
 21
-36.375
 31
0.0
  0
LINE
  5
92
  8
0
  6
CONTINUOUS
 62
     7
 10
-14.21023299999999
 20
-36.375
 30
0.0
 11
-14.503124
 21
-36.667891999999988
 31
0.0
  0
LINE
  5
93
  8
0
  6
CENTER
 62
     7
 10
-14.503125000000001
 20
-33.875
 30
0.0
 11
-14.503125000000001
 21
-55.875
 31
0.0
  0
LINE
  5
94
  8
0
  6
CONTINUOUS
 62
     7
 10
-19.403126
 20
-36.875
 30
0.0
 11
-19.403126
 21
-38.875
 31
0.0
  0
LINE
  5
95
  8
0
  6
CONTINUOUS
 62
     7
 10
-9.5031251999999995
 20
-36.375
 30
0.0
 11
12.896881
 21
-36.375
 31
0.0
  0
LINE
  5
96
  8
0
  6
CONTINUOUS
 62
     7
 10
-19.603124999999991
 20
-29.875
 30
0.0
 11
-19.603124999999991
 21
-39.025002000000001
 31
0.0
  0
LINE
  5
97
  8
0
  6
CONTINUOUS
 62
     7
 10
-18.403126
 20
-37.875
 30
0.0
 11
-17.203125
 21
-37.875
 31
0.0
  0
LINE
  5
98
  8
0
  6
CONTINUOUS
 62
     7
 10
-18.303125000000001
 20
-37.974997999999999
 30
0.0
 11
-17.303122999999999
 21
-37.974997999999999
 31
0.0
  0
LINE
  5
99
  8
0
  6
CONTINUOUS
 62
     7
 10
-18.403126
 20
-37.875
 30
0.0
 11
-18.403126
 21
-38.875
 31
0.0
  0
LINE
  5
9A
  8
0
  6
CONTINUOUS
 62
     7
 10
-18.303125000000001
 20
-37.974997999999999
 30
0.0
 11
-18.303125000000001
 21
-41.275002000000001
 31
0.0
  0
LINE
  5
9B
  8
0
  6
CONTINUOUS
 62
     7
 10
-19.403126
 20
-38.875
 30
0.0
 11
-18.403126
 21
-38.875
 31
0.0
  0
LINE
  5
9C
  8
0
  6
CONTINUOUS
 62
     7
 10
-19.603124999999991
 20
-39.025002000000001
 30
0.0
 11
-18.303125000000001
 21
-39.025002000000001
 31
0.0
  0
LINE
  5
9D
  8
0
  6
CONTINUOUS
 62
     7
 10
-18.303125000000001
 20
-40.224997999999999
 30
0.0
 11
-19.603124999999991
 21
-40.224997999999999
 31
0.0
  0
LINE
  5
9E
  8
0
  6
CONTINUOUS
 62
     7
 10
-19.403126
 20
-40.375
 30
0.0
 11
-18.403126
 21
-40.375
 31
0.0
  0
LINE
  5
9F
  8
0
  6
CONTINUOUS
 62
     7
 10
-18.403126
 20
-40.375
 30
0.0
 11
-18.403126
 21
-41.375
 31
0.0
  0
LINE
  5
A0
  8
0
  6
CONTINUOUS
 62
     7
 10
-18.403126
 20
-41.375
 30
0.0
 11
-17.203125
 21
-41.375
 31
0.0
  0
LINE
  5
A1
  8
0
  6
CONTINUOUS
 62
     7
 10
-18.303125000000001
 20
-41.275002000000001
 30
0.0
 11
-17.303122999999999
 21
-41.275002000000001
 31
0.0
  0
LINE
  5
A2
  8
0
  6
CONTINUOUS
 62
     7
 10
-17.203125
 20
-37.875
 30
0.0
 11
-17.203125
 21
-41.375
 31
0.0
  0
LINE
  5
A3
  8
0
  6
CONTINUOUS
 62
     7
 10
-17.303122999999999
 20
-37.974997999999999
 30
0.0
 11
-17.303122999999999
 21
-41.275002000000001
 31
0.0
  0
LINE
  5
A4
  8
0
  6
CONTINUOUS
 62
     7
 10
-11.803125
 20
-46.875
 30
0.0
 11
-12.286500999999999
 21
-46.875
 31
0.0
  0
LINE
  5
A5
  8
0
  6
CONTINUOUS
 62
     7
 10
-19.403126
 20
-46.875
 30
0.0
 11
-18.919750000000001
 21
-46.875
 31
0.0
  0
LINE
  5
A6
  8
0
  6
CONTINUOUS
 62
     7
 10
-17.003124
 20
-46.075001
 30
0.0
 11
-17.003124
 21
-47.875
 31
0.0
  0
LINE
  5
A7
  8
0
  6
CONTINUOUS
 62
     7
 10
-16.503123999999989
 20
-45.956665000000001
 30
0.0
 11
-16.503123999999989
 21
-47.875
 31
0.0
  0
LINE
  5
A8
  8
0
  6
CONTINUOUS
 62
     7
 10
-12.503125000000001
 20
-46.851256999999997
 30
0.0
 11
-12.503125000000001
 21
-47.875
 31
0.0
  0
LINE
  5
A9
  8
0
  6
CONTINUOUS
 62
     7
 10
-12.003125000000001
 20
-46.875
 30
0.0
 11
-12.003125000000001
 21
-47.875
 31
0.0
  0
LINE
  5
AA
  8
0
  6
CONTINUOUS
 62
     7
 10
-16.003123999999989
 20
-51.275002000000001
 30
0.0
 11
-16.003123999999989
 21
-53.375
 31
0.0
  0
LINE
  5
AB
  8
0
  6
CONTINUOUS
 62
     7
 10
-13.003125000000001
 20
-51.275002000000001
 30
0.0
 11
-13.003125000000001
 21
-53.375
 31
0.0
  0
LINE
  5
E8
  8
0
  6
CONTINUOUS
 62
     7
 10
-21.403124999999982
 20
170.2091390599432
 30
0.0
 11
-21.403124999999982
 21
91.209139059943254
 31
0.0
  0
LINE
  5
E9
  8
0
  6
CENTER
 62
     7
 10
-15.50312500000001
 20
170.2091390599432
 30
0.0
 11
-15.50312500000001
 21
91.209139059943254
 31
0.0
  0
LINE
  5
EA
  8
0
  6
CENTER
 62
     7
 10
-23.603114999999999
 20
130.2091390599432
 30
0.0
 11
-7.4031249999999877
 21
130.2091390599432
 31
0.0
  0
LINE
  5
EB
  8
0
  6
CENTER
 62
     7
 10
-23.003125000000011
 20
110.2091390599432
 30
0.0
 11
-8.0031250000000114
 21
110.2091390599432
 31
0.0
  0
LINE
  5
EC
  8
0
  6
CONTINUOUS
 62
     7
 10
-14.24739499999998
 20
110.9341370599432
 30
0.0
 11
-15.50312500000001
 21
111.65913605994319
 31
0.0
  0
LINE
  5
ED
  8
0
  6
CONTINUOUS
 62
     7
 10
-15.50312500000001
 20
111.65913605994319
 30
0.0
 11
-16.758855000000011
 21
110.9341370599432
 31
0.0
  0
LINE
  5
EE
  8
0
  6
CONTINUOUS
 62
     7
 10
-16.758864999999979
 20
109.4841410599432
 30
0.0
 11
-16.758864999999979
 21
110.9341370599432
 31
0.0
  0
LINE
  5
EF
  8
0
  6
CONTINUOUS
 62
     7
 10
-15.50312500000001
 20
108.7591420599432
 30
0.0
 11
-16.758864999999979
 21
109.4841410599432
 31
0.0
  0
LINE
  5
F0
  8
0
  6
CONTINUOUS
 62
     7
 10
-14.24739499999998
 20
109.4841330599432
 30
0.0
 11
-15.50311499999998
 21
108.75913405994319
 31
0.0
  0
LINE
  5
F1
  8
0
  6
CONTINUOUS
 62
     7
 10
-14.24739499999998
 20
110.9341370599432
 30
0.0
 11
-14.24739499999998
 21
109.4841410599432
 31
0.0
  0
LINE
  5
F2
  8
0
  6
CENTER
 62
     7
 10
-23.603114999999999
 20
70.209139059943254
 30
0.0
 11
-7.4031249999999877
 21
70.209139059943254
 31
0.0
  0
LINE
  5
F3
  8
0
  6
CENTER
 62
     7
 10
-23.003125000000011
 20
50.209139059943247
 30
0.0
 11
-8.0031250000000114
 21
50.209139059943247
 31
0.0
  0
LINE
  5
F4
  8
0
  6
CONTINUOUS
 62
     7
 10
-14.24739499999998
 20
50.934139059943249
 30
0.0
 11
-15.50312500000001
 21
51.659138059943253
 31
0.0
  0
LINE
  5
F5
  8
0
  6
CONTINUOUS
 62
     7
 10
-15.50312500000001
 20
51.659138059943253
 30
0.0
 11
-16.758864999999979
 21
50.934139059943249
 31
0.0
  0
LINE
  5
F6
  8
0
  6
CONTINUOUS
 62
     7
 10
-16.758864999999979
 20
49.484139059943253
 30
0.0
 11
-16.758864999999979
 21
50.934139059943249
 31
0.0
  0
LINE
  5
F7
  8
0
  6
CONTINUOUS
 62
     7
 10
-15.50312500000001
 20
48.759142059943258
 30
0.0
 11
-16.758864999999979
 21
49.484141059943248
 31
0.0
  0
LINE
  5
F8
  8
0
  6
CONTINUOUS
 62
     7
 10
-14.24739499999998
 20
49.484139059943253
 30
0.0
 11
-15.50312500000001
 21
48.759140059943249
 31
0.0
  0
LINE
  5
F9
  8
0
  6
CONTINUOUS
 62
     7
 10
-14.24739499999998
 20
50.934139059943249
 30
0.0
 11
-14.24739499999998
 21
49.484139059943253
 31
0.0
  0
LINE
  5
FB
  8
0
  6
CONTINUOUS
 62
     7
 10
-11.50312500000001
 20
89.209139059943254
 30
0.0
 11
-11.50312500000001
 21
10.209139059943251
 31
0.0
  0
LINE
  5
FC
  8
0
  6
CENTER
 62
     7
 10
-15.50312500000001
 20
89.209139059943254
 30
0.0
 11
-15.50312500000001
 21
10.209139059943251
 31
0.0
  0
LINE
  5
FD
  8
0
  6
CONTINUOUS
 62
     7
 10
-21.403124999999982
 20
89.209139059943254
 30
0.0
 11
-21.403124999999982
 21
10.209139059943251
 31
0.0
  0
LINE
  5
FE
  8
0
  6
CONTINUOUS
 62
     7
 10
-21.703125
 20
89.209139059943254
 30
0.0
 11
-21.703125
 21
10.209139059943251
 31
0.0
  0
LINE
  5
100
  8
0
  6
CONTINUOUS
 62
     7
 10
-23.703125
 20
89.209139059943254
 30
0.0
 11
-23.703125
 21
10.209139059943251
 31
0.0
  0
LINE
  5
101
  8
0
  6
CENTER
 62
     7
 10
5.8968849999999966
 20
89.209139059943254
 30
0.0
 11
5.8968849999999966
 21
10.209139059943251
 31
0.0
  0
LINE
  5
103
  8
0
  6
CONTINUOUS
 62
     7
 10
12.89688499999999
 20
89.209139059943254
 30
0.0
 11
12.89688499999999
 21
10.209139059943251
 31
0.0
  0
LINE
  5
104
  8
0
  6
DASHED
 62
     7
 10
-28.703125
 20
89.209139059943254
 30
0.0
 11
17.89688499999999
 21
89.209139059943254
 31
0.0
  0
LINE
  5
105
  8
0
  6
DASHED
 62
     7
 10
-28.703125
 20
91.209139059943254
 30
0.0
 11
17.89688499999999
 21
91.209139059943254
 31
0.0
  0
LINE
  5
106
  8
0
  6
CENTER
 62
     7
 10
-4.5031250000000114
 20
89.209139059943254
 30
0.0
 11
-4.5031250000000114
 21
10.209139059943251
 31
0.0
  0
LINE
  5
111
  8
0
  6
CONTINUOUS
 62
     7
 10
-20.582920000000001
 20
-39.025002000000001
 30
0.0
 11
-20.582920000000001
 21
-39.425002999999997
 31
0.0
  0
LINE
  5
112
  8
0
  6
CONTINUOUS
 62
     7
 10
-11.80313499999999
 20
89.209139059943254
 30
0.0
 11
-11.80313499999999
 21
10.209139059943251
 31
0.0
  0
LINE
  5
113
  8
0
  6
CONTINUOUS
 62
     7
 10
-11.80313499999999
 20
170.2091390599432
 30
0.0
 11
-11.80313499999999
 21
91.209139059943254
 31
0.0
  0
LINE
  5
16A
  8
0
  6
CONTINUOUS
 62
     7
 10
-20.582920000000001
 20
-39.024997999999989
 30
0.0
 11
-19.603127000000001
 21
-29.875001999999999
 31
0.0
  0
LINE
  5
172
  8
0
  6
CONTINUOUS
 62
     7
 10
-20.603114999999999
 20
89.209139059943254
 30
0.0
 11
-20.603114999999999
 21
10.209139059943251
 31
0.0
  0
LINE
  5
173
  8
0
  6
CONTINUOUS
 62
     7
 10
-20.603114999999999
 20
170.2091390599432
 30
0.0
 11
-20.603114999999999
 21
91.209139059943254
 31
0.0
  0
CIRCLE
  5
17C
  8
0
  6
CONTINUOUS
 62
     7
 10
-4.5031250000000114
 20
160.2091390599432
 30
0.0
 40
3.5
  0
CIRCLE
  5
17D
  8
0
  6
CONTINUOUS
 62
     7
 10
-4.5031250000000114
 20
20.209139059943251
 30
0.0
 40
3.5
  0
CIRCLE
  5
17E
  8
0
  6
CONTINUOUS
 62
     7
 10
5.8968849999999966
 20
155.2091390599432
 30
0.0
 40
3.5
  0
CIRCLE
  5
17F
  8
0
  6
CONTINUOUS
 62
     7
 10
-4.5031250000000114
 20
150.2091390599432
 30
0.0
 40
3.5
  0
CIRCLE
  5
180
  8
0
  6
CONTINUOUS
 62
     7
 10
5.8968849999999966
 20
145.2091390599432
 30
0.0
 40
3.5
  0
CIRCLE
  5
181
  8
0
  6
CONTINUOUS
 62
     7
 10
-4.5031250000000114
 20
140.2091390599432
 30
0.0
 40
3.5
  0
CIRCLE
  5
182
  8
0
  6
CONTINUOUS
 62
     7
 10
5.8968849999999966
 20
135.2091390599432
 30
0.0
 40
3.5
  0
CIRCLE
  5
183
  8
0
  6
CONTINUOUS
 62
     7
 10
-4.5031250000000114
 20
130.2091390599432
 30
0.0
 40
3.5
  0
CIRCLE
  5
184
  8
0
  6
CONTINUOUS
 62
     7
 10
5.8968849999999966
 20
125.2091390599432
 30
0.0
 40
3.5
  0
CIRCLE
  5
185
  8
0
  6
CONTINUOUS
 62
     7
 10
-4.5031250000000114
 20
120.2091390599432
 30
0.0
 40
3.5
  0
CIRCLE
  5
186
  8
0
  6
CONTINUOUS
 62
     7
 10
5.8968849999999966
 20
115.2091390599432
 30
0.0
 40
3.5
  0
CIRCLE
  5
187
  8
0
  6
CONTINUOUS
 62
     7
 10
-4.5031250000000114
 20
110.2091390599432
 30
0.0
 40
3.5
  0
CIRCLE
  5
188
  8
0
  6
CONTINUOUS
 62
     7
 10
5.8968849999999966
 20
105.2091390599432
 30
0.0
 40
3.5
  0
CIRCLE
  5
189
  8
0
  6
CONTINUOUS
 62
     7
 10
-4.5031250000000114
 20
100.2091390599432
 30
0.0
 40
3.5
  0
CIRCLE
  5
18A
  8
0
  6
CONTINUOUS
 62
     7
 10
5.8968849999999966
 20
95.209139059943254
 30
0.0
 40
3.5
  0
ARC
  5
18B
  8
0
  6
CONTINUOUS
 62
     7
 10
-4.5031250000000114
 20
90.209139059943254
 30
0.0
 40
3.5
 50
16.60155
 51
163.39844999999991
  0
CIRCLE
  5
18C
  8
0
  6
CONTINUOUS
 62
     7
 10
5.8968849999999966
 20
85.209139059943254
 30
0.0
 40
3.5
  0
CIRCLE
  5
18D
  8
0
  6
CONTINUOUS
 62
     7
 10
-4.5031250000000114
 20
80.209139059943254
 30
0.0
 40
3.5
  0
CIRCLE
  5
18E
  8
0
  6
CONTINUOUS
 62
     7
 10
5.8968849999999966
 20
75.209139059943254
 30
0.0
 40
3.5
  0
CIRCLE
  5
18F
  8
0
  6
CONTINUOUS
 62
     7
 10
-4.5031250000000114
 20
70.209139059943254
 30
0.0
 40
3.5
  0
CIRCLE
  5
190
  8
0
  6
CONTINUOUS
 62
     7
 10
5.8968849999999966
 20
65.209139059943254
 30
0.0
 40
3.5
  0
CIRCLE
  5
191
  8
0
  6
CONTINUOUS
 62
     7
 10
-4.5031250000000114
 20
60.209139059943247
 30
0.0
 40
3.5
  0
CIRCLE
  5
192
  8
0
  6
CONTINUOUS
 62
     7
 10
5.8968849999999966
 20
55.209139059943247
 30
0.0
 40
3.5
  0
CIRCLE
  5
193
  8
0
  6
CONTINUOUS
 62
     7
 10
-4.5031250000000114
 20
50.209139059943247
 30
0.0
 40
3.5
  0
CIRCLE
  5
194
  8
0
  6
CONTINUOUS
 62
     7
 10
5.8968849999999966
 20
45.209139059943247
 30
0.0
 40
3.5
  0
CIRCLE
  5
195
  8
0
  6
CONTINUOUS
 62
     7
 10
-4.5031250000000114
 20
40.209139059943247
 30
0.0
 40
3.5
  0
CIRCLE
  5
196
  8
0
  6
CONTINUOUS
 62
     7
 10
5.8968849999999966
 20
35.209139059943247
 30
0.0
 40
3.5
  0
CIRCLE
  5
197
  8
0
  6
CONTINUOUS
 62
     7
 10
-4.5031250000000114
 20
30.209139059943251
 30
0.0
 40
3.5
  0
CIRCLE
  5
198
  8
0
  6
CONTINUOUS
 62
     7
 10
5.8968849999999966
 20
25.209139059943251
 30
0.0
 40
3.5
  0
ARC
  5
199
  8
0
  6
CONTINUOUS
 62
     7
 10
-9.5031251999999995
 20
-37.375
 30
0.0
 40
1.0
 50
90.000003000000007
 51
180.00001
  0
ARC
  5
19A
  8
0
  6
CONTINUOUS
 62
     7
 10
-10.503125000000001
 20
-48.875
 30
0.0
 40
1.0
 50
270.0
 51
0.0
  0
ARC
  5
19B
  8
0
  6
CONTINUOUS
 62
     7
 10
-20.703125
 20
-48.875
 30
0.0
 40
1.0
 50
179.99998999999991
 51
270.0
  0
ARC
  5
19C
  8
0
  6
CONTINUOUS
 62
     7
 10
-21.703125
 20
-37.375
 30
0.0
 40
1.0
 50
0.0
 51
180.00001
  0
ARC
  5
19D
  8
0
  6
CONTINUOUS
 62
     7
 10
12.896881
 20
-37.375
 30
0.0
 40
1.0
 50
0.0
 51
90.000003000000007
  0
ARC
  5
19E
  8
0
  6
CONTINUOUS
 62
     7
 10
-11.303125
 20
-36.875
 30
0.0
 40
0.5
 50
359.99998999999991
 51
89.999995999999996
  0
ARC
  5
19F
  8
0
  6
CONTINUOUS
 62
     7
 10
-18.903126
 20
-36.875
 30
0.0
 40
0.5
 50
89.999995999999996
 51
180.00001
  0
ARC
  5
1A0
  8
0
  6
CONTINUOUS
 62
     7
 10
-19.403126
 20
-41.375
 30
0.0
 40
1.0
 50
89.999995999999996
 51
180.00001
  0
ARC
  5
1A1
  8
0
  6
CONTINUOUS
 62
     7
 10
-19.403126
 20
-45.875
 30
0.0
 40
1.0
 50
179.99998999999991
 51
270.0
  0
ARC
  5
1A2
  8
0
  6
CONTINUOUS
 62
     7
 10
-11.803125
 20
-45.875
 30
0.0
 40
1.0
 50
270.0
 51
0.0
  0
ARC
  5
1A3
  8
0
  6
CONTINUOUS
 62
     7
 10
-19.603124999999991
 20
-39.224997999999999
 30
0.0
 40
1.0
 50
179.99998999999991
 51
270.0
  0
CIRCLE
  5
1AF
  8
0
  6
CONTINUOUS
 62
     7
 10
-15.50312500000001
 20
110.2091390599432
 30
0.0
 40
2.5
  0
CIRCLE
  5
1B0
  8
0
  6
CONTINUOUS
 62
     7
 10
-15.50312500000001
 20
110.2091390599432
 30
0.0
 40
2.0
  0
CIRCLE
  5
1B4
  8
0
  6
CONTINUOUS
 62
     7
 10
-15.50312500000001
 20
50.209139059943247
 30
0.0
 40
2.5
  0
CIRCLE
  5
1B5
  8
0
  6
CONTINUOUS
 62
     7
 10
-15.50312500000001
 20
50.209139059943247
 30
0.0
 40
2.0
  0
ARC
  5
1B7
  8
0
  6
CONTINUOUS
 62
     7
 10
-4.5031250000000114
 20
90.209139059943254
 30
0.0
 40
3.5
 50
196.60155
 51
343.39845000000003
  0
ARC
  5
1C8
  8
0
  6
CONTINUOUS
 62
     7
 10
-15.603126
 20
-50.875
 30
0.0
 40
5.0
 50
56.442689000000001
 51
123.5573199999999
  0
ARC
  5
1C9
  8
0
  6
CONTINUOUS
 62
     7
 10
-18.919750000000001
 20
-45.875
 30
0.0
 40
1.0
 50
270.0
 51
303.55730999999997
  0
ARC
  5
1CA
  8
0
  6
CONTINUOUS
 62
     7
 10
-12.286500999999999
 20
-45.875
 30
0.0
 40
1.0
 50
236.44267999999991
 51
270.0
  0
TEXT
  5
1D2
  8
0
  6
CONTINUOUS
 62
     7
 10
-45.645984999999989
 20
-1.3908609400567471
 30
0.0
 40
3.2000000000000002
  1
下　　部
 41
0.85124966
  0
TEXT
  5
1D3
  8
0
  6
CONTINUOUS
 62
     7
 10
-45.645984999999989
 20
178.6091390599432
 30
0.0
 40
3.2000000000000002
  1
上　　部
 41
0.85124966
  0
TEXT
  5
213
  8
0
  6
CONTINUOUS
 62
     7
 10
27.515825
 20
141.99484905994319
 30
0.0
 40
2.0
  1
5
 50
90.000003000000007
 41
1.071429
  0
LINE
  5
214
  8
0
  6
CONTINUOUS
 62
     7
 10
28.015825
 20
140.2091390599432
 30
0.0
 11
28.015825
 21
142.7091390599432
 31
0.0
  0
CIRCLE
  5
215
  8
0
  6
CONTINUOUS
 62
     7
 10
28.015825
 20
140.2091390599432
 30
0.0
 40
0.3
  0
LINE
  5
216
  8
0
  6
CONTINUOUS
 62
     7
 10
28.015825
 20
145.2091390599432
 30
0.0
 11
28.015825
 21
142.7091390599432
 31
0.0
  0
CIRCLE
  5
217
  8
0
  6
CONTINUOUS
 62
     7
 10
28.015825
 20
145.2091390599432
 30
0.0
 40
0.3
  0
LINE
  5
218
  8
0
  6
CONTINUOUS
 62
     7
 10
0.796875
 20
140.2091390599432
 30
0.0
 11
30.301814999999991
 21
140.2091390599432
 31
0.0
  0
TEXT
  5
219
  8
0
  6
CONTINUOUS
 62
     7
 10
27.515825
 20
136.99484905994319
 30
0.0
 40
2.0
  1
5
 50
90.000003000000007
 41
1.071429
  0
LINE
  5
21A
  8
0
  6
CONTINUOUS
 62
     7
 10
28.015825
 20
140.2091390599432
 30
0.0
 11
28.015825
 21
137.7091390599432
 31
0.0
  0
CIRCLE
  5
21B
  8
0
  6
CONTINUOUS
 62
     7
 10
28.015825
 20
140.2091390599432
 30
0.0
 40
0.3
  0
LINE
  5
21C
  8
0
  6
CONTINUOUS
 62
     7
 10
28.015825
 20
135.2091390599432
 30
0.0
 11
28.015825
 21
137.7091390599432
 31
0.0
  0
CIRCLE
  5
21D
  8
0
  6
CONTINUOUS
 62
     7
 10
28.015825
 20
135.2091390599432
 30
0.0
 40
0.3
  0
LINE
  5
21E
  8
0
  6
CONTINUOUS
 62
     7
 10
11.39688499999999
 20
135.2091390599432
 30
0.0
 11
30.301814999999991
 21
135.2091390599432
 31
0.0
  0
TEXT
  5
21F
  8
0
  6
CONTINUOUS
 62
     7
 10
27.515825
 20
156.99484905994319
 30
0.0
 40
2.0
  1
5
 50
90.000003000000007
 41
1.071429
  0
LINE
  5
220
  8
0
  6
CONTINUOUS
 62
     7
 10
28.015825
 20
160.2091390599432
 30
0.0
 11
28.015825
 21
157.7091390599432
 31
0.0
  0
CIRCLE
  5
221
  8
0
  6
CONTINUOUS
 62
     7
 10
28.015825
 20
160.2091390599432
 30
0.0
 40
0.3
  0
LINE
  5
222
  8
0
  6
CONTINUOUS
 62
     7
 10
28.015825
 20
155.2091390599432
 30
0.0
 11
28.015825
 21
157.7091390599432
 31
0.0
  0
CIRCLE
  5
223
  8
0
  6
CONTINUOUS
 62
     7
 10
28.015825
 20
155.2091390599432
 30
0.0
 40
0.3
  0
LINE
  5
224
  8
0
  6
CONTINUOUS
 62
     7
 10
11.39688499999999
 20
155.2091390599432
 30
0.0
 11
30.301814999999991
 21
155.2091390599432
 31
0.0
  0
TEXT
  5
225
  8
0
  6
CONTINUOUS
 62
     7
 10
27.515825
 20
151.99484905994319
 30
0.0
 40
2.0
  1
5
 50
90.000003000000007
 41
1.071429
  0
LINE
  5
226
  8
0
  6
CONTINUOUS
 62
     7
 10
28.015825
 20
150.2091390599432
 30
0.0
 11
28.015825
 21
152.7091390599432
 31
0.0
  0
CIRCLE
  5
227
  8
0
  6
CONTINUOUS
 62
     7
 10
28.015825
 20
150.2091390599432
 30
0.0
 40
0.3
  0
LINE
  5
228
  8
0
  6
CONTINUOUS
 62
     7
 10
28.015825
 20
155.2091390599432
 30
0.0
 11
28.015825
 21
152.7091390599432
 31
0.0
  0
CIRCLE
  5
229
  8
0
  6
CONTINUOUS
 62
     7
 10
28.015825
 20
155.2091390599432
 30
0.0
 40
0.3
  0
LINE
  5
22A
  8
0
  6
CONTINUOUS
 62
     7
 10
0.796875
 20
150.2091390599432
 30
0.0
 11
30.301814999999991
 21
150.2091390599432
 31
0.0
  0
TEXT
  5
22B
  8
0
  6
CONTINUOUS
 62
     7
 10
27.515825
 20
146.99484905994319
 30
0.0
 40
2.0
  1
5
 50
90.000003000000007
 41
1.071429
  0
LINE
  5
22C
  8
0
  6
CONTINUOUS
 62
     7
 10
28.015825
 20
150.2091390599432
 30
0.0
 11
28.015825
 21
147.7091390599432
 31
0.0
  0
CIRCLE
  5
22D
  8
0
  6
CONTINUOUS
 62
     7
 10
28.015825
 20
150.2091390599432
 30
0.0
 40
0.3
  0
LINE
  5
22E
  8
0
  6
CONTINUOUS
 62
     7
 10
28.015825
 20
145.2091390599432
 30
0.0
 11
28.015825
 21
147.7091390599432
 31
0.0
  0
CIRCLE
  5
22F
  8
0
  6
CONTINUOUS
 62
     7
 10
28.015825
 20
145.2091390599432
 30
0.0
 40
0.3
  0
LINE
  5
230
  8
0
  6
CONTINUOUS
 62
     7
 10
11.39688499999999
 20
145.2091390599432
 30
0.0
 11
30.301814999999991
 21
145.2091390599432
 31
0.0
  0
TEXT
  5
231
  8
0
  6
CONTINUOUS
 62
     7
 10
-12.0
 20
56.791044999999997
 30
0.0
 40
3.2000000000000002
  1
  
 41
1.2857062999999991
 51
90.0
  0
LINE
  5
238
  8
0
  6
CONTINUOUS
 62
     7
 10
18.433634999999999
 20
183.87127905994319
 30
0.0
 11
26.971474999999991
 21
183.87127905994319
 31
0.0
  0
LINE
  5
239
  8
0
  6
CONTINUOUS
 62
     7
 10
-2.067074999999988
 20
162.72224905994321
 30
0.0
 11
18.433634999999999
 21
183.87127905994319
 31
0.0
  0
LINE
  5
23A
  8
0
  6
CONTINUOUS
 62
     7
 10
-6.9391949999999829
 20
157.69604905994319
 30
0.0
 11
-2.067074999999988
 21
162.72224905994321
 31
0.0
  0
CIRCLE
  5
23B
  8
0
  6
CONTINUOUS
 62
     7
 10
-6.9391949999999829
 20
157.69604905994319
 30
0.0
 40
0.3
  0
LINE
  5
23C
  8
0
  6
CONTINUOUS
 62
     7
 10
-2.067074999999988
 20
162.72224905994321
 30
0.0
 11
-6.9391949999999829
 21
157.69604905994319
 31
0.0
  0
CIRCLE
  5
23D
  8
0
  6
CONTINUOUS
 62
     7
 10
-2.067074999999988
 20
162.72224905994321
 30
0.0
 40
0.3
  0
TEXT
  5
23E
  8
0
  6
CONTINUOUS
 62
     7
 10
21.542905000000001
 20
184.37127905994319
 30
0.0
 40
2.0
  1
%%C７孔
 41
0.90981655
  0
TEXT
  5
23F
  8
0
  6
CONTINUOUS
 62
     7
 10
27.515825
 20
163.49484905994319
 30
0.0
 40
2.0
  1
10
 50
90.000003000000007
 41
1.4025976999999989
  0
LINE
  5
240
  8
0
  6
CONTINUOUS
 62
     7
 10
28.015825
 20
160.2091390599432
 30
0.0
 11
28.015825
 21
165.2091390599432
 31
0.0
  0
CIRCLE
  5
241
  8
0
  6
CONTINUOUS
 62
     7
 10
28.015825
 20
160.2091390599432
 30
0.0
 40
0.3
  0
LINE
  5
242
  8
0
  6
CONTINUOUS
 62
     7
 10
28.015825
 20
170.2091390599432
 30
0.0
 11
28.015825
 21
165.2091390599432
 31
0.0
  0
CIRCLE
  5
243
  8
0
  6
CONTINUOUS
 62
     7
 10
28.015825
 20
170.2091390599432
 30
0.0
 40
0.3
  0
LINE
  5
244
  8
0
  6
CONTINUOUS
 62
     7
 10
0.796875
 20
160.2091390599432
 30
0.0
 11
30.30182499999999
 21
160.2091390599432
 31
0.0
  0
TEXT
  5
245
  8
0
  6
CONTINUOUS
 62
     7
 10
27.515825
 20
13.49485295994325
 30
0.0
 40
2.0
  1
10
 50
90.000003000000007
 41
1.4025976999999989
  0
LINE
  5
246
  8
0
  6
CONTINUOUS
 62
     7
 10
28.015825
 20
20.209139059943251
 30
0.0
 11
28.015825
 21
15.209139059943251
 31
0.0
  0
CIRCLE
  5
247
  8
0
  6
CONTINUOUS
 62
     7
 10
28.015825
 20
20.209139059943251
 30
0.0
 40
0.3
  0
LINE
  5
248
  8
0
  6
CONTINUOUS
 62
     7
 10
28.015825
 20
10.209139059943251
 30
0.0
 11
28.015825
 21
15.209139059943251
 31
0.0
  0
CIRCLE
  5
249
  8
0
  6
CONTINUOUS
 62
     7
 10
28.015825
 20
10.209139059943251
 30
0.0
 40
0.3
  0
LINE
  5
24A
  8
0
  6
CONTINUOUS
 62
     7
 10
0.796875
 20
20.209139059943251
 30
0.0
 11
30.30182499999999
 21
20.209139059943251
 31
0.0
  0
TEXT
  5
24B
  8
0
  6
CONTINUOUS
 62
     7
 10
37.207224999999987
 20
89.494853059943253
 30
0.0
 40
2.0
  1
L
 50
90.000003000000007
 41
1.071429
  0
LINE
  5
24C
  8
0
  6
CONTINUOUS
 62
     7
 10
37.707224999999987
 20
10.209139059943251
 30
0.0
 11
37.707224999999987
 21
90.209139059943254
 31
0.0
  0
CIRCLE
  5
24D
  8
0
  6
CONTINUOUS
 62
     7
 10
37.707224999999987
 20
10.209139059943251
 30
0.0
 40
0.3
  0
LINE
  5
24E
  8
0
  6
CONTINUOUS
 62
     7
 10
37.707224999999987
 20
170.2091390599432
 30
0.0
 11
37.707224999999987
 21
90.209139059943254
 31
0.0
  0
CIRCLE
  5
24F
  8
0
  6
CONTINUOUS
 62
     7
 10
37.707224999999987
 20
170.2091390599432
 30
0.0
 40
0.3
  0
LINE
  5
250
  8
0
  6
CONTINUOUS
 62
     7
 10
12.89688499999999
 20
10.209139059943251
 30
0.0
 11
39.993235000000013
 21
10.209139059943251
 31
0.0
  0
LINE
  5
251
  8
0
  6
CONTINUOUS
 62
     7
 10
12.89688499999999
 20
170.2091390599432
 30
0.0
 11
39.993235000000013
 21
170.2091390599432
 31
0.0
  0
TEXT
  5
26E
  8
0
  6
CONTINUOUS
 62
     7
 10
-8.1174108
 20
-12.597484
 30
0.0
 40
2.0
  1
36.6
 41
1.2380952999999999
  0
LINE
  5
26F
  8
0
  6
CONTINUOUS
 62
     7
 10
-22.703125
 20
-13.097484
 30
0.0
 11
-4.4031247999999987
 21
-13.097484
 31
0.0
  0
CIRCLE
  5
270
  8
0
  6
CONTINUOUS
 62
     7
 10
-22.703125
 20
-13.097484
 30
0.0
 40
0.3
  0
LINE
  5
271
  8
0
  6
CONTINUOUS
 62
     7
 10
13.896874999999991
 20
-13.097484
 30
0.0
 11
-4.4031247999999987
 21
-13.097484
 31
0.0
  0
CIRCLE
  5
272
  8
0
  6
CONTINUOUS
 62
     7
 10
13.896874999999991
 20
-13.097484
 30
0.0
 40
0.3
  0
LINE
  5
273
  8
0
  6
CONTINUOUS
 62
     7
 10
-22.703125
 20
-36.375
 30
0.0
 11
-22.703125
 21
-11.95448399999999
 31
0.0
  0
LINE
  5
274
  8
0
  6
CONTINUOUS
 62
     7
 10
13.896874999999991
 20
-36.375
 30
0.0
 11
13.896874999999991
 21
-11.95448399999999
 31
0.0
  0
TEXT
  5
275
  8
0
  6
CONTINUOUS
 62
     7
 10
9.6825893999999995
 20
-22.304144000000001
 30
0.0
 40
2.0
  1
7
 41
1.071429
  0
LINE
  5
276
  8
0
  6
CONTINUOUS
 62
     7
 10
6.896875399999999
 20
-22.804144000000001
 30
0.0
 11
10.396875
 21
-22.804144000000001
 31
0.0
  0
CIRCLE
  5
277
  8
0
  6
CONTINUOUS
 62
     7
 10
6.896875399999999
 20
-22.804144000000001
 30
0.0
 40
0.3
  0
LINE
  5
278
  8
0
  6
CONTINUOUS
 62
     7
 10
13.896874999999991
 20
-22.804144000000001
 30
0.0
 11
10.396875
 21
-22.804144000000001
 31
0.0
  0
CIRCLE
  5
279
  8
0
  6
CONTINUOUS
 62
     7
 10
13.896874999999991
 20
-22.804144000000001
 30
0.0
 40
0.3
  0
LINE
  5
27A
  8
0
  6
CONTINUOUS
 62
     7
 10
6.896875399999999
 20
-33.875
 30
0.0
 11
6.896875399999999
 21
-21.661144
 31
0.0
  0
TEXT
  5
27B
  8
0
  6
CONTINUOUS
 62
     7
 10
-35.804020000000001
 20
-47.089286000000001
 30
0.0
 40
2.0
  1
18
 50
90.000003000000007
 41
1.2857145000000001
  0
LINE
  5
27C
  8
0
  6
CONTINUOUS
 62
     7
 10
-35.304020000000001
 20
-54.375
 30
0.0
 11
-35.304020000000001
 21
-45.375
 31
0.0
  0
CIRCLE
  5
27D
  8
0
  6
CONTINUOUS
 62
     7
 10
-35.304020000000001
 20
-54.375
 30
0.0
 40
0.3
  0
LINE
  5
27E
  8
0
  6
CONTINUOUS
 62
     7
 10
-35.304020000000001
 20
-36.375
 30
0.0
 11
-35.304020000000001
 21
-45.375
 31
0.0
  0
CIRCLE
  5
27F
  8
0
  6
CONTINUOUS
 62
     7
 10
-35.304020000000001
 20
-36.375
 30
0.0
 40
0.3
  0
LINE
  5
280
  8
0
  6
CONTINUOUS
 62
     7
 10
-22.703125
 20
-54.375
 30
0.0
 11
-36.447020999999992
 21
-54.375
 31
0.0
  0
LINE
  5
281
  8
0
  6
CONTINUOUS
 62
     7
 10
-22.703125
 20
-36.375
 30
0.0
 11
-36.447020999999992
 21
-36.375
 31
0.0
  0
TEXT
  5
282
  8
0
  6
CONTINUOUS
 62
     7
 10
-7.717405499999999
 20
-22.304144000000001
 30
0.0
 40
2.0
  1
7
 41
1.071429
  0
LINE
  5
283
  8
0
  6
CONTINUOUS
 62
     7
 10
-3.5031192
 20
-22.804144000000001
 30
0.0
 11
-7.0031192999999989
 21
-22.804144000000001
 31
0.0
  0
CIRCLE
  5
284
  8
0
  6
CONTINUOUS
 62
     7
 10
-3.5031192
 20
-22.804144000000001
 30
0.0
 40
0.3
  0
LINE
  5
285
  8
0
  6
CONTINUOUS
 62
     7
 10
-10.503119
 20
-22.804144000000001
 30
0.0
 11
-7.0031192999999989
 21
-22.804144000000001
 31
0.0
  0
CIRCLE
  5
286
  8
0
  6
CONTINUOUS
 62
     7
 10
-10.503119
 20
-22.804144000000001
 30
0.0
 40
0.3
  0
LINE
  5
287
  8
0
  6
CONTINUOUS
 62
     7
 10
-3.5031192
 20
-33.875
 30
0.0
 11
-3.5031192
 21
-21.661144
 31
0.0
  0
TEXT
  5
288
  8
0
  6
CONTINUOUS
 62
     7
 10
-30.744999
 20
-60.862872000000003
 30
0.0
 40
2.0
  1
3.5
 50
90.000003000000007
 41
1.3571429999999991
  0
LINE
  5
289
  8
0
  6
CONTINUOUS
 62
     7
 10
-30.244999
 20
-49.875
 30
0.0
 11
-30.244999
 21
-51.625
 31
0.0
  0
LINE
  5
28A
  8
0
  6
CONTINUOUS
 62
     7
 10
-30.244999
 20
-51.625
 30
0.0
 11
-30.244999
 21
-60.862869000000003
 31
0.0
  0
CIRCLE
  5
28B
  8
0
  6
CONTINUOUS
 62
     7
 10
-30.244999
 20
-49.875
 30
0.0
 40
0.3
  0
LINE
  5
28C
  8
0
  6
CONTINUOUS
 62
     7
 10
-30.244999
 20
-53.375
 30
0.0
 11
-30.244999
 21
-51.625
 31
0.0
  0
CIRCLE
  5
28D
  8
0
  6
CONTINUOUS
 62
     7
 10
-30.244999
 20
-53.375
 30
0.0
 40
0.3
  0
LINE
  5
28E
  8
0
  6
CONTINUOUS
 62
     7
 10
-21.703125
 20
-49.875
 30
0.0
 11
-31.445
 21
-49.875
 31
0.0
  0
LINE
  5
28F
  8
0
  6
CONTINUOUS
 62
     7
 10
-17.703125
 20
-53.375
 30
0.0
 11
-31.445
 21
-53.375
 31
0.0
  0
TEXT
  5
290
  8
0
  6
CONTINUOUS
 62
     7
 10
-30.664020000000001
 20
-45.278415000000003
 30
0.0
 40
2.0
  1
13.5
 50
90.000003000000007
 41
1.3928572999999991
  0
LINE
  5
291
  8
0
  6
CONTINUOUS
 62
     7
 10
-30.164021000000002
 20
-49.875
 30
0.0
 11
-30.164021000000002
 21
-43.125
 31
0.0
  0
CIRCLE
  5
292
  8
0
  6
CONTINUOUS
 62
     7
 10
-30.164021000000002
 20
-49.875
 30
0.0
 40
0.3
  0
LINE
  5
293
  8
0
  6
CONTINUOUS
 62
     7
 10
-30.164021000000002
 20
-36.375
 30
0.0
 11
-30.164021000000002
 21
-43.125
 31
0.0
  0
CIRCLE
  5
294
  8
0
  6
CONTINUOUS
 62
     7
 10
-30.164021000000002
 20
-36.375
 30
0.0
 40
0.3
  0
LINE
  5
2A7
  8
0
  6
CONTINUOUS
 62
     7
 10
-15.50312500000001
 20
110.2091390599432
 30
0.0
 11
-26.587735000000009
 21
97.493372059943255
 31
0.0
  0
LINE
  5
2A8
  8
0
  6
CONTINUOUS
 62
     7
 10
-26.587735000000009
 20
97.493372059943255
 30
0.0
 11
-36.443785000000013
 21
97.493372059943255
 31
0.0
  0
LINE
  5
2A9
  8
0
  6
CONTINUOUS
 62
     7
 10
-15.50312500000001
 20
110.2091390599432
 30
0.0
 11
-16.720635000000009
 21
107.2906350599432
 31
0.0
  0
LINE
  5
2AA
  8
0
  6
CONTINUOUS
 62
     7
 10
-15.50312500000001
 20
110.2091390599432
 30
0.0
 11
-18.228235000000009
 21
108.60484305994321
 31
0.0
  0
TEXT
  5
2AB
  8
0
  6
CONTINUOUS
 62
     7
 10
-35.872365000000002
 20
97.993372059943255
 30
0.0
 40
2.0
  1
調整ネジ
 41
0.85124966
  0
TEXT
  5
2AC
  8
0
  6
CONTINUOUS
 62
     7
 10
-2.0174080999999999
 20
-22.304144000000001
 30
0.0
 40
2.0
  1
10.4
 41
1.4857143999999991
  0
LINE
  5
2AD
  8
0
  6
CONTINUOUS
 62
     7
 10
-3.5031249999999989
 20
-22.804144000000001
 30
0.0
 11
1.6968780999999999
 21
-22.804144000000001
 31
0.0
  0
CIRCLE
  5
2AE
  8
0
  6
CONTINUOUS
 62
     7
 10
-3.5031249999999989
 20
-22.804144000000001
 30
0.0
 40
0.3
  0
LINE
  5
2AF
  8
0
  6
CONTINUOUS
 62
     7
 10
6.896881099999999
 20
-22.804144000000001
 30
0.0
 11
1.6968780999999999
 21
-22.804144000000001
 31
0.0
  0
CIRCLE
  5
2B0
  8
0
  6
CONTINUOUS
 62
     7
 10
6.896881099999999
 20
-22.804144000000001
 30
0.0
 40
0.3
  0
LINE
  5
2B1
  8
0
  6
CONTINUOUS
 62
     7
 10
-3.5031249999999989
 20
-33.875
 30
0.0
 11
-3.5031249999999989
 21
-21.661144
 31
0.0
  0
TEXT
  5
2B2
  8
0
  6
CONTINUOUS
 62
     7
 10
-21.317411
 20
-61.260288000000003
 30
0.0
 40
2.0
  1
8.2
 41
1.3571429999999991
  0
LINE
  5
2B3
  8
0
  6
CONTINUOUS
 62
     7
 10
-14.503125000000001
 20
-61.760288000000003
 30
0.0
 11
-18.603124999999999
 21
-61.760288000000003
 31
0.0
  0
CIRCLE
  5
2B4
  8
0
  6
CONTINUOUS
 62
     7
 10
-14.503125000000001
 20
-61.760288000000003
 30
0.0
 40
0.3
  0
LINE
  5
2B5
  8
0
  6
CONTINUOUS
 62
     7
 10
-22.703125
 20
-61.760288000000003
 30
0.0
 11
-18.603124999999999
 21
-61.760288000000003
 31
0.0
  0
CIRCLE
  5
2B6
  8
0
  6
CONTINUOUS
 62
     7
 10
-22.703125
 20
-61.760288000000003
 30
0.0
 40
0.3
  0
LINE
  5
2B7
  8
0
  6
CONTINUOUS
 62
     7
 10
-14.503125000000001
 20
-55.875
 30
0.0
 11
-14.503125000000001
 21
-62.903289999999998
 31
0.0
  0
LINE
  5
2B8
  8
0
  6
CONTINUOUS
 62
     7
 10
-22.703125
 20
-54.375
 30
0.0
 11
-22.703125
 21
-62.903289999999998
 31
0.0
  0
TEXT
  5
2B9
  8
0
  6
CONTINUOUS
 62
     7
 10
-4.017408099999999
 20
-61.260288000000003
 30
0.0
 40
2.0
  1
28.4
 41
1.2380952999999999
  0
LINE
  5
2BA
  8
0
  6
CONTINUOUS
 62
     7
 10
-14.503125000000001
 20
-61.760288000000003
 30
0.0
 11
-0.30312204
 21
-61.760288000000003
 31
0.0
  0
CIRCLE
  5
2BB
  8
0
  6
CONTINUOUS
 62
     7
 10
-14.503125000000001
 20
-61.760288000000003
 30
0.0
 40
0.3
  0
LINE
  5
2BC
  8
0
  6
CONTINUOUS
 62
     7
 10
13.896881
 20
-61.760288000000003
 30
0.0
 11
-0.30312204
 21
-61.760288000000003
 31
0.0
  0
CIRCLE
  5
2BD
  8
0
  6
CONTINUOUS
 62
     7
 10
13.896881
 20
-61.760288000000003
 30
0.0
 40
0.3
  0
LINE
  5
2BE
  8
0
  6
CONTINUOUS
 62
     7
 10
13.896881
 20
-54.375
 30
0.0
 11
13.896881
 21
-62.903289999999998
 31
0.0
  0
TEXT
  5
2DD
  8
0
  6
CONTINUOUS
 62
     7
 10
-2.0174080999999999
 20
-17.432403999999998
 30
0.0
 40
2.0
  1
24.4
 41
1.2380952999999999
  0
LINE
  5
2DE
  8
0
  6
CONTINUOUS
 62
     7
 10
-10.503125000000001
 20
-17.932403999999998
 30
0.0
 11
1.696877999999999
 21
-17.932403999999998
 31
0.0
  0
CIRCLE
  5
2DF
  8
0
  6
CONTINUOUS
 62
     7
 10
-10.503125000000001
 20
-17.932403999999998
 30
0.0
 40
0.3
  0
LINE
  5
2E0
  8
0
  6
CONTINUOUS
 62
     7
 10
13.896881
 20
-17.932403999999998
 30
0.0
 11
1.696877999999999
 21
-17.932403999999998
 31
0.0
  0
CIRCLE
  5
2E1
  8
0
  6
CONTINUOUS
 62
     7
 10
13.896881
 20
-17.932403999999998
 30
0.0
 40
0.3
  0
LINE
  5
2E2
  8
0
  6
CONTINUOUS
 62
     7
 10
-10.503125000000001
 20
-36.375
 30
0.0
 11
-10.503125000000001
 21
-16.789401999999988
 31
0.0
  0
TEXT
  5
2E3
  8
0
  6
CONTINUOUS
 62
     7
 10
-18.317412000000001
 20
-17.432403999999998
 30
0.0
 40
2.0
  1
9.6
 41
1.3571429999999991
  0
LINE
  5
2E4
  8
0
  6
CONTINUOUS
 62
     7
 10
-20.403126
 20
-17.932403999999998
 30
0.0
 11
-15.603126
 21
-17.932403999999998
 31
0.0
  0
CIRCLE
  5
2E5
  8
0
  6
CONTINUOUS
 62
     7
 10
-20.403126
 20
-17.932403999999998
 30
0.0
 40
0.3
  0
LINE
  5
2E6
  8
0
  6
CONTINUOUS
 62
     7
 10
-10.803125
 20
-17.932403999999998
 30
0.0
 11
-15.603126
 21
-17.932403999999998
 31
0.0
  0
CIRCLE
  5
2E7
  8
0
  6
CONTINUOUS
 62
     7
 10
-10.803125
 20
-17.932403999999998
 30
0.0
 40
0.3
  0
LINE
  5
2E8
  8
0
  6
CONTINUOUS
 62
     7
 10
-20.403126
 20
-36.375
 30
0.0
 11
-20.403126
 21
-16.789401999999988
 31
0.0
  0
LINE
  5
2E9
  8
0
  6
CONTINUOUS
 62
     7
 10
-10.803125
 20
-36.375
 30
0.0
 11
-10.803125
 21
-16.789401999999988
 31
0.0
  0
TEXT
  5
2EA
  8
0
  6
CONTINUOUS
 62
     7
 10
-35.804020000000001
 20
-35.839286000000001
 30
0.0
 40
2.0
  1
6.5
 50
90.000003000000007
 41
1.3571429999999991
  0
LINE
  5
2EB
  8
0
  6
CONTINUOUS
 62
     7
 10
-35.304020000000001
 20
-36.375
 30
0.0
 11
-35.304020000000001
 21
-33.125
 31
0.0
  0
CIRCLE
  5
2EC
  8
0
  6
CONTINUOUS
 62
     7
 10
-35.304020000000001
 20
-36.375
 30
0.0
 40
0.3
  0
LINE
  5
2ED
  8
0
  6
CONTINUOUS
 62
     7
 10
-35.304020000000001
 20
-29.875
 30
0.0
 11
-35.304020000000001
 21
-33.125
 31
0.0
  0
CIRCLE
  5
2EE
  8
0
  6
CONTINUOUS
 62
     7
 10
-35.304020000000001
 20
-29.875
 30
0.0
 40
0.3
  0
LINE
  5
2EF
  8
0
  6
CONTINUOUS
 62
     7
 10
-22.703125
 20
-36.375
 30
0.0
 11
-36.447020999999992
 21
-36.375
 31
0.0
  0
LINE
  5
2F0
  8
0
  6
CONTINUOUS
 62
     7
 10
-19.603124999999991
 20
-29.875
 30
0.0
 11
-36.447020999999992
 21
-29.875
 31
0.0
  0
ENDSEC
  0
EOF
