  0
SECTION
  2
HEADER
  9
$ACADVER
  1
AC1009
  9
$INSBASE
 10
0.0
 20
0.0
 30
0.0
  9
$EXTMIN
 10
-28.057677122598641
 20
77.03176964054785
 30
-0.0015258207003583
  9
$EXTMAX
 10
38.8277747822317
 20
145.20262206322801
 30
0.0000000349246037
  9
$LIMMIN
 10
0.0
 20
0.0
  9
$LIMMAX
 10
12.0
 20
9.0
  9
$ORTHOMODE
 70
     0
  9
$REGENMODE
 70
     1
  9
$FILLMODE
 70
     1
  9
$QTEXTMODE
 70
     0
  9
$MIRRTEXT
 70
     1
  9
$DRAGMODE
 70
     2
  9
$LTSCALE
 40
1.0
  9
$OSMODE
 70
    37
  9
$ATTMODE
 70
     1
  9
$TEXTSIZE
 40
0.2
  9
$TRACEWID
 40
0.05
  9
$TEXTSTYLE
  7
STANDARD
  9
$CLAYER
  8
0
  9
$CELTYPE
  6
CONTINUOUS
  9
$CECOLOR
 62
   256
  9
$DIMSCALE
 40
1.0
  9
$DIMASZ
 40
0.18
  9
$DIMEXO
 40
0.0625
  9
$DIMDLI
 40
0.38
  9
$DIMRND
 40
0.0
  9
$DIMDLE
 40
0.0
  9
$DIMEXE
 40
0.18
  9
$DIMTP
 40
0.0
  9
$DIMTM
 40
0.0
  9
$DIMTXT
 40
0.18
  9
$DIMCEN
 40
0.09
  9
$DIMTSZ
 40
0.0
  9
$DIMTOL
 70
     0
  9
$DIMLIM
 70
     0
  9
$DIMTIH
 70
     1
  9
$DIMTOH
 70
     1
  9
$DIMSE1
 70
     0
  9
$DIMSE2
 70
     0
  9
$DIMTAD
 70
     0
  9
$DIMZIN
 70
     0
  9
$DIMBLK
  1

  9
$DIMASO
 70
     1
  9
$DIMSHO
 70
     1
  9
$DIMPOST
  1

  9
$DIMAPOST
  1

  9
$DIMALT
 70
     0
  9
$DIMALTD
 70
     2
  9
$DIMALTF
 40
25.399999999999999
  9
$DIMLFAC
 40
1.0
  9
$DIMTOFL
 70
     0
  9
$DIMTVP
 40
0.0
  9
$DIMTIX
 70
     0
  9
$DIMSOXD
 70
     0
  9
$DIMSAH
 70
     0
  9
$DIMBLK1
  1

  9
$DIMBLK2
  1

  9
$DIMSTYLE
  2
STANDARD
  9
$DIMCLRD
 70
     0
  9
$DIMCLRE
 70
     0
  9
$DIMCLRT
 70
     0
  9
$DIMTFAC
 40
1.0
  9
$DIMGAP
 40
0.09
  9
$LUNITS
 70
     2
  9
$LUPREC
 70
     4
  9
$SKETCHINC
 40
0.1
  9
$FILLETRAD
 40
0.0
  9
$AUNITS
 70
     0
  9
$AUPREC
 70
     0
  9
$MENU
  1
.
  9
$ELEVATION
 40
0.0
  9
$PELEVATION
 40
0.0
  9
$THICKNESS
 40
0.0
  9
$LIMCHECK
 70
     0
  9
$BLIPMODE
 70
     0
  9
$CHAMFERA
 40
0.0
  9
$CHAMFERB
 40
0.0
  9
$SKPOLY
 70
     0
  9
$TDCREATE
 40
2452865.5380463311
  9
$TDUPDATE
 40
2452865.540238345
  9
$TDINDWG
 40
0.0021921991
  9
$TDUSRTIMER
 40
0.0021921991
  9
$USRTIMER
 70
     1
  9
$ANGBASE
 50
0.0
  9
$ANGDIR
 70
     0
  9
$PDMODE
 70
     0
  9
$PDSIZE
 40
0.0
  9
$PLINEWID
 40
0.0
  9
$COORDS
 70
     0
  9
$SPLFRAME
 70
     0
  9
$SPLINETYPE
 70
     6
  9
$SPLINESEGS
 70
     8
  9
$ATTDIA
 70
     1
  9
$ATTREQ
 70
     1
  9
$HANDLING
 70
     1
  9
$HANDSEED
  5
42E
  9
$SURFTAB1
 70
     6
  9
$SURFTAB2
 70
     6
  9
$SURFTYPE
 70
     6
  9
$SURFU
 70
     6
  9
$SURFV
 70
     6
  9
$UCSNAME
  2

  9
$UCSORG
 10
0.0
 20
0.0
 30
0.0
  9
$UCSXDIR
 10
1.0
 20
0.0
 30
0.0
  9
$UCSYDIR
 10
0.0
 20
1.0
 30
0.0
  9
$PUCSNAME
  2

  9
$PUCSORG
 10
0.0
 20
0.0
 30
0.0
  9
$PUCSXDIR
 10
1.0
 20
0.0
 30
0.0
  9
$PUCSYDIR
 10
0.0
 20
1.0
 30
0.0
  9
$USERI1
 70
     0
  9
$USERI2
 70
     0
  9
$USERI3
 70
     0
  9
$USERI4
 70
     0
  9
$USERI5
 70
     0
  9
$USERR1
 40
0.0
  9
$USERR2
 40
0.0
  9
$USERR3
 40
0.0
  9
$USERR4
 40
0.0
  9
$USERR5
 40
0.0
  9
$WORLDVIEW
 70
     1
  9
$SHADEDGE
 70
     3
  9
$SHADEDIF
 70
    70
  9
$TILEMODE
 70
     1
  9
$MAXACTVP
 70
    64
  9
$PLIMCHECK
 70
     0
  9
$PEXTMIN
 10
1.0000000000000000E+020
 20
1.0000000000000000E+020
 30
1.0000000000000000E+020
  9
$PEXTMAX
 10
-1.0000000000000000E+020
 20
-1.0000000000000000E+020
 30
-1.0000000000000000E+020
  9
$PLIMMIN
 10
0.0
 20
0.0
  9
$PLIMMAX
 10
12.0
 20
9.0
  9
$UNITMODE
 70
     0
  9
$VISRETAIN
 70
     1
  9
$PLINEGEN
 70
     0
  9
$PSLTSCALE
 70
     1
  0
ENDSEC
  0
SECTION
  2
TABLES
  0
TABLE
  2
VPORT
 70
     3
  0
VPORT
  2
*ACTIVE
 70
     0
 10
0.0
 20
0.0
 11
1.0
 21
1.0
 12
5.3850488298165198
 22
111.1171958518879
 13
0.0
 23
0.0
 14
1.0
 24
1.0
 15
0.0
 25
0.0
 16
0.0
 26
0.0
 36
1.0
 17
0.0
 27
0.0
 37
0.0
 40
68.665441436629564
 41
1.3389830508474569
 42
50.0
 43
0.0
 44
0.0
 50
0.0
 51
0.0
 71
     0
 72
   100
 73
     1
 74
     1
 75
     0
 76
     0
 77
     0
 78
     0
  0
ENDTAB
  0
TABLE
  2
LTYPE
 70
    19
  0
LTYPE
  2
CONTINUOUS
 70
     0
  3
Solid line
 72
    65
 73
     0
 40
0.0
  0
LTYPE
  2
DASHED
 70
     0
  3
__ __ __ __ __ __ __ __ __ __ __ __ __ __ __
 72
    65
 73
     2
 40
3.5
 49
2.0
 49
-1.5
  0
LTYPE
  2
CENTER
 70
     0
  3
____ _ ____ _ ____ _ ____ _ ____ _ ____ _ ____
 72
    65
 73
     4
 40
17.5
 49
13.0
 49
-1.5
 49
1.5
 49
-1.5
  0
LTYPE
  2
PHANTOM
 70
     0
  3
_____ _ _ _____ _ _ _____ _ _ _____ _ _ ____  
 72
    65
 73
     6
 40
15.5
 49
8.0
 49
-1.5
 49
1.5
 49
-1.5
 49
1.5
 49
-1.5
  0
LTYPE
  2
DOT
 70
     0
  3
. . . . . . . . . . . . . . . . . . . . . . . .
 72
    65
 73
     2
 40
0.25
 49
0.0
 49
-0.25
  0
LTYPE
  2
AM_ISO02W050
 70
     0
  3
__ __ __ __ __ __ __ __ __ __ __ __ __ __ __
 72
    65
 73
     2
 40
7.5
 49
6.0
 49
-1.5
  0
LTYPE
  2
AM_ISO08W050
 70
     0
  3
____ . ____ . ____ . ____ . ____ . ____ . ____
 72
    65
 73
     4
 40
18.0
 49
12.0
 49
-1.5
 49
3.0
 49
-1.5
  0
LTYPE
  2
AM_ISO09W050
 70
     0
  3
_____ . . _____ . . _____ . . ____ .. ____
 72
    65
 73
     6
 40
22.5
 49
12.0
 49
-1.5
 49
3.0
 49
-1.5
 49
3.0
 49
-1.5
  0
LTYPE
  2
AMCONSTR
 70
     0
  3
_______________________
 72
    65
 73
     2
 40
9999.0
 49
9999.0
 49
0.0
  0
LTYPE
  2
AM_ISO08W050X2
 70
     0
  3
__ . __ . __ . __ . __ . __
 72
    65
 73
     4
 40
9.0
 49
6.0
 49
-0.75
 49
1.5
 49
-0.75
  0
LTYPE
  2
AM_ISO02W050X2
 70
     0
  3
 _ _ _ _ _ _ _ _ _ _ _ _
 72
    65
 73
     2
 40
3.75
 49
3.0
 49
-0.75
  0
LTYPE
  2
AMZIGZAG
 70
     0
  3
/\/-/\/-/\/-/\/-/\/-/\/
 72
    65
 73
     2
 40
11.000099999999991
 49
0.0001
 49
-11.0
  0
LTYPE
  2
HIDDEN
 70
     0
  3
Hidden __ __ __ __ __ __ __ __ __ __ __ __ __ _
 72
    65
 73
     2
 40
0.375
 49
0.25
 49
-0.125
  0
LTYPE
  2
PHANTOM2
 70
     0
  3
Phantom (.5x) ___ _ _ ___ _ _ ___ _ _ ___ _ _
 72
    65
 73
     6
 40
1.25
 49
0.625
 49
-0.125
 49
0.125
 49
-0.125
 49
0.125
 49
-0.125
  0
LTYPE
  2
CENTER2
 70
     0
  3
Center (.5x) ___ _ ___ _ ___ _ ___ _ ___ _ ___
 72
    65
 73
     4
 40
1.125
 49
0.75
 49
-0.125
 49
0.125
 49
-0.125
  0
LTYPE
  2
HIDDEN2
 70
     0
  3
Hidden (.5x) _ _ _ _ _ _ _ _ _ _ _ _ _ _ _ _ _
 72
    65
 73
     2
 40
0.1875
 49
0.125
 49
-0.0625
  0
LTYPE
  2
AMZIGZAG2
 70
     0
  3
/\/-/\/-/\/-/\/-/\/-/\/
 72
    65
 73
     2
 40
0.4401
 49
0.0001
 49
-0.4400000000000001
  0
LTYPE
  2
ACANSTGB
 70
     0
  3
__ . . __ . .
 72
    65
 73
     6
 40
0.35433070866
 49
0.15748031496
 49
-0.03937007874
 49
0.03937007874
 49
-0.03937007874
 49
0.03937007874
 49
-0.03937007874
  0
LTYPE
  2
ACANSTGL
 70
     0
  3
_ _ _ _ _
 72
    65
 73
     2
 40
0.11811023622
 49
0.07874015748
 49
-0.03937007874
  0
ENDTAB
  0
TABLE
  2
LAYER
 70
     3
  0
LAYER
  2
0
 70
     0
 62
     7
  6
CONTINUOUS
  0
LAYER
  2
1
 70
     0
 62
     7
  6
CONTINUOUS
  0
LAYER
  2
2
 70
     0
 62
     7
  6
CONTINUOUS
  0
ENDTAB
  0
TABLE
  2
STYLE
 70
     4
  0
STYLE
  2
STANDARD
 70
     0
 40
0.0
 41
1.0
 50
0.0
 71
     0
 42
0.2
  3
txt
  4
BIGFONT
  0
STYLE
  2

 70
     1
 40
0.0
 41
1.0
 50
0.0
 71
     0
 42
0.2
  3
ltypeshp.shx
  4

  0
STYLE
  2
ACANSTS
 70
     0
 40
1.0
 41
1.0
 50
0.0
 71
     0
 42
0.2
  3
romans.shx
  4
extfont.shx
  0
STYLE
  2
ACANSGDT
 70
     0
 40
0.0
 41
1.0
 50
0.0
 71
     0
 42
0.2
  3
amgdtans.shx
  4

  0
ENDTAB
  0
TABLE
  2
VIEW
 70
     0
  0
ENDTAB
  0
TABLE
  2
UCS
 70
     0
  0
ENDTAB
  0
TABLE
  2
APPID
 70
     4
  0
APPID
  2
ACAD
 70
     0
  0
APPID
  2
MCAD_NO_VIS
 70
     0
  0
APPID
  2
ACAD_TEMP_GRAPHIC
 70
     0
  0
APPID
  2
ACATTRIBSERVICES
 70
     0
  0
ENDTAB
  0
TABLE
  2
DIMSTYLE
 70
     7
  0
DIMSTYLE
  2
STANDARD
 70
     0
  3

  4

  5

  6

  7

 40
1.0
 41
0.18
 42
0.0625
 43
0.38
 44
0.18
 45
0.0
 46
0.0
 47
0.0
 48
0.0
140
0.18
141
0.09
142
0.0
143
25.399999999999999
144
1.0
145
0.0
146
1.0
147
0.09
 71
     0
 72
     0
 73
     1
 74
     1
 75
     0
 76
     0
 77
     0
 78
     0
170
     0
171
     2
172
     0
173
     0
174
     0
175
     0
176
     0
177
     0
178
     0
  0
DIMSTYLE
  2
AM_ANSI
 70
     0
  3

  4
mm
  5

  6

  7

 40
1.0
 41
0.1
 42
0.05
 43
0.5
 44
0.1
 45
0.0
 46
0.0
 47
0.1
 48
0.1
140
0.12
141
0.0
142
0.0
143
25.399999999999999
144
1.0
145
0.0
146
0.71
147
0.06
 71
     0
 72
     0
 73
     1
 74
     1
 75
     0
 76
     0
 77
     0
 78
     7
170
     0
171
     2
172
     0
173
     0
174
     0
175
     0
176
   256
177
   256
178
     2
  0
DIMSTYLE
  2
AM_ANSI$3
 70
     0
  3

  4
mm
  5

  6

  7

 40
1.0
 41
0.1
 42
0.05
 43
0.5
 44
0.1
 45
0.0
 46
0.0
 47
0.1
 48
0.1
140
0.12
141
0.0
142
0.0
143
25.399999999999999
144
1.0
145
0.0
146
0.71
147
0.06
 71
     0
 72
     0
 73
     1
 74
     1
 75
     0
 76
     0
 77
     0
 78
     7
170
     0
171
     2
172
     0
173
     0
174
     0
175
     0
176
   256
177
   256
178
     2
  0
DIMSTYLE
  2
AM_ANSI$4
 70
     0
  3

  4
mm
  5

  6

  7

 40
1.0
 41
0.1
 42
0.05
 43
0.5
 44
0.1
 45
0.0
 46
0.0
 47
0.1
 48
0.1
140
0.12
141
0.0
142
0.0
143
25.399999999999999
144
1.0
145
0.0
146
0.71
147
0.06
 71
     0
 72
     0
 73
     1
 74
     1
 75
     0
 76
     0
 77
     0
 78
     7
170
     0
171
     2
172
     0
173
     0
174
     0
175
     0
176
   256
177
   256
178
     2
  0
DIMSTYLE
  2
AM_ANSI$7
 70
     0
  3

  4
mm
  5

  6

  7

 40
1.0
 41
0.1
 42
0.05
 43
0.5
 44
0.1
 45
0.0
 46
0.0
 47
0.1
 48
0.1
140
0.24
141
0.0
142
0.0
143
25.399999999999999
144
1.0
145
0.0
146
0.71
147
0.06
 71
     0
 72
     0
 73
     1
 74
     1
 75
     0
 76
     0
 77
     0
 78
     7
170
     0
171
     2
172
     0
173
     0
174
     0
175
     0
176
   256
177
   256
178
     2
  0
DIMSTYLE
  2
AM_ANSI$SF
 70
     0
  3

  4
mm
  5

  6

  7

 40
1.0
 41
0.1
 42
0.05
 43
0.5
 44
0.1
 45
0.0
 46
0.0
 47
0.1
 48
0.1
140
0.12
141
0.0
142
0.0
143
25.399999999999999
144
1.0
145
0.0
146
0.71
147
0.06
 71
     0
 72
     0
 73
     1
 74
     1
 75
     1
 76
     1
 77
     0
 78
     7
170
     0
171
     2
172
     0
173
     0
174
     0
175
     0
176
   256
177
   256
178
     2
  0
DIMSTYLE
  2
AM_ANSI$SH
 70
     0
  3

  4
mm
  5

  6
GENAXEH
  7

 40
1.0
 41
0.1
 42
0.05
 43
0.5
 44
0.1
 45
0.0
 46
0.0
 47
0.1
 48
0.1
140
0.12
141
0.0
142
0.0
143
25.399999999999999
144
1.0
145
0.0
146
0.71
147
0.06
 71
     0
 72
     0
 73
     1
 74
     1
 75
     1
 76
     1
 77
     0
 78
     7
170
     0
171
     2
172
     0
173
     1
174
     0
175
     0
176
   256
177
   256
178
     2
  0
ENDTAB
  0
ENDSEC
  0
SECTION
  2
BLOCKS
  0
BLOCK
  8
0
  2
$MODEL_SPACE
 70
     0
 10
0.0
 20
0.0
 30
0.0
  3
$MODEL_SPACE
  1

  0
ENDBLK
  5
20
  8
0
  0
BLOCK
 67
     1
  8
0
  2
$PAPER_SPACE
 70
     0
 10
0.0
 20
0.0
 30
0.0
  3
$PAPER_SPACE
  1

  0
ENDBLK
  5
1C
 67
     1
  8
0
  0
BLOCK
  8
0
  2
GENAXEH
 70
     0
 10
0.0
 20
0.0
 30
0.0
  3
GENAXEH
  1

  0
LINE
  5
413
  8
0
 10
-1.0
 20
0.0
 30
0.0
 11
1.0
 21
0.0
 31
0.0
  0
ENDBLK
  5
415
  8
0
  0
ENDSEC
  0
SECTION
  2
ENTITIES
  0
LINE
  5
30
  8
0
  6
CONTINUOUS
 62
     7
 10
-2.9055672000000001
 20
111.82640000000001
 30
0.0
 11
8.6944331999999989
 21
111.82640000000001
 31
0.0
  0
LINE
  5
31
  8
0
  6
CONTINUOUS
 62
     7
 10
-3.3055667999999989
 20
125.82637
 30
0.0
 11
-3.3055667999999989
 21
112.82640000000001
 31
0.0
  0
LINE
  5
32
  8
0
  6
CONTINUOUS
 62
     7
 10
-4.5055598999999997
 20
125.82640000000001
 30
0.0
 11
-3.3055667999999989
 21
125.82640000000001
 31
0.0
  0
LINE
  5
33
  8
0
  6
CONTINUOUS
 62
     7
 10
-3.4097004000000002
 20
126.82640000000001
 30
0.0
 11
-2.4055652999999988
 21
126.82640000000001
 31
0.0
  0
LINE
  5
34
  8
0
  6
CONTINUOUS
 62
     7
 10
-1.9055652999999999
 20
126.3263699999999
 30
0.0
 11
-1.9055652999999999
 21
114.82640000000001
 31
0.0
  0
LINE
  5
35
  8
0
  6
CONTINUOUS
 62
     7
 10
-1.4055652999999999
 20
114.32640000000001
 30
0.0
 11
7.7944316999999987
 21
114.32640000000001
 31
0.0
  0
LINE
  5
36
  8
0
  6
CONTINUOUS
 62
     7
 10
8.2944316999999987
 20
126.32640000000001
 30
0.0
 11
8.2944316999999987
 21
114.82640000000001
 31
0.0
  0
LINE
  5
37
  8
0
  6
CONTINUOUS
 62
     7
 10
8.7944316999999987
 20
126.82640000000001
 30
0.0
 11
9.7989864000000004
 21
126.82640000000001
 31
0.0
  0
LINE
  5
38
  8
0
  6
CONTINUOUS
 62
     7
 10
9.6944331999999989
 20
125.82640000000001
 30
0.0
 11
10.894429999999989
 21
125.82640000000001
 31
0.0
  0
LINE
  5
39
  8
0
  6
CONTINUOUS
 62
     7
 10
9.6944331999999989
 20
125.82640000000001
 30
0.0
 11
9.6944331999999989
 21
112.82640000000001
 31
0.0
  0
LINE
  5
6C
  8
0
  6
CONTINUOUS
 62
     7
 10
-2.9055672000000001
 20
111.82640000000001
 30
0.0
 11
-2.9055672000000001
 21
111.5264
 31
0.0
  0
LINE
  5
6D
  8
0
  6
CONTINUOUS
 62
     7
 10
7.0944332999999986
 20
111.82640000000001
 30
0.0
 11
7.0944332999999986
 21
111.5264
 31
0.0
  0
LINE
  5
6E
  8
0
  6
CONTINUOUS
 62
     7
 10
-2.9055672000000001
 20
111.5264
 30
0.0
 11
7.0944332999999986
 21
111.5264
 31
0.0
  0
LINE
  5
6F
  8
0
  6
CONTINUOUS
 62
     7
 10
0.17016792
 20
110.5264
 30
0.0
 11
4.0186982000000002
 21
110.5264
 31
0.0
  0
LINE
  5
70
  8
0
  6
CONTINUOUS
 62
     7
 10
3.5944332999999991
 20
110.5264
 30
0.0
 11
3.5944332999999991
 21
108.82640000000001
 31
0.0
  0
LINE
  5
71
  8
0
  6
CONTINUOUS
 62
     7
 10
0.5944328300000001
 20
110.5264
 30
0.0
 11
0.5944328300000001
 21
108.82640000000001
 31
0.0
  0
LINE
  5
72
  8
0
  6
CONTINUOUS
 62
     7
 10
5.018692999999999
 20
111.52641
 30
0.0
 11
4.0186972999999986
 21
110.52641
 31
0.0
  0
LINE
  5
73
  8
0
  6
CONTINUOUS
 62
     7
 10
-0.8298330299999999
 20
111.5264
 30
0.0
 11
0.17016807
 21
110.5264
 31
0.0
  0
LINE
  5
74
  8
0
  6
CONTINUOUS
 62
     7
 10
3.5922773000000001
 20
111.52641
 30
0.0
 11
3.0149267000000002
 21
110.52641
 31
0.0
  0
LINE
  5
75
  8
0
  6
CONTINUOUS
 62
     7
 10
0.59658897
 20
111.5264
 30
0.0
 11
1.1739395999999991
 21
110.5264
 31
0.0
  0
LINE
  5
76
  8
0
  6
CONTINUOUS
 62
     7
 10
0.5944328300000001
 20
108.82640000000001
 30
0.0
 11
3.5944332999999991
 21
108.82640000000001
 31
0.0
  0
LINE
  5
82
  8
0
  6
CONTINUOUS
 62
     7
 10
-1.3055668
 20
115.32640000000001
 30
0.0
 11
4.6944331999999998
 21
115.32640000000001
 31
0.0
  0
LINE
  5
92
  8
0
  6
CONTINUOUS
 62
     7
 10
-1.3055668
 20
115.32640000000001
 30
0.0
 11
-1.3055668
 21
114.32640000000001
 31
0.0
  0
LINE
  5
93
  8
0
  6
CONTINUOUS
 62
     7
 10
4.6944331999999998
 20
115.32640000000001
 30
0.0
 11
4.6944331999999998
 21
114.32640000000001
 31
0.0
  0
LINE
  5
F4
  8
0
  6
CONTINUOUS
 62
     7
 10
7.1944242000000003
 20
134.32640000000001
 30
0.0
 11
7.1944242000000003
 21
125.1764
 31
0.0
  0
LINE
  5
F6
  8
0
  6
CONTINUOUS
 62
     7
 10
5.8944364
 20
126.2264
 30
0.0
 11
4.8944364
 21
126.2264
 31
0.0
  0
LINE
  5
F8
  8
0
  6
CONTINUOUS
 62
     7
 10
5.8944364
 20
126.2264
 30
0.0
 11
5.8944364
 21
122.9264
 31
0.0
  0
LINE
  5
FA
  8
0
  6
CONTINUOUS
 62
     7
 10
7.1944242000000003
 20
125.1764
 30
0.0
 11
5.8944364
 21
125.1764
 31
0.0
  0
LINE
  5
FB
  8
0
  6
CONTINUOUS
 62
     7
 10
5.8944364
 20
123.9764
 30
0.0
 11
7.1944242000000003
 21
123.9764
 31
0.0
  0
LINE
  5
FF
  8
0
  6
CONTINUOUS
 62
     7
 10
5.8944364
 20
122.9264
 30
0.0
 11
4.8944364
 21
122.9264
 31
0.0
  0
LINE
  5
101
  8
0
  6
CONTINUOUS
 62
     7
 10
4.8944364
 20
126.2264
 30
0.0
 11
4.8944364
 21
122.9264
 31
0.0
  0
LINE
  5
103
  8
0
  6
CONTINUOUS
 62
     7
 10
8.1944323000000008
 20
125.1764
 30
0.0
 11
7.1944322999999999
 21
134.32640000000001
 31
0.0
  0
LINE
  5
10A
  8
0
  6
CONTINUOUS
 62
     7
 10
-1.6055641
 20
127.32640000000001
 30
0.0
 11
-1.6055641
 21
118.32640000000001
 31
0.0
  0
LINE
  5
10B
  8
0
  6
CONTINUOUS
 62
     7
 10
-1.1055641
 20
127.82640000000001
 30
0.0
 11
1.8015403999999999
 21
127.82640000000001
 31
0.0
  0
LINE
  5
10C
  8
0
  6
CONTINUOUS
 62
     7
 10
1.8015330000000001
 20
127.82640000000001
 30
0.0
 11
2.0944272999999991
 21
127.5335
 31
0.0
  0
LINE
  5
10D
  8
0
  6
CONTINUOUS
 62
     7
 10
2.0944272999999991
 20
127.5335
 30
0.0
 11
2.3873215000000001
 21
127.82640000000001
 31
0.0
  0
LINE
  5
10E
  8
0
  6
CONTINUOUS
 62
     7
 10
2.3873252999999992
 20
127.82640000000001
 30
0.0
 11
6.4944271999999996
 21
127.82640000000001
 31
0.0
  0
LINE
  5
10F
  8
0
  6
CONTINUOUS
 62
     7
 10
6.9944271999999987
 20
127.32640000000001
 30
0.0
 11
6.9944271999999987
 21
125.32640000000001
 31
0.0
  0
LINE
  5
110
  8
0
  6
CONTINUOUS
 62
     7
 10
6.9944271999999987
 20
125.32640000000001
 30
0.0
 11
5.9944271999999996
 21
125.32640000000001
 31
0.0
  0
LINE
  5
111
  8
0
  6
CONTINUOUS
 62
     7
 10
5.9944271999999996
 20
126.32640000000001
 30
0.0
 11
5.9944271999999996
 21
125.32640000000001
 31
0.0
  0
LINE
  5
112
  8
0
  6
CONTINUOUS
 62
     7
 10
5.9944271999999996
 20
126.32640000000001
 30
0.0
 11
4.7944303000000001
 21
126.32640000000001
 31
0.0
  0
LINE
  5
113
  8
0
  6
CONTINUOUS
 62
     7
 10
4.7944303000000001
 20
126.32640000000001
 30
0.0
 11
4.7944303000000001
 21
122.82640000000001
 31
0.0
  0
LINE
  5
114
  8
0
  6
CONTINUOUS
 62
     7
 10
5.9944271999999996
 20
122.82640000000001
 30
0.0
 11
4.7944303000000001
 21
122.82640000000001
 31
0.0
  0
LINE
  5
115
  8
0
  6
CONTINUOUS
 62
     7
 10
5.9944271999999996
 20
123.82640000000001
 30
0.0
 11
5.9944271999999996
 21
122.82640000000001
 31
0.0
  0
LINE
  5
116
  8
0
  6
CONTINUOUS
 62
     7
 10
6.9944271999999987
 20
123.82640000000001
 30
0.0
 11
5.9944271999999996
 21
123.82640000000001
 31
0.0
  0
LINE
  5
117
  8
0
  6
CONTINUOUS
 62
     7
 10
7.9944271999999987
 20
122.82640000000001
 30
0.0
 11
7.9944271999999987
 21
118.32640000000001
 31
0.0
  0
LINE
  5
118
  8
0
  6
CONTINUOUS
 62
     7
 10
6.9944271999999987
 20
117.32640000000001
 30
0.0
 11
6.5110593000000003
 21
117.32640000000001
 31
0.0
  0
LINE
  5
119
  8
0
  6
CONTINUOUS
 62
     7
 10
-0.6055641200000002
 20
117.32640000000001
 30
0.0
 11
-0.1221962
 21
117.32640000000001
 31
0.0
  0
LINE
  5
148
  8
0
  6
CENTER
 62
     7
 10
2.0944327999999999
 20
129.22222999999991
 30
0.0
 11
2.0944327999999999
 21
107.33032
 31
0.0
  0
LINE
  5
235
  8
0
  6
CONTINUOUS
 62
     7
 10
24.159481
 20
134.32648
 30
0.0
 11
33.232384000000003
 21
134.32648
 31
0.0
  0
ARC
  5
237
  8
0
  6
CONTINUOUS
 62
     7
 10
-2.3055667999999989
 20
112.82640000000001
 30
0.0
 40
1.0
 50
179.99997999999991
 51
270.00002999999992
  0
ARC
  5
238
  8
0
  6
CONTINUOUS
 62
     7
 10
-4.5055598999999997
 20
126.1263899999999
 30
0.0
 40
0.30000001
 50
127.47969999999989
 51
270.0
  0
ARC
  5
239
  8
0
  6
CONTINUOUS
 62
     7
 10
-3.4097004000000002
 20
124.82637
 30
0.0
 40
2.0
 50
90.000009000000006
 51
130.52749999999989
  0
ARC
  5
23A
  8
0
  6
CONTINUOUS
 62
     7
 10
-2.4055652999999988
 20
126.3263699999999
 30
0.0
 40
0.5
 50
0.0000025044785
 51
90.000003000000007
  0
ARC
  5
23B
  8
0
  6
CONTINUOUS
 62
     7
 10
-1.4055652999999999
 20
114.82640000000001
 30
0.0
 40
0.5
 50
179.99997999999991
 51
270.00002999999992
  0
ARC
  5
23C
  8
0
  6
CONTINUOUS
 62
     7
 10
7.7944316999999987
 20
114.82640000000001
 30
0.0
 40
0.5
 50
270.00002000000001
 51
0.0000025044768
  0
ARC
  5
23D
  8
0
  6
CONTINUOUS
 62
     7
 10
8.7944316999999987
 20
126.32640000000001
 30
0.0
 40
0.5
 50
90.000009000000006
 51
180.00001
  0
ARC
  5
23E
  8
0
  6
CONTINUOUS
 62
     7
 10
9.7989864000000004
 20
124.82640000000001
 30
0.0
 40
2.0
 50
49.880840999999997
 51
90.000003000000007
  0
ARC
  5
23F
  8
0
  6
CONTINUOUS
 62
     7
 10
10.894429999999989
 20
126.1263899999999
 30
0.0
 40
0.30000001
 50
270.0
 51
49.880840999999997
  0
ARC
  5
240
  8
0
  6
CONTINUOUS
 62
     7
 10
8.6944331999999989
 20
112.82640000000001
 30
0.0
 40
1.0
 50
270.00002000000001
 51
0.0000025044777
  0
ARC
  5
274
  8
0
  6
CONTINUOUS
 62
     7
 10
7.1944242000000003
 20
124.9764
 30
0.0
 40
1.0
 50
270.0
 51
0.0000050089561
  0
ARC
  5
278
  8
0
  6
CONTINUOUS
 62
     7
 10
-1.1055641
 20
127.32640000000001
 30
0.0
 40
0.5
 50
90.000003000000007
 51
180.00001
  0
ARC
  5
279
  8
0
  6
CONTINUOUS
 62
     7
 10
6.4944271999999996
 20
127.32640000000001
 30
0.0
 40
0.5
 50
359.99998999999991
 51
90.000003000000007
  0
ARC
  5
27A
  8
0
  6
CONTINUOUS
 62
     7
 10
6.9944271999999987
 20
122.82640000000001
 30
0.0
 40
1.0
 50
359.99998999999991
 51
90.000003000000007
  0
ARC
  5
27B
  8
0
  6
CONTINUOUS
 62
     7
 10
6.9944271999999987
 20
118.32640000000001
 30
0.0
 40
1.0
 50
270.0
 51
0.0000050089561
  0
ARC
  5
27C
  8
0
  6
CONTINUOUS
 62
     7
 10
3.1944241999999998
 20
113.32640000000001
 30
0.0
 40
5.0
 50
56.44268499999999
 51
123.5573199999999
  0
ARC
  5
27D
  8
0
  6
CONTINUOUS
 62
     7
 10
6.5110593000000003
 20
118.32640000000001
 30
0.0
 40
1.0
 50
236.44267999999991
 51
270.0
  0
ARC
  5
27E
  8
0
  6
CONTINUOUS
 62
     7
 10
-0.1221962
 20
118.32640000000001
 30
0.0
 40
1.0
 50
270.0
 51
303.55730999999997
  0
ARC
  5
27F
  8
0
  6
CONTINUOUS
 62
     7
 10
-0.6055641200000002
 20
118.32640000000001
 30
0.0
 40
1.0
 50
179.99998999999991
 51
270.0
  0
CIRCLE
  5
2CD
  8
0
  6
CONTINUOUS
 62
     7
 10
32.657058999999997
 20
134.32648
 30
0.0
 40
0.2
  0
TEXT
  5
2D3
  8
0
  6
CONTINUOUS
 62
     7
 10
38.822350999999991
 20
127.2926299999999
 30
0.0
 40
3.2000000000000002
  1
調整範囲
 50
90.000003000000007
 41
0.85124966
  0
TEXT
  5
2D9
  8
0
  6
CONTINUOUS
 62
     7
 10
28.819367
 20
125.79367999999999
 30
0.0
 40
2.0
  1
２ｍ／ｍ
 50
90.000003000000007
 41
0.85124966
  0
TEXT
  5
2DA
  8
0
  6
CONTINUOUS
 62
     7
 10
28.819367
 20
135.30123
 30
0.0
 40
2.0
  1
２ｍ／ｍ
 50
90.000003000000007
 41
0.85124966
  0
LINE
  5
2DD
  8
0
  6
CONTINUOUS
 62
     7
 10
32.657057999999999
 20
139.32648
 30
0.0
 11
32.657058999999997
 21
134.32648
 31
0.0
  0
LINE
  5
2DE
  8
0
  6
CONTINUOUS
 62
     7
 10
32.657057999999999
 20
139.32648
 30
0.0
 11
33.657058999999997
 21
136.32648
 31
0.0
  0
LINE
  5
2DF
  8
0
  6
CONTINUOUS
 62
     7
 10
32.657057999999999
 20
139.32648
 30
0.0
 11
31.657059
 21
136.32648
 31
0.0
  0
LINE
  5
2E6
  8
0
  6
CONTINUOUS
 62
     7
 10
32.65952999999999
 20
129.32648
 30
0.0
 11
32.659531000000001
 21
134.32648
 31
0.0
  0
LINE
  5
2E7
  8
0
  6
CONTINUOUS
 62
     7
 10
32.65952999999999
 20
129.32648
 30
0.0
 11
31.659531000000001
 21
132.32648
 31
0.0
  0
LINE
  5
2E8
  8
0
  6
CONTINUOUS
 62
     7
 10
32.65952999999999
 20
129.32648
 30
0.0
 11
33.659531000000001
 21
132.32648
 31
0.0
  0
TEXT
  5
2E9
  8
0
  6
CONTINUOUS
 62
     7
 10
0.83875924
 20
91.251396
 30
0.0
 40
2.0
  1
13
 41
1.2857145000000001
  0
LINE
  5
2EA
  8
0
  6
CONTINUOUS
 62
     7
 10
-3.3055667999999989
 20
90.751395999999986
 30
0.0
 11
3.1944332000000002
 21
90.751395999999986
 31
0.0
  0
CIRCLE
  5
2EB
  8
0
  6
CONTINUOUS
 62
     7
 10
-3.3055667999999989
 20
90.751395999999986
 30
0.0
 40
0.3
  0
LINE
  5
2EC
  8
0
  6
CONTINUOUS
 62
     7
 10
9.6944331999999989
 20
90.751395999999986
 30
0.0
 11
3.1944332000000002
 21
90.751395999999986
 31
0.0
  0
CIRCLE
  5
2ED
  8
0
  6
CONTINUOUS
 62
     7
 10
9.6944331999999989
 20
90.751395999999986
 30
0.0
 40
0.3
  0
LINE
  5
2EE
  8
0
  6
CONTINUOUS
 62
     7
 10
-3.3055667999999989
 20
112.82640000000001
 30
0.0
 11
-3.3055667999999989
 21
89.551392000000007
 31
0.0
  0
LINE
  5
2EF
  8
0
  6
CONTINUOUS
 62
     7
 10
9.6944331999999989
 20
112.82640000000001
 30
0.0
 11
9.6944331999999989
 21
89.551392000000007
 31
0.0
  0
TEXT
  5
2FB
  8
0
  6
CONTINUOUS
 62
     7
 10
22.707504
 20
107.61211
 30
0.0
 40
2.0
  1
(3)
 50
90.000003000000007
 41
1.2857143999999989
  0
LINE
  5
2FC
  8
0
  6
CONTINUOUS
 62
     7
 10
23.207504
 20
108.82640000000001
 30
0.0
 11
23.207504
 21
110.32640000000001
 31
0.0
  0
CIRCLE
  5
2FD
  8
0
  6
CONTINUOUS
 62
     7
 10
23.207504
 20
108.82640000000001
 30
0.0
 40
0.3
  0
LINE
  5
2FE
  8
0
  6
CONTINUOUS
 62
     7
 10
23.207504
 20
111.82640000000001
 30
0.0
 11
23.207504
 21
110.32640000000001
 31
0.0
  0
CIRCLE
  5
2FF
  8
0
  6
CONTINUOUS
 62
     7
 10
23.207504
 20
111.82640000000001
 30
0.0
 40
0.3
  0
LINE
  5
300
  8
0
  6
CONTINUOUS
 62
     7
 10
3.1944332000000002
 20
108.82640000000001
 30
0.0
 11
24.407502999999991
 21
108.82640000000001
 31
0.0
  0
LINE
  5
301
  8
0
  6
CONTINUOUS
 62
     7
 10
8.6944331999999989
 20
111.82640000000001
 30
0.0
 11
24.407502999999991
 21
111.82640000000001
 31
0.0
  0
TEXT
  5
302
  8
0
  6
CONTINUOUS
 62
     7
 10
22.707504
 20
117.11211
 30
0.0
 40
2.0
  1
14
 50
90.000003000000007
 41
1.2857145000000001
  0
LINE
  5
303
  8
0
  6
CONTINUOUS
 62
     7
 10
23.207504
 20
111.82640000000001
 30
0.0
 11
23.207504
 21
118.82639999999989
 31
0.0
  0
CIRCLE
  5
304
  8
0
  6
CONTINUOUS
 62
     7
 10
23.207504
 20
111.82640000000001
 30
0.0
 40
0.3
  0
LINE
  5
305
  8
0
  6
CONTINUOUS
 62
     7
 10
23.207504
 20
125.82640000000001
 30
0.0
 11
23.207504
 21
118.82639999999989
 31
0.0
  0
CIRCLE
  5
306
  8
0
  6
CONTINUOUS
 62
     7
 10
23.207504
 20
125.82640000000001
 30
0.0
 40
0.3
  0
LINE
  5
307
  8
0
  6
CONTINUOUS
 62
     7
 10
10.894429999999989
 20
125.82640000000001
 30
0.0
 11
24.407502999999991
 21
125.82640000000001
 31
0.0
  0
TEXT
  5
308
  8
0
  6
CONTINUOUS
 62
     7
 10
22.707504
 20
125.61211
 30
0.0
 40
2.0
  1
1
 50
90.000003000000007
 41
1.6071435999999999
  0
LINE
  5
309
  8
0
  6
CONTINUOUS
 62
     7
 10
23.207504
 20
125.82640000000001
 30
0.0
 11
23.207504
 21
126.32640000000001
 31
0.0
  0
CIRCLE
  5
30A
  8
0
  6
CONTINUOUS
 62
     7
 10
23.207504
 20
125.82640000000001
 30
0.0
 40
0.3
  0
LINE
  5
30B
  8
0
  6
CONTINUOUS
 62
     7
 10
23.207504
 20
126.82640000000001
 30
0.0
 11
23.207504
 21
126.32640000000001
 31
0.0
  0
CIRCLE
  5
30C
  8
0
  6
CONTINUOUS
 62
     7
 10
23.207504
 20
126.82640000000001
 30
0.0
 40
0.3
  0
LINE
  5
30D
  8
0
  6
CONTINUOUS
 62
     7
 10
9.7989864000000004
 20
126.82640000000001
 30
0.0
 11
24.407502999999991
 21
126.82640000000001
 31
0.0
  0
TEXT
  5
30E
  8
0
  6
CONTINUOUS
 62
     7
 10
-26.043092999999999
 20
114.11211
 30
0.0
 40
2.0
  1
(18)
 50
90.000003000000007
 41
1.3371429999999991
  0
LINE
  5
30F
  8
0
  6
CONTINUOUS
 62
     7
 10
-25.543092999999988
 20
108.82640000000001
 30
0.0
 11
-25.543092999999988
 21
117.82640000000001
 31
0.0
  0
CIRCLE
  5
310
  8
0
  6
CONTINUOUS
 62
     7
 10
-25.543092999999988
 20
108.82640000000001
 30
0.0
 40
0.3
  0
LINE
  5
311
  8
0
  6
CONTINUOUS
 62
     7
 10
-25.543092999999988
 20
126.82640000000001
 30
0.0
 11
-25.543092999999988
 21
117.82640000000001
 31
0.0
  0
CIRCLE
  5
312
  8
0
  6
CONTINUOUS
 62
     7
 10
-25.543092999999988
 20
126.82640000000001
 30
0.0
 40
0.3
  0
LINE
  5
313
  8
0
  6
CONTINUOUS
 62
     7
 10
0.19443321
 20
108.82640000000001
 30
0.0
 11
-26.743092999999998
 21
108.82640000000001
 31
0.0
  0
LINE
  5
314
  8
0
  6
CONTINUOUS
 62
     7
 10
-3.4097004000000002
 20
126.82640000000001
 30
0.0
 11
-26.743092999999998
 21
126.82640000000001
 31
0.0
  0
TEXT
  5
315
  8
0
  6
CONTINUOUS
 62
     7
 10
0.48014718
 20
143.19128000000001
 30
0.0
 40
2.0
  1
9.6
 41
1.3571429999999991
  0
LINE
  5
316
  8
0
  6
CONTINUOUS
 62
     7
 10
-1.6055698
 20
142.69128000000001
 30
0.0
 11
3.1944332000000002
 21
142.69128000000001
 31
0.0
  0
CIRCLE
  5
317
  8
0
  6
CONTINUOUS
 62
     7
 10
-1.6055698
 20
142.69128000000001
 30
0.0
 40
0.3
  0
LINE
  5
318
  8
0
  6
CONTINUOUS
 62
     7
 10
7.9944362999999994
 20
142.69128000000001
 30
0.0
 11
3.1944332000000002
 21
142.69128000000001
 31
0.0
  0
CIRCLE
  5
319
  8
0
  6
CONTINUOUS
 62
     7
 10
7.9944362999999994
 20
142.69128000000001
 30
0.0
 40
0.3
  0
LINE
  5
31A
  8
0
  6
CONTINUOUS
 62
     7
 10
-1.6055698
 20
127.82640000000001
 30
0.0
 11
-1.6055698
 21
143.89127999999991
 31
0.0
  0
LINE
  5
31B
  8
0
  6
CONTINUOUS
 62
     7
 10
7.9944362999999994
 20
127.82640000000001
 30
0.0
 11
7.9944362999999994
 21
143.89127999999991
 31
0.0
  0
TEXT
  5
31E
  8
0
  6
CONTINUOUS
 62
     7
 10
16.43013599999999
 20
-25.155358
 30
0.0
 40
1.6000000000000001
  1
　
 50
90.000003000000007
 41
0.90036055
  0
TEXT
  5
332
  8
0
  6
CONTINUOUS
 62
     7
 10
-17.690186999999991
 20
116.86211
 30
0.0
 40
2.0
  1
12.5
 50
90.000003000000007
 41
1.3928572999999991
  0
LINE
  5
333
  8
0
  6
CONTINUOUS
 62
     7
 10
-17.190186999999991
 20
114.32640000000001
 30
0.0
 11
-17.190186999999991
 21
120.57640000000001
 31
0.0
  0
CIRCLE
  5
334
  8
0
  6
CONTINUOUS
 62
     7
 10
-17.190186999999991
 20
114.32640000000001
 30
0.0
 40
0.3
  0
LINE
  5
335
  8
0
  6
CONTINUOUS
 62
     7
 10
-17.190186999999991
 20
126.82640000000001
 30
0.0
 11
-17.190186999999991
 21
120.57640000000001
 31
0.0
  0
CIRCLE
  5
336
  8
0
  6
CONTINUOUS
 62
     7
 10
-17.190186999999991
 20
126.82640000000001
 30
0.0
 40
0.3
  0
LINE
  5
337
  8
0
  6
CONTINUOUS
 62
     7
 10
-1.4055652999999999
 20
114.32640000000001
 30
0.0
 11
-18.390186
 21
114.32640000000001
 31
0.0
  0
LINE
  5
338
  8
0
  6
CONTINUOUS
 62
     7
 10
-3.4097004000000002
 20
126.82640000000001
 30
0.0
 11
-18.390186
 21
126.82640000000001
 31
0.0
  0
TEXT
  5
372
  8
0
  6
CONTINUOUS
 62
     7
 10
-44.569864000000003
 20
63.219642
 30
0.0
 40
1.6000000000000001
  1
　
 50
90.000003000000007
 41
0.90036055
  0
TEXT
  5
3A9
  8
0
  6
CONTINUOUS
 62
     7
 10
-17.690186999999991
 20
128.36215000000001
 30
0.0
 40
2.0
  1
6.5
 50
90.000003000000007
 41
1.3571429999999991
  0
LINE
  5
3AA
  8
0
  6
CONTINUOUS
 62
     7
 10
-17.190186999999991
 20
127.82640000000001
 30
0.0
 11
-17.190186999999991
 21
131.07643999999991
 31
0.0
  0
CIRCLE
  5
3AB
  8
0
  6
CONTINUOUS
 62
     7
 10
-17.190186999999991
 20
127.82640000000001
 30
0.0
 40
0.3
  0
LINE
  5
3AC
  8
0
  6
CONTINUOUS
 62
     7
 10
-17.190186999999991
 20
134.32648
 30
0.0
 11
-17.190186999999991
 21
131.07643999999991
 31
0.0
  0
CIRCLE
  5
3AD
  8
0
  6
CONTINUOUS
 62
     7
 10
-17.190186999999991
 20
134.32648
 30
0.0
 40
0.3
  0
LINE
  5
3AE
  8
0
  6
CONTINUOUS
 62
     7
 10
-1.1055641
 20
127.82640000000001
 30
0.0
 11
-18.390186
 21
127.82640000000001
 31
0.0
  0
LINE
  5
3AF
  8
0
  6
CONTINUOUS
 62
     7
 10
7.1944242000000003
 20
134.32648
 30
0.0
 11
-18.390186
 21
134.32648
 31
0.0
  0
TEXT
  5
3B0
  8
0
  6
CONTINUOUS
 62
     7
 10
22.707504
 20
127.86215
 30
0.0
 40
2.0
  1
7.5
 50
90.000003000000007
 41
1.3571429999999991
  0
LINE
  5
3B1
  8
0
  6
CONTINUOUS
 62
     7
 10
23.207504
 20
126.82640000000001
 30
0.0
 11
23.207504
 21
130.57643999999991
 31
0.0
  0
CIRCLE
  5
3B2
  8
0
  6
CONTINUOUS
 62
     7
 10
23.207504
 20
126.82640000000001
 30
0.0
 40
0.3
  0
LINE
  5
3B3
  8
0
  6
CONTINUOUS
 62
     7
 10
23.207504
 20
134.32648
 30
0.0
 11
23.207504
 21
130.57643999999991
 31
0.0
  0
CIRCLE
  5
3B4
  8
0
  6
CONTINUOUS
 62
     7
 10
23.207504
 20
134.32648
 30
0.0
 40
0.3
  0
LINE
  5
3B5
  8
0
  6
CONTINUOUS
 62
     7
 10
7.1944242000000003
 20
134.32648
 30
0.0
 11
24.407502999999991
 21
134.32648
 31
0.0
  0
TEXT
  5
3B6
  8
0
  6
CONTINUOUS
 62
     7
 10
-17.690186999999991
 20
126.61211
 30
0.0
 40
2.0
  1
1
 50
90.000003000000007
 41
1.6071435999999999
  0
LINE
  5
3B7
  8
0
  6
CONTINUOUS
 62
     7
 10
-17.190186999999991
 20
127.82640000000001
 30
0.0
 11
-17.190186999999991
 21
127.32640000000001
 31
0.0
  0
CIRCLE
  5
3B8
  8
0
  6
CONTINUOUS
 62
     7
 10
-17.190186999999991
 20
127.82640000000001
 30
0.0
 40
0.3
  0
LINE
  5
3B9
  8
0
  6
CONTINUOUS
 62
     7
 10
-17.190186999999991
 20
126.82640000000001
 30
0.0
 11
-17.190186999999991
 21
127.32640000000001
 31
0.0
  0
CIRCLE
  5
3BA
  8
0
  6
CONTINUOUS
 62
     7
 10
-17.190186999999991
 20
126.82640000000001
 30
0.0
 40
0.3
  0
ENDSEC
  0
EOF
