  0
SECTION
  2
HEADER
  9
$ACADVER
  1
AC1009
  9
$INSBASE
 10
0.0
 20
0.0
 30
0.0
  9
$EXTMIN
 10
-161.85764981254189
 20
92.56964197308946
 30
-0.0015258207003583
  9
$EXTMAX
 10
-94.536178009743026
 20
144.68191588586399
 30
0.0000000349246037
  9
$LIMMIN
 10
0.0
 20
0.0
  9
$LIMMAX
 10
12.0
 20
9.0
  9
$ORTHOMODE
 70
     0
  9
$REGENMODE
 70
     1
  9
$FILLMODE
 70
     1
  9
$QTEXTMODE
 70
     0
  9
$MIRRTEXT
 70
     1
  9
$DRAGMODE
 70
     2
  9
$LTSCALE
 40
1.0
  9
$OSMODE
 70
    37
  9
$ATTMODE
 70
     1
  9
$TEXTSIZE
 40
0.2
  9
$TRACEWID
 40
0.05
  9
$TEXTSTYLE
  7
STANDARD
  9
$CLAYER
  8
0
  9
$CELTYPE
  6
CONTINUOUS
  9
$CECOLOR
 62
   256
  9
$DIMSCALE
 40
1.0
  9
$DIMASZ
 40
0.18
  9
$DIMEXO
 40
0.0625
  9
$DIMDLI
 40
0.38
  9
$DIMRND
 40
0.0
  9
$DIMDLE
 40
0.0
  9
$DIMEXE
 40
0.18
  9
$DIMTP
 40
0.0
  9
$DIMTM
 40
0.0
  9
$DIMTXT
 40
0.18
  9
$DIMCEN
 40
0.09
  9
$DIMTSZ
 40
0.0
  9
$DIMTOL
 70
     0
  9
$DIMLIM
 70
     0
  9
$DIMTIH
 70
     1
  9
$DIMTOH
 70
     1
  9
$DIMSE1
 70
     0
  9
$DIMSE2
 70
     0
  9
$DIMTAD
 70
     0
  9
$DIMZIN
 70
     0
  9
$DIMBLK
  1

  9
$DIMASO
 70
     1
  9
$DIMSHO
 70
     1
  9
$DIMPOST
  1

  9
$DIMAPOST
  1

  9
$DIMALT
 70
     0
  9
$DIMALTD
 70
     2
  9
$DIMALTF
 40
25.399999999999999
  9
$DIMLFAC
 40
1.0
  9
$DIMTOFL
 70
     0
  9
$DIMTVP
 40
0.0
  9
$DIMTIX
 70
     0
  9
$DIMSOXD
 70
     0
  9
$DIMSAH
 70
     0
  9
$DIMBLK1
  1

  9
$DIMBLK2
  1

  9
$DIMSTYLE
  2
STANDARD
  9
$DIMCLRD
 70
     0
  9
$DIMCLRE
 70
     0
  9
$DIMCLRT
 70
     0
  9
$DIMTFAC
 40
1.0
  9
$DIMGAP
 40
0.09
  9
$LUNITS
 70
     2
  9
$LUPREC
 70
     4
  9
$SKETCHINC
 40
0.1
  9
$FILLETRAD
 40
0.0
  9
$AUNITS
 70
     0
  9
$AUPREC
 70
     0
  9
$MENU
  1
.
  9
$ELEVATION
 40
0.0
  9
$PELEVATION
 40
0.0
  9
$THICKNESS
 40
0.0
  9
$LIMCHECK
 70
     0
  9
$BLIPMODE
 70
     0
  9
$CHAMFERA
 40
0.0
  9
$CHAMFERB
 40
0.0
  9
$SKPOLY
 70
     0
  9
$TDCREATE
 40
2452865.6335859718
  9
$TDUPDATE
 40
2452865.6346988878
  9
$TDINDWG
 40
0.0011131019
  9
$TDUSRTIMER
 40
0.0011131019
  9
$USRTIMER
 70
     1
  9
$ANGBASE
 50
0.0
  9
$ANGDIR
 70
     0
  9
$PDMODE
 70
     0
  9
$PDSIZE
 40
0.0
  9
$PLINEWID
 40
0.0
  9
$COORDS
 70
     0
  9
$SPLFRAME
 70
     0
  9
$SPLINETYPE
 70
     6
  9
$SPLINESEGS
 70
     8
  9
$ATTDIA
 70
     1
  9
$ATTREQ
 70
     1
  9
$HANDLING
 70
     1
  9
$HANDSEED
  5
42E
  9
$SURFTAB1
 70
     6
  9
$SURFTAB2
 70
     6
  9
$SURFTYPE
 70
     6
  9
$SURFU
 70
     6
  9
$SURFV
 70
     6
  9
$UCSNAME
  2

  9
$UCSORG
 10
0.0
 20
0.0
 30
0.0
  9
$UCSXDIR
 10
1.0
 20
0.0
 30
0.0
  9
$UCSYDIR
 10
0.0
 20
1.0
 30
0.0
  9
$PUCSNAME
  2

  9
$PUCSORG
 10
0.0
 20
0.0
 30
0.0
  9
$PUCSXDIR
 10
1.0
 20
0.0
 30
0.0
  9
$PUCSYDIR
 10
0.0
 20
1.0
 30
0.0
  9
$USERI1
 70
     0
  9
$USERI2
 70
     0
  9
$USERI3
 70
     0
  9
$USERI4
 70
     0
  9
$USERI5
 70
     0
  9
$USERR1
 40
0.0
  9
$USERR2
 40
0.0
  9
$USERR3
 40
0.0
  9
$USERR4
 40
0.0
  9
$USERR5
 40
0.0
  9
$WORLDVIEW
 70
     1
  9
$SHADEDGE
 70
     3
  9
$SHADEDIF
 70
    70
  9
$TILEMODE
 70
     1
  9
$MAXACTVP
 70
    64
  9
$PLIMCHECK
 70
     0
  9
$PEXTMIN
 10
1.0000000000000000E+020
 20
1.0000000000000000E+020
 30
1.0000000000000000E+020
  9
$PEXTMAX
 10
-1.0000000000000000E+020
 20
-1.0000000000000000E+020
 30
-1.0000000000000000E+020
  9
$PLIMMIN
 10
0.0
 20
0.0
  9
$PLIMMAX
 10
12.0
 20
9.0
  9
$UNITMODE
 70
     0
  9
$VISRETAIN
 70
     1
  9
$PLINEGEN
 70
     0
  9
$PSLTSCALE
 70
     1
  0
ENDSEC
  0
SECTION
  2
TABLES
  0
TABLE
  2
VPORT
 70
     3
  0
VPORT
  2
*ACTIVE
 70
     0
 10
0.0
 20
0.0
 11
1.0
 21
1.0
 12
-128.19691391114239
 22
118.6257789294767
 13
0.0
 23
0.0
 14
1.0
 24
1.0
 15
0.0
 25
0.0
 16
0.0
 26
0.0
 36
1.0
 17
0.0
 27
0.0
 37
0.0
 40
52.490355706579521
 41
1.3389830508474569
 42
50.0
 43
0.0
 44
0.0
 50
0.0
 51
0.0
 71
     0
 72
   100
 73
     1
 74
     1
 75
     0
 76
     0
 77
     0
 78
     0
  0
ENDTAB
  0
TABLE
  2
LTYPE
 70
    19
  0
LTYPE
  2
CONTINUOUS
 70
     0
  3
Solid line
 72
    65
 73
     0
 40
0.0
  0
LTYPE
  2
DASHED
 70
     0
  3
__ __ __ __ __ __ __ __ __ __ __ __ __ __ __
 72
    65
 73
     2
 40
3.5
 49
2.0
 49
-1.5
  0
LTYPE
  2
CENTER
 70
     0
  3
____ _ ____ _ ____ _ ____ _ ____ _ ____ _ ____
 72
    65
 73
     4
 40
17.5
 49
13.0
 49
-1.5
 49
1.5
 49
-1.5
  0
LTYPE
  2
PHANTOM
 70
     0
  3
_____ _ _ _____ _ _ _____ _ _ _____ _ _ ____  
 72
    65
 73
     6
 40
15.5
 49
8.0
 49
-1.5
 49
1.5
 49
-1.5
 49
1.5
 49
-1.5
  0
LTYPE
  2
DOT
 70
     0
  3
. . . . . . . . . . . . . . . . . . . . . . . .
 72
    65
 73
     2
 40
0.25
 49
0.0
 49
-0.25
  0
LTYPE
  2
AM_ISO02W050
 70
     0
  3
__ __ __ __ __ __ __ __ __ __ __ __ __ __ __
 72
    65
 73
     2
 40
7.5
 49
6.0
 49
-1.5
  0
LTYPE
  2
AM_ISO08W050
 70
     0
  3
____ . ____ . ____ . ____ . ____ . ____ . ____
 72
    65
 73
     4
 40
18.0
 49
12.0
 49
-1.5
 49
3.0
 49
-1.5
  0
LTYPE
  2
AM_ISO09W050
 70
     0
  3
_____ . . _____ . . _____ . . ____ .. ____
 72
    65
 73
     6
 40
22.5
 49
12.0
 49
-1.5
 49
3.0
 49
-1.5
 49
3.0
 49
-1.5
  0
LTYPE
  2
AMCONSTR
 70
     0
  3
_______________________
 72
    65
 73
     2
 40
9999.0
 49
9999.0
 49
0.0
  0
LTYPE
  2
AM_ISO08W050X2
 70
     0
  3
__ . __ . __ . __ . __ . __
 72
    65
 73
     4
 40
9.0
 49
6.0
 49
-0.75
 49
1.5
 49
-0.75
  0
LTYPE
  2
AM_ISO02W050X2
 70
     0
  3
 _ _ _ _ _ _ _ _ _ _ _ _
 72
    65
 73
     2
 40
3.75
 49
3.0
 49
-0.75
  0
LTYPE
  2
AMZIGZAG
 70
     0
  3
/\/-/\/-/\/-/\/-/\/-/\/
 72
    65
 73
     2
 40
11.000099999999991
 49
0.0001
 49
-11.0
  0
LTYPE
  2
HIDDEN
 70
     0
  3
Hidden __ __ __ __ __ __ __ __ __ __ __ __ __ _
 72
    65
 73
     2
 40
0.375
 49
0.25
 49
-0.125
  0
LTYPE
  2
PHANTOM2
 70
     0
  3
Phantom (.5x) ___ _ _ ___ _ _ ___ _ _ ___ _ _
 72
    65
 73
     6
 40
1.25
 49
0.625
 49
-0.125
 49
0.125
 49
-0.125
 49
0.125
 49
-0.125
  0
LTYPE
  2
CENTER2
 70
     0
  3
Center (.5x) ___ _ ___ _ ___ _ ___ _ ___ _ ___
 72
    65
 73
     4
 40
1.125
 49
0.75
 49
-0.125
 49
0.125
 49
-0.125
  0
LTYPE
  2
HIDDEN2
 70
     0
  3
Hidden (.5x) _ _ _ _ _ _ _ _ _ _ _ _ _ _ _ _ _
 72
    65
 73
     2
 40
0.1875
 49
0.125
 49
-0.0625
  0
LTYPE
  2
AMZIGZAG2
 70
     0
  3
/\/-/\/-/\/-/\/-/\/-/\/
 72
    65
 73
     2
 40
0.4401
 49
0.0001
 49
-0.4400000000000001
  0
LTYPE
  2
ACANSTGB
 70
     0
  3
__ . . __ . .
 72
    65
 73
     6
 40
0.35433070866
 49
0.15748031496
 49
-0.03937007874
 49
0.03937007874
 49
-0.03937007874
 49
0.03937007874
 49
-0.03937007874
  0
LTYPE
  2
ACANSTGL
 70
     0
  3
_ _ _ _ _
 72
    65
 73
     2
 40
0.11811023622
 49
0.07874015748
 49
-0.03937007874
  0
ENDTAB
  0
TABLE
  2
LAYER
 70
     3
  0
LAYER
  2
0
 70
     0
 62
     7
  6
CONTINUOUS
  0
LAYER
  2
1
 70
     0
 62
     7
  6
CONTINUOUS
  0
LAYER
  2
2
 70
     0
 62
     7
  6
CONTINUOUS
  0
ENDTAB
  0
TABLE
  2
STYLE
 70
     4
  0
STYLE
  2
STANDARD
 70
     0
 40
0.0
 41
1.0
 50
0.0
 71
     0
 42
0.2
  3
txt
  4
BIGFONT
  0
STYLE
  2

 70
     1
 40
0.0
 41
1.0
 50
0.0
 71
     0
 42
0.2
  3
ltypeshp.shx
  4

  0
STYLE
  2
ACANSTS
 70
     0
 40
1.0
 41
1.0
 50
0.0
 71
     0
 42
0.2
  3
romans.shx
  4
extfont.shx
  0
STYLE
  2
ACANSGDT
 70
     0
 40
0.0
 41
1.0
 50
0.0
 71
     0
 42
0.2
  3
amgdtans.shx
  4

  0
ENDTAB
  0
TABLE
  2
VIEW
 70
     0
  0
ENDTAB
  0
TABLE
  2
UCS
 70
     0
  0
ENDTAB
  0
TABLE
  2
APPID
 70
     4
  0
APPID
  2
ACAD
 70
     0
  0
APPID
  2
MCAD_NO_VIS
 70
     0
  0
APPID
  2
ACAD_TEMP_GRAPHIC
 70
     0
  0
APPID
  2
ACATTRIBSERVICES
 70
     0
  0
ENDTAB
  0
TABLE
  2
DIMSTYLE
 70
     7
  0
DIMSTYLE
  2
STANDARD
 70
     0
  3

  4

  5

  6

  7

 40
1.0
 41
0.18
 42
0.0625
 43
0.38
 44
0.18
 45
0.0
 46
0.0
 47
0.0
 48
0.0
140
0.18
141
0.09
142
0.0
143
25.399999999999999
144
1.0
145
0.0
146
1.0
147
0.09
 71
     0
 72
     0
 73
     1
 74
     1
 75
     0
 76
     0
 77
     0
 78
     0
170
     0
171
     2
172
     0
173
     0
174
     0
175
     0
176
     0
177
     0
178
     0
  0
DIMSTYLE
  2
AM_ANSI
 70
     0
  3

  4
mm
  5

  6

  7

 40
1.0
 41
0.1
 42
0.05
 43
0.5
 44
0.1
 45
0.0
 46
0.0
 47
0.1
 48
0.1
140
0.12
141
0.0
142
0.0
143
25.399999999999999
144
1.0
145
0.0
146
0.71
147
0.06
 71
     0
 72
     0
 73
     1
 74
     1
 75
     0
 76
     0
 77
     0
 78
     7
170
     0
171
     2
172
     0
173
     0
174
     0
175
     0
176
   256
177
   256
178
     2
  0
DIMSTYLE
  2
AM_ANSI$3
 70
     0
  3

  4
mm
  5

  6

  7

 40
1.0
 41
0.1
 42
0.05
 43
0.5
 44
0.1
 45
0.0
 46
0.0
 47
0.1
 48
0.1
140
0.12
141
0.0
142
0.0
143
25.399999999999999
144
1.0
145
0.0
146
0.71
147
0.06
 71
     0
 72
     0
 73
     1
 74
     1
 75
     0
 76
     0
 77
     0
 78
     7
170
     0
171
     2
172
     0
173
     0
174
     0
175
     0
176
   256
177
   256
178
     2
  0
DIMSTYLE
  2
AM_ANSI$4
 70
     0
  3

  4
mm
  5

  6

  7

 40
1.0
 41
0.1
 42
0.05
 43
0.5
 44
0.1
 45
0.0
 46
0.0
 47
0.1
 48
0.1
140
0.12
141
0.0
142
0.0
143
25.399999999999999
144
1.0
145
0.0
146
0.71
147
0.06
 71
     0
 72
     0
 73
     1
 74
     1
 75
     0
 76
     0
 77
     0
 78
     7
170
     0
171
     2
172
     0
173
     0
174
     0
175
     0
176
   256
177
   256
178
     2
  0
DIMSTYLE
  2
AM_ANSI$7
 70
     0
  3

  4
mm
  5

  6

  7

 40
1.0
 41
0.1
 42
0.05
 43
0.5
 44
0.1
 45
0.0
 46
0.0
 47
0.1
 48
0.1
140
0.24
141
0.0
142
0.0
143
25.399999999999999
144
1.0
145
0.0
146
0.71
147
0.06
 71
     0
 72
     0
 73
     1
 74
     1
 75
     0
 76
     0
 77
     0
 78
     7
170
     0
171
     2
172
     0
173
     0
174
     0
175
     0
176
   256
177
   256
178
     2
  0
DIMSTYLE
  2
AM_ANSI$SF
 70
     0
  3

  4
mm
  5

  6

  7

 40
1.0
 41
0.1
 42
0.05
 43
0.5
 44
0.1
 45
0.0
 46
0.0
 47
0.1
 48
0.1
140
0.12
141
0.0
142
0.0
143
25.399999999999999
144
1.0
145
0.0
146
0.71
147
0.06
 71
     0
 72
     0
 73
     1
 74
     1
 75
     1
 76
     1
 77
     0
 78
     7
170
     0
171
     2
172
     0
173
     0
174
     0
175
     0
176
   256
177
   256
178
     2
  0
DIMSTYLE
  2
AM_ANSI$SH
 70
     0
  3

  4
mm
  5

  6
GENAXEH
  7

 40
1.0
 41
0.1
 42
0.05
 43
0.5
 44
0.1
 45
0.0
 46
0.0
 47
0.1
 48
0.1
140
0.12
141
0.0
142
0.0
143
25.399999999999999
144
1.0
145
0.0
146
0.71
147
0.06
 71
     0
 72
     0
 73
     1
 74
     1
 75
     1
 76
     1
 77
     0
 78
     7
170
     0
171
     2
172
     0
173
     1
174
     0
175
     0
176
   256
177
   256
178
     2
  0
ENDTAB
  0
ENDSEC
  0
SECTION
  2
BLOCKS
  0
BLOCK
  8
0
  2
$MODEL_SPACE
 70
     0
 10
0.0
 20
0.0
 30
0.0
  3
$MODEL_SPACE
  1

  0
ENDBLK
  5
20
  8
0
  0
BLOCK
 67
     1
  8
0
  2
$PAPER_SPACE
 70
     0
 10
0.0
 20
0.0
 30
0.0
  3
$PAPER_SPACE
  1

  0
ENDBLK
  5
1C
 67
     1
  8
0
  0
BLOCK
  8
0
  2
GENAXEH
 70
     0
 10
0.0
 20
0.0
 30
0.0
  3
GENAXEH
  1

  0
LINE
  5
413
  8
0
 10
-1.0
 20
0.0
 30
0.0
 11
1.0
 21
0.0
 31
0.0
  0
ENDBLK
  5
415
  8
0
  0
ENDSEC
  0
SECTION
  2
ENTITIES
  0
LINE
  5
2F
  8
0
  6
CENTER
 62
     7
 10
-132.10554999999991
 20
109.78305999999991
 30
0.0
 11
-132.10554999999991
 21
130.28489999999991
 31
0.0
  0
LINE
  5
5C
  8
0
  6
CONTINUOUS
 62
     7
 10
-139.7055399999999
 20
127.52633999999991
 30
0.0
 11
-139.7055399999999
 21
114.52633999999991
 31
0.0
  0
LINE
  5
5D
  8
0
  6
CONTINUOUS
 62
     7
 10
-140.90555000000001
 20
127.52633999999991
 30
0.0
 11
-139.7055399999999
 21
127.52633999999991
 31
0.0
  0
LINE
  5
5E
  8
0
  6
CONTINUOUS
 62
     7
 10
-139.8096899999999
 20
128.52634
 30
0.0
 11
-138.80553999999989
 21
128.52634
 31
0.0
  0
LINE
  5
5F
  8
0
  6
CONTINUOUS
 62
     7
 10
-138.30553999999989
 20
128.02634
 30
0.0
 11
-138.30553999999989
 21
116.52633999999991
 31
0.0
  0
LINE
  5
60
  8
0
  6
CONTINUOUS
 62
     7
 10
-137.80553999999989
 20
116.02633999999991
 30
0.0
 11
-128.60556
 21
116.02633999999991
 31
0.0
  0
LINE
  5
61
  8
0
  6
CONTINUOUS
 62
     7
 10
-128.10555999999991
 20
128.02634
 30
0.0
 11
-128.10555999999991
 21
116.52633999999991
 31
0.0
  0
LINE
  5
62
  8
0
  6
CONTINUOUS
 62
     7
 10
-127.60554999999999
 20
128.52634
 30
0.0
 11
-126.60099
 21
128.52634
 31
0.0
  0
LINE
  5
63
  8
0
  6
CONTINUOUS
 62
     7
 10
-126.7055399999999
 20
127.52633999999991
 30
0.0
 11
-125.50555
 21
127.52633999999991
 31
0.0
  0
LINE
  5
64
  8
0
  6
CONTINUOUS
 62
     7
 10
-126.7055399999999
 20
127.52633999999991
 30
0.0
 11
-126.7055399999999
 21
114.52633999999991
 31
0.0
  0
LINE
  5
65
  8
0
  6
CONTINUOUS
 62
     7
 10
-138.7055399999999
 20
113.52633999999991
 30
0.0
 11
-127.10554999999989
 21
113.52633999999991
 31
0.0
  0
LINE
  5
77
  8
0
  6
CONTINUOUS
 62
     7
 10
-130.60554999999999
 20
110.52633999999991
 30
0.0
 11
-133.60554999999999
 21
110.52633999999991
 31
0.0
  0
LINE
  5
78
  8
0
  6
CONTINUOUS
 62
     7
 10
-137.10554999999991
 20
113.52633999999991
 30
0.0
 11
-137.10554999999991
 21
113.22633999999999
 31
0.0
  0
LINE
  5
79
  8
0
  6
CONTINUOUS
 62
     7
 10
-127.10554999999989
 20
113.22633999999999
 30
0.0
 11
-137.10554999999991
 21
113.22633999999999
 31
0.0
  0
LINE
  5
7A
  8
0
  6
CONTINUOUS
 62
     7
 10
-130.1812699999999
 20
112.22633999999999
 30
0.0
 11
-134.02982
 21
112.22633999999999
 31
0.0
  0
LINE
  5
7B
  8
0
  6
CONTINUOUS
 62
     7
 10
-133.60554999999999
 20
112.22633999999999
 30
0.0
 11
-133.60554999999999
 21
110.52633999999991
 31
0.0
  0
LINE
  5
7C
  8
0
  6
CONTINUOUS
 62
     7
 10
-130.60554999999999
 20
112.22633999999999
 30
0.0
 11
-130.60554999999999
 21
110.52633999999991
 31
0.0
  0
LINE
  5
7D
  8
0
  6
CONTINUOUS
 62
     7
 10
-135.02979999999991
 20
113.22635
 30
0.0
 11
-134.02979999999991
 21
112.22635
 31
0.0
  0
LINE
  5
7E
  8
0
  6
CONTINUOUS
 62
     7
 10
-129.1812899999999
 20
113.22635
 30
0.0
 11
-130.1812699999999
 21
112.22635
 31
0.0
  0
LINE
  5
7F
  8
0
  6
CONTINUOUS
 62
     7
 10
-133.60337999999999
 20
113.22633999999999
 30
0.0
 11
-133.02602999999991
 21
112.22635
 31
0.0
  0
LINE
  5
80
  8
0
  6
CONTINUOUS
 62
     7
 10
-130.60770999999991
 20
113.22633999999999
 30
0.0
 11
-131.18505999999999
 21
112.22633999999999
 31
0.0
  0
LINE
  5
D8
  8
0
  6
DASHED
 62
     7
 10
-135.4555399999999
 20
113.52633999999991
 30
0.0
 11
-135.4555399999999
 21
115.1763499999999
 31
0.0
  0
LINE
  5
DF
  8
0
  6
DASHED
 62
     7
 10
-136.30553999999989
 20
116.02633999999991
 30
0.0
 11
-135.4555499999999
 21
115.1763499999999
 31
0.0
  0
LINE
  5
E1
  8
0
  6
CONTINUOUS
 62
     7
 10
-127.10554999999989
 20
113.52633999999991
 30
0.0
 11
-127.10554999999989
 21
113.22633999999999
 31
0.0
  0
LINE
  5
E6
  8
0
  6
CONTINUOUS
 62
     7
 10
-128.90555000000001
 20
119.02633999999991
 30
0.0
 11
-131.81264999999991
 21
119.02633999999991
 31
0.0
  0
LINE
  5
E7
  8
0
  6
CONTINUOUS
 62
     7
 10
-138.00554
 20
124.02633999999991
 30
0.0
 11
-138.00554
 21
128.52634
 31
0.0
  0
LINE
  5
E8
  8
0
  6
CONTINUOUS
 62
     7
 10
-132.39843999999999
 20
119.02633999999991
 30
0.0
 11
-136.50553999999991
 21
119.02633999999991
 31
0.0
  0
LINE
  5
E9
  8
0
  6
CONTINUOUS
 62
     7
 10
-132.10554999999991
 20
119.31923999999999
 30
0.0
 11
-132.39843999999999
 21
119.02633999999991
 31
0.0
  0
LINE
  5
EA
  8
0
  6
CONTINUOUS
 62
     7
 10
-131.81264999999991
 20
119.02633999999991
 30
0.0
 11
-132.10554999999991
 21
119.31923999999999
 31
0.0
  0
LINE
  5
F3
  8
0
  6
CONTINUOUS
 62
     7
 10
-137.00554
 20
119.52633999999991
 30
0.0
 11
-137.00554
 21
121.52633999999991
 31
0.0
  0
LINE
  5
F5
  8
0
  6
CONTINUOUS
 62
     7
 10
-136.00554
 20
120.52633999999991
 30
0.0
 11
-134.80553999999989
 21
120.52633999999991
 31
0.0
  0
LINE
  5
F7
  8
0
  6
CONTINUOUS
 62
     7
 10
-136.00554
 20
120.52633999999991
 30
0.0
 11
-136.00554
 21
121.52633999999991
 31
0.0
  0
LINE
  5
F9
  8
0
  6
CONTINUOUS
 62
     7
 10
-137.00554
 20
121.52633999999991
 30
0.0
 11
-136.00554
 21
121.52633999999991
 31
0.0
  0
LINE
  5
FC
  8
0
  6
CONTINUOUS
 62
     7
 10
-137.00554
 20
123.02633999999991
 30
0.0
 11
-136.00554
 21
123.02633999999991
 31
0.0
  0
LINE
  5
FD
  8
0
  6
CONTINUOUS
 62
     7
 10
-136.00554
 20
123.02633999999991
 30
0.0
 11
-136.00554
 21
124.02633999999991
 31
0.0
  0
LINE
  5
FE
  8
0
  6
CONTINUOUS
 62
     7
 10
-136.00554
 20
124.02633999999991
 30
0.0
 11
-134.80553999999989
 21
124.02633999999991
 31
0.0
  0
LINE
  5
100
  8
0
  6
CONTINUOUS
 62
     7
 10
-134.80553999999989
 20
120.52633999999991
 30
0.0
 11
-134.80553999999989
 21
124.02633999999991
 31
0.0
  0
LINE
  5
102
  8
0
  6
CONTINUOUS
 62
     7
 10
-128.40555000000001
 20
119.52633999999991
 30
0.0
 11
-128.40555000000001
 21
128.52634
 31
0.0
  0
LINE
  5
104
  8
0
  6
CONTINUOUS
 62
     7
 10
-137.00554
 20
129.52634
 30
0.0
 11
-136.5221699999999
 21
129.52634
 31
0.0
  0
LINE
  5
105
  8
0
  6
CONTINUOUS
 62
     7
 10
-129.40555000000001
 20
129.52634
 30
0.0
 11
-129.8889199999999
 21
129.52634
 31
0.0
  0
LINE
  5
236
  8
0
  6
CONTINUOUS
 62
     7
 10
-154.9567899999999
 20
129.52634
 30
0.0
 11
-146.53822
 21
129.52634
 31
0.0
  0
ARC
  5
24D
  8
0
  6
CONTINUOUS
 62
     7
 10
-138.80553999999989
 20
128.02634
 30
0.0
 40
0.5
 50
0.0
 51
90.000003000000007
  0
ARC
  5
24E
  8
0
  6
CONTINUOUS
 62
     7
 10
-126.60099
 20
126.52634
 30
0.0
 40
2.0
 50
49.880834
 51
90.000003000000007
  0
ARC
  5
24F
  8
0
  6
CONTINUOUS
 62
     7
 10
-127.60554999999999
 20
128.02634
 30
0.0
 40
0.5
 50
90.000003000000007
 51
180.00001
  0
ARC
  5
250
  8
0
  6
CONTINUOUS
 62
     7
 10
-137.80553999999989
 20
116.52633999999991
 30
0.0
 40
0.5
 50
179.99997999999991
 51
270.00002999999992
  0
ARC
  5
251
  8
0
  6
CONTINUOUS
 62
     7
 10
-127.7055399999999
 20
114.52633999999991
 30
0.0
 40
1.0
 50
270.00002000000001
 51
0.0
  0
ARC
  5
252
  8
0
  6
CONTINUOUS
 62
     7
 10
-125.50555
 20
127.82634999999991
 30
0.0
 40
0.30000001
 50
269.99998999999991
 51
49.880844000000003
  0
ARC
  5
253
  8
0
  6
CONTINUOUS
 62
     7
 10
-140.90555000000001
 20
127.82634999999991
 30
0.0
 40
0.30000001
 50
127.47969999999989
 51
270.0
  0
ARC
  5
254
  8
0
  6
CONTINUOUS
 62
     7
 10
-138.7055399999999
 20
114.52633999999991
 30
0.0
 40
1.0
 50
179.99997999999991
 51
270.00002999999992
  0
ARC
  5
255
  8
0
  6
CONTINUOUS
 62
     7
 10
-139.8096899999999
 20
126.52634
 30
0.0
 40
2.0
 50
90.000003000000007
 51
130.52749999999989
  0
ARC
  5
256
  8
0
  6
CONTINUOUS
 62
     7
 10
-128.60556
 20
116.52633999999991
 30
0.0
 40
0.5
 50
270.00002000000001
 51
0.0
  0
ARC
  5
26F
  8
0
  6
CONTINUOUS
 62
     7
 10
-128.90555000000001
 20
119.52633999999991
 30
0.0
 40
0.5
 50
270.0
 51
0.0000050089569
  0
ARC
  5
270
  8
0
  6
CONTINUOUS
 62
     7
 10
-136.50553999999991
 20
119.52633999999991
 30
0.0
 40
0.5
 50
179.99998999999991
 51
270.0
  0
ARC
  5
271
  8
0
  6
CONTINUOUS
 62
     7
 10
-137.00554
 20
124.02633999999991
 30
0.0
 40
1.0
 50
179.99998999999991
 51
270.0
  0
ARC
  5
272
  8
0
  6
CONTINUOUS
 62
     7
 10
-137.00554
 20
128.52634
 30
0.0
 40
1.0
 50
90.000003000000007
 51
180.00001
  0
ARC
  5
273
  8
0
  6
CONTINUOUS
 62
     7
 10
-129.40555000000001
 20
128.52634
 30
0.0
 40
1.0
 50
0.0
 51
90.000003000000007
  0
ARC
  5
275
  8
0
  6
CONTINUOUS
 62
     7
 10
-136.5221699999999
 20
128.52634
 30
0.0
 40
1.0
 50
56.442689000000001
 51
90.000003000000007
  0
ARC
  5
276
  8
0
  6
CONTINUOUS
 62
     7
 10
-133.2055399999999
 20
133.52634
 30
0.0
 40
5.0
 50
236.44267999999991
 51
303.55730999999997
  0
ARC
  5
277
  8
0
  6
CONTINUOUS
 62
     7
 10
-129.8889199999999
 20
128.52634
 30
0.0
 40
1.0
 50
90.000003000000007
 51
123.5573199999999
  0
CIRCLE
  5
2CE
  8
0
  6
CONTINUOUS
 62
     7
 10
-154.9567899999999
 20
129.52634
 30
0.0
 40
0.2
  0
TEXT
  5
2D4
  8
0
  6
CONTINUOUS
 62
     7
 10
-158.64439999999999
 20
121.7505899999999
 30
0.0
 40
3.2000000000000002
  1
調整範囲
 50
90.000003000000007
 41
0.85124966
  0
TEXT
  5
2DB
  8
0
  6
CONTINUOUS
 62
     7
 10
-150.07146
 20
121.4047399999999
 30
0.0
 40
2.0
  1
2m/m
 50
90.000003000000007
 41
1.012987099999999
  0
TEXT
  5
2DC
  8
0
  6
CONTINUOUS
 62
     7
 10
-150.07146
 20
129.82512999999989
 30
0.0
 40
2.0
  1
2m/m
 50
90.000003000000007
 41
1.012987099999999
  0
LINE
  5
2E0
  8
0
  6
CONTINUOUS
 62
     7
 10
-154.9567899999999
 20
134.52634
 30
0.0
 11
-154.9567899999999
 21
129.52634
 31
0.0
  0
LINE
  5
2E1
  8
0
  6
CONTINUOUS
 62
     7
 10
-154.9567899999999
 20
134.52634
 30
0.0
 11
-153.9567899999999
 21
131.52634
 31
0.0
  0
LINE
  5
2E2
  8
0
  6
CONTINUOUS
 62
     7
 10
-154.9567899999999
 20
134.52634
 30
0.0
 11
-155.9567899999999
 21
131.52634
 31
0.0
  0
LINE
  5
2E3
  8
0
  6
CONTINUOUS
 62
     7
 10
-154.95484999999999
 20
124.52634
 30
0.0
 11
-154.95484999999999
 21
129.52634
 31
0.0
  0
LINE
  5
2E4
  8
0
  6
CONTINUOUS
 62
     7
 10
-154.95484999999999
 20
124.52634
 30
0.0
 11
-155.95484999999999
 21
127.52633999999991
 31
0.0
  0
LINE
  5
2E5
  8
0
  6
CONTINUOUS
 62
     7
 10
-154.95484999999999
 20
124.52634
 30
0.0
 11
-153.95484999999991
 21
127.52633999999991
 31
0.0
  0
TEXT
  5
31E
  8
0
  6
CONTINUOUS
 62
     7
 10
16.43013599999999
 20
-25.155358
 30
0.0
 40
1.6000000000000001
  1
　
 50
90.000003000000007
 41
0.90036055
  0
TEXT
  5
339
  8
0
  6
CONTINUOUS
 62
     7
 10
-134.9198199999999
 20
94.278380999999996
 30
0.0
 40
2.0
  1
13
 41
1.2857145000000001
  0
LINE
  5
33A
  8
0
  6
CONTINUOUS
 62
     7
 10
-139.7055399999999
 20
93.77838100000001
 30
0.0
 11
-133.2055399999999
 21
93.77838100000001
 31
0.0
  0
CIRCLE
  5
33B
  8
0
  6
CONTINUOUS
 62
     7
 10
-139.7055399999999
 20
93.77838100000001
 30
0.0
 40
0.3
  0
LINE
  5
33C
  8
0
  6
CONTINUOUS
 62
     7
 10
-126.7055399999999
 20
93.77838100000001
 30
0.0
 11
-133.2055399999999
 21
93.77838100000001
 31
0.0
  0
CIRCLE
  5
33D
  8
0
  6
CONTINUOUS
 62
     7
 10
-126.7055399999999
 20
93.77838100000001
 30
0.0
 40
0.3
  0
LINE
  5
33E
  8
0
  6
CONTINUOUS
 62
     7
 10
-139.7055399999999
 20
114.52633999999991
 30
0.0
 11
-139.7055399999999
 21
92.578384
 31
0.0
  0
LINE
  5
33F
  8
0
  6
CONTINUOUS
 62
     7
 10
-126.7055399999999
 20
114.52633999999991
 30
0.0
 11
-126.7055399999999
 21
92.578384
 31
0.0
  0
TEXT
  5
34B
  8
0
  6
CONTINUOUS
 62
     7
 10
-96.251082999999994
 20
115.8120599999999
 30
0.0
 40
2.0
  1
(18)
 50
90.000003000000007
 41
1.3371429999999991
  0
LINE
  5
34C
  8
0
  6
CONTINUOUS
 62
     7
 10
-95.751082999999994
 20
110.52633999999991
 30
0.0
 11
-95.751082999999994
 21
119.52633999999991
 31
0.0
  0
CIRCLE
  5
34D
  8
0
  6
CONTINUOUS
 62
     7
 10
-95.751082999999994
 20
110.52633999999991
 30
0.0
 40
0.3
  0
LINE
  5
34E
  8
0
  6
CONTINUOUS
 62
     7
 10
-95.751082999999994
 20
128.52634
 30
0.0
 11
-95.751082999999994
 21
119.52633999999991
 31
0.0
  0
CIRCLE
  5
34F
  8
0
  6
CONTINUOUS
 62
     7
 10
-95.751082999999994
 20
128.52634
 30
0.0
 40
0.3
  0
LINE
  5
350
  8
0
  6
CONTINUOUS
 62
     7
 10
-130.2055399999999
 20
110.52633999999991
 30
0.0
 11
-94.551078999999987
 21
110.52633999999991
 31
0.0
  0
LINE
  5
351
  8
0
  6
CONTINUOUS
 62
     7
 10
-126.60099
 20
128.52634
 30
0.0
 11
-94.551078999999987
 21
128.52634
 31
0.0
  0
TEXT
  5
352
  8
0
  6
CONTINUOUS
 62
     7
 10
-106.0963399999999
 20
118.56206
 30
0.0
 40
2.0
  1
12.5
 50
90.000003000000007
 41
1.3928572999999991
  0
LINE
  5
353
  8
0
  6
CONTINUOUS
 62
     7
 10
-105.5963399999999
 20
116.02633999999991
 30
0.0
 11
-105.5963399999999
 21
122.27633999999991
 31
0.0
  0
CIRCLE
  5
354
  8
0
  6
CONTINUOUS
 62
     7
 10
-105.5963399999999
 20
116.02633999999991
 30
0.0
 40
0.3
  0
LINE
  5
355
  8
0
  6
CONTINUOUS
 62
     7
 10
-105.5963399999999
 20
128.52634
 30
0.0
 11
-105.5963399999999
 21
122.27633999999991
 31
0.0
  0
CIRCLE
  5
356
  8
0
  6
CONTINUOUS
 62
     7
 10
-105.5963399999999
 20
128.52634
 30
0.0
 40
0.3
  0
LINE
  5
357
  8
0
  6
CONTINUOUS
 62
     7
 10
-128.60556
 20
116.02633999999991
 30
0.0
 11
-104.39634
 21
116.02633999999991
 31
0.0
  0
TEXT
  5
358
  8
0
  6
CONTINUOUS
 62
     7
 10
-135.9198199999999
 20
142.6642499999999
 30
0.0
 40
2.0
  1
9.6
 41
1.3571429999999991
  0
LINE
  5
359
  8
0
  6
CONTINUOUS
 62
     7
 10
-138.00555
 20
142.16425000000001
 30
0.0
 11
-133.2055499999999
 21
142.16425000000001
 31
0.0
  0
CIRCLE
  5
35A
  8
0
  6
CONTINUOUS
 62
     7
 10
-138.00555
 20
142.16425000000001
 30
0.0
 40
0.3
  0
LINE
  5
35B
  8
0
  6
CONTINUOUS
 62
     7
 10
-128.40555000000001
 20
142.16425000000001
 30
0.0
 11
-133.2055499999999
 21
142.16425000000001
 31
0.0
  0
CIRCLE
  5
35C
  8
0
  6
CONTINUOUS
 62
     7
 10
-128.40555000000001
 20
142.16425000000001
 30
0.0
 40
0.3
  0
LINE
  5
35D
  8
0
  6
CONTINUOUS
 62
     7
 10
-138.00555
 20
128.42723000000001
 30
0.0
 11
-138.00555
 21
143.36423999999991
 31
0.0
  0
LINE
  5
35E
  8
0
  6
CONTINUOUS
 62
     7
 10
-128.40555000000001
 20
128.42723000000001
 30
0.0
 11
-128.40555000000001
 21
143.36423999999991
 31
0.0
  0
TEXT
  5
369
  8
0
  6
CONTINUOUS
 62
     7
 10
-113.66038
 20
120.56206
 30
0.0
 40
2.0
  1
10.5
 50
90.000003000000007
 41
1.4857143999999991
  0
LINE
  5
36A
  8
0
  6
CONTINUOUS
 62
     7
 10
-113.16038999999989
 20
129.52634
 30
0.0
 11
-113.16038999999989
 21
124.27633999999991
 31
0.0
  0
CIRCLE
  5
36B
  8
0
  6
CONTINUOUS
 62
     7
 10
-113.16038999999989
 20
129.52634
 30
0.0
 40
0.3
  0
LINE
  5
36C
  8
0
  6
CONTINUOUS
 62
     7
 10
-113.16038999999989
 20
119.02633999999991
 30
0.0
 11
-113.16038999999989
 21
124.27633999999991
 31
0.0
  0
CIRCLE
  5
36D
  8
0
  6
CONTINUOUS
 62
     7
 10
-113.16038999999989
 20
119.02633999999991
 30
0.0
 40
0.3
  0
LINE
  5
36E
  8
0
  6
CONTINUOUS
 62
     7
 10
-129.40555000000001
 20
129.52634
 30
0.0
 11
-111.9603799999999
 21
129.52634
 31
0.0
  0
LINE
  5
36F
  8
0
  6
CONTINUOUS
 62
     7
 10
-128.90555000000001
 20
119.02633999999991
 30
0.0
 11
-111.9603799999999
 21
119.02633999999991
 31
0.0
  0
TEXT
  5
372
  8
0
  6
CONTINUOUS
 62
     7
 10
-44.569864000000003
 20
63.219642
 30
0.0
 40
1.6000000000000001
  1
　
 50
90.000003000000007
 41
0.90036055
  0
TEXT
  5
3BB
  8
0
  6
CONTINUOUS
 62
     7
 10
-147.03821999999991
 20
128.31205
 30
0.0
 40
2.0
  1
1
 50
90.000003000000007
 41
1.6071435999999999
  0
LINE
  5
3BC
  8
0
  6
CONTINUOUS
 62
     7
 10
-146.53822
 20
128.52634
 30
0.0
 11
-146.53822
 21
129.02634
 31
0.0
  0
CIRCLE
  5
3BD
  8
0
  6
CONTINUOUS
 62
     7
 10
-146.53822
 20
128.52634
 30
0.0
 40
0.3
  0
LINE
  5
3BE
  8
0
  6
CONTINUOUS
 62
     7
 10
-146.53822
 20
129.52634
 30
0.0
 11
-146.53822
 21
129.02634
 31
0.0
  0
CIRCLE
  5
3BF
  8
0
  6
CONTINUOUS
 62
     7
 10
-146.53822
 20
129.52634
 30
0.0
 40
0.3
  0
LINE
  5
3C0
  8
0
  6
CONTINUOUS
 62
     7
 10
-139.8096899999999
 20
128.52634
 30
0.0
 11
-147.7382199999999
 21
128.52634
 31
0.0
  0
LINE
  5
3C1
  8
0
  6
CONTINUOUS
 62
     7
 10
-137.00554
 20
129.52634
 30
0.0
 11
-147.7382199999999
 21
129.52634
 31
0.0
  0
TEXT
  5
3C2
  8
0
  6
CONTINUOUS
 62
     7
 10
-147.03821999999991
 20
127.31205
 30
0.0
 40
2.0
  1
1
 50
90.000003000000007
 41
1.6071435999999999
  0
LINE
  5
3C3
  8
0
  6
CONTINUOUS
 62
     7
 10
-146.53822
 20
128.52634
 30
0.0
 11
-146.53822
 21
128.02634
 31
0.0
  0
CIRCLE
  5
3C4
  8
0
  6
CONTINUOUS
 62
     7
 10
-146.53822
 20
128.52634
 30
0.0
 40
0.3
  0
LINE
  5
3C5
  8
0
  6
CONTINUOUS
 62
     7
 10
-146.53822
 20
127.52633999999991
 30
0.0
 11
-146.53822
 21
128.02634
 31
0.0
  0
CIRCLE
  5
3C6
  8
0
  6
CONTINUOUS
 62
     7
 10
-146.53822
 20
127.52633999999991
 30
0.0
 40
0.3
  0
LINE
  5
3C7
  8
0
  6
CONTINUOUS
 62
     7
 10
-140.90555000000001
 20
127.52633999999991
 30
0.0
 11
-147.7382199999999
 21
127.52633999999991
 31
0.0
  0
ENDSEC
  0
EOF
