  0
SECTION
  2
HEADER
  9
$ACADVER
  1
AC1027
  9
$ACADMAINTVER
 70
   105
  9
$DWGCODEPAGE
  3
ANSI_932
  9
$REQUIREDVERSIONS
160
                 0
  9
$LASTSAVEDBY
  1
G1032U
  9
$INSBASE
 10
0.0
 20
0.0
 30
0.0
  9
$EXTMIN
 10
0.0
 20
0.0
 30
0.0
  9
$EXTMAX
 10
1001.327437083332
 20
686.1943399999999
 30
0.0
  9
$LIMMIN
 10
375.66077
 20
263.69434
  9
$LIMMAX
 10
969.66077
 20
683.69434
  9
$ORTHOMODE
 70
     0
  9
$REGENMODE
 70
     1
  9
$FILLMODE
 70
     1
  9
$QTEXTMODE
 70
     0
  9
$MIRRTEXT
 70
     0
  9
$LTSCALE
 40
1.0
  9
$ATTMODE
 70
     1
  9
$TEXTSIZE
 40
0.2
  9
$TRACEWID
 40
0.05
  9
$TEXTSTYLE
  7
STANDARD
  9
$CLAYER
  8
0
  9
$CELTYPE
  6
CONTINUOUS
  9
$CECOLOR
 62
   256
  9
$CELTSCALE
 40
1.0
  9
$DISPSILH
 70
     0
  9
$DIMSCALE
 40
1.0
  9
$DIMASZ
 40
1.0
  9
$DIMEXO
 40
2.54
  9
$DIMDLI
 40
0.38
  9
$DIMRND
 40
0.0
  9
$DIMDLE
 40
0.0
  9
$DIMEXE
 40
2.54
  9
$DIMTP
 40
0.0
  9
$DIMTM
 40
0.0
  9
$DIMTXT
 40
3.2
  9
$DIMCEN
 40
0.09
  9
$DIMTSZ
 40
0.0
  9
$DIMTOL
 70
     0
  9
$DIMLIM
 70
     0
  9
$DIMTIH
 70
     0
  9
$DIMTOH
 70
     0
  9
$DIMSE1
 70
     0
  9
$DIMSE2
 70
     0
  9
$DIMTAD
 70
     1
  9
$DIMZIN
 70
     0
  9
$DIMBLK
  1

  9
$DIMASO
 70
     1
  9
$DIMSHO
 70
     0
  9
$DIMPOST
  1

  9
$DIMAPOST
  1

  9
$DIMALT
 70
     0
  9
$DIMALTD
 70
     2
  9
$DIMALTF
 40
25.4
  9
$DIMLFAC
 40
1.0
  9
$DIMTOFL
 70
     0
  9
$DIMTVP
 40
1.0
  9
$DIMTIX
 70
     0
  9
$DIMSOXD
 70
     0
  9
$DIMSAH
 70
     1
  9
$DIMBLK1
  1

  9
$DIMBLK2
  1

  9
$DIMSTYLE
  2
Standard
  9
$DIMCLRD
 70
     0
  9
$DIMCLRE
 70
     0
  9
$DIMCLRT
 70
     0
  9
$DIMTFAC
 40
1.0
  9
$DIMGAP
 40
1.6
  9
$DIMJUST
 70
     0
  9
$DIMSD1
 70
     0
  9
$DIMSD2
 70
     0
  9
$DIMTOLJ
 70
     1
  9
$DIMTZIN
 70
     0
  9
$DIMALTZ
 70
     0
  9
$DIMALTTZ
 70
     0
  9
$DIMUPT
 70
     0
  9
$DIMDEC
 70
     4
  9
$DIMTDEC
 70
     4
  9
$DIMALTU
 70
     2
  9
$DIMALTTD
 70
     2
  9
$DIMTXSTY
  7
STANDARD
  9
$DIMAUNIT
 70
     0
  9
$DIMADEC
 70
     0
  9
$DIMALTRND
 40
0.0
  9
$DIMAZIN
 70
     0
  9
$DIMDSEP
 70
    46
  9
$DIMATFIT
 70
     3
  9
$DIMFRAC
 70
     0
  9
$DIMLDRBLK
  1

  9
$DIMLUNIT
 70
     2
  9
$DIMLWD
 70
    -2
  9
$DIMLWE
 70
    -2
  9
$DIMTMOVE
 70
     0
  9
$DIMFXL
 40
1.0
  9
$DIMFXLON
 70
     0
  9
$DIMJOGANG
 40
0.7853981633974483
  9
$DIMTFILL
 70
     0
  9
$DIMTFILLCLR
 70
     0
  9
$DIMARCSYM
 70
     0
  9
$DIMLTYPE
  6

  9
$DIMLTEX1
  6

  9
$DIMLTEX2
  6

  9
$DIMTXTDIRECTION
 70
     0
  9
$LUNITS
 70
     2
  9
$LUPREC
 70
     4
  9
$SKETCHINC
 40
0.1
  9
$FILLETRAD
 40
0.0
  9
$AUNITS
 70
     0
  9
$AUPREC
 70
     0
  9
$MENU
  1
.
  9
$ELEVATION
 40
0.0
  9
$PELEVATION
 40
0.0
  9
$THICKNESS
 40
0.0
  9
$LIMCHECK
 70
     0
  9
$CHAMFERA
 40
0.0
  9
$CHAMFERB
 40
0.0
  9
$CHAMFERC
 40
0.0
  9
$CHAMFERD
 40
0.0
  9
$SKPOLY
 70
     0
  9
$TDCREATE
 40
2459195.687839028
  9
$TDUCREATE
 40
2459195.312839028
  9
$TDUPDATE
 40
2459942.473015255
  9
$TDUUPDATE
 40
2459942.098015255
  9
$TDINDWG
 40
0.001003287
  9
$TDUSRTIMER
 40
0.0009965972
  9
$USRTIMER
 70
     1
  9
$ANGBASE
 50
0.0
  9
$ANGDIR
 70
     0
  9
$PDMODE
 70
     0
  9
$PDSIZE
 40
0.0
  9
$PLINEWID
 40
0.0
  9
$SPLFRAME
 70
     0
  9
$SPLINETYPE
 70
     6
  9
$SPLINESEGS
 70
     8
  9
$HANDSEED
  5
3F4
  9
$SURFTAB1
 70
     6
  9
$SURFTAB2
 70
     6
  9
$SURFTYPE
 70
     6
  9
$SURFU
 70
     6
  9
$SURFV
 70
     6
  9
$UCSBASE
  2

  9
$UCSNAME
  2

  9
$UCSORG
 10
0.0
 20
0.0
 30
0.0
  9
$UCSXDIR
 10
1.0
 20
0.0
 30
0.0
  9
$UCSYDIR
 10
0.0
 20
1.0
 30
0.0
  9
$UCSORTHOREF
  2

  9
$UCSORTHOVIEW
 70
     0
  9
$UCSORGTOP
 10
0.0
 20
0.0
 30
0.0
  9
$UCSORGBOTTOM
 10
0.0
 20
0.0
 30
0.0
  9
$UCSORGLEFT
 10
0.0
 20
0.0
 30
0.0
  9
$UCSORGRIGHT
 10
0.0
 20
0.0
 30
0.0
  9
$UCSORGFRONT
 10
0.0
 20
0.0
 30
0.0
  9
$UCSORGBACK
 10
0.0
 20
0.0
 30
0.0
  9
$PUCSBASE
  2

  9
$PUCSNAME
  2

  9
$PUCSORG
 10
0.0
 20
0.0
 30
0.0
  9
$PUCSXDIR
 10
1.0
 20
0.0
 30
0.0
  9
$PUCSYDIR
 10
0.0
 20
1.0
 30
0.0
  9
$PUCSORTHOREF
  2

  9
$PUCSORTHOVIEW
 70
     0
  9
$PUCSORGTOP
 10
0.0
 20
0.0
 30
0.0
  9
$PUCSORGBOTTOM
 10
0.0
 20
0.0
 30
0.0
  9
$PUCSORGLEFT
 10
0.0
 20
0.0
 30
0.0
  9
$PUCSORGRIGHT
 10
0.0
 20
0.0
 30
0.0
  9
$PUCSORGFRONT
 10
0.0
 20
0.0
 30
0.0
  9
$PUCSORGBACK
 10
0.0
 20
0.0
 30
0.0
  9
$USERI1
 70
     0
  9
$USERI2
 70
     0
  9
$USERI3
 70
     0
  9
$USERI4
 70
     0
  9
$USERI5
 70
     0
  9
$USERR1
 40
0.0
  9
$USERR2
 40
0.0
  9
$USERR3
 40
0.0
  9
$USERR4
 40
0.0
  9
$USERR5
 40
0.0
  9
$WORLDVIEW
 70
     1
  9
$SHADEDGE
 70
     3
  9
$SHADEDIF
 70
    70
  9
$TILEMODE
 70
     1
  9
$MAXACTVP
 70
    64
  9
$PINSBASE
 10
0.0
 20
0.0
 30
0.0
  9
$PLIMCHECK
 70
     0
  9
$PEXTMIN
 10
1.000000000000000E+20
 20
1.000000000000000E+20
 30
1.000000000000000E+20
  9
$PEXTMAX
 10
-1.000000000000000E+20
 20
-1.000000000000000E+20
 30
-1.000000000000000E+20
  9
$PLIMMIN
 10
375.66077
 20
263.69434
  9
$PLIMMAX
 10
969.66077
 20
683.69434
  9
$UNITMODE
 70
     0
  9
$VISRETAIN
 70
     1
  9
$PLINEGEN
 70
     0
  9
$PSLTSCALE
 70
     1
  9
$TREEDEPTH
 70
  3020
  9
$CMLSTYLE
  2
Standard
  9
$CMLJUST
 70
     0
  9
$CMLSCALE
 40
1.0
  9
$PROXYGRAPHICS
 70
     1
  9
$MEASUREMENT
 70
     0
  9
$CELWEIGHT
370
    -1
  9
$ENDCAPS
280
     0
  9
$JOINSTYLE
280
     0
  9
$LWDISPLAY
290
     0
  9
$INSUNITS
 70
     0
  9
$HYPERLINKBASE
  1

  9
$STYLESHEET
  1

  9
$XEDIT
290
     1
  9
$CEPSNTYPE
380
     0
  9
$PSTYLEMODE
290
     1
  9
$FINGERPRINTGUID
  2
{C7DF6CA2-D74A-4E53-A387-246D829A32BE}
  9
$VERSIONGUID
  2
{0F1EF93F-436B-46D7-9EBF-B864D05202DF}
  9
$EXTNAMES
290
     1
  9
$PSVPSCALE
 40
0.0
  9
$OLESTARTUP
290
     0
  9
$SORTENTS
280
   127
  9
$INDEXCTL
280
     0
  9
$HIDETEXT
280
     0
  9
$XCLIPFRAME
280
     0
  9
$HALOGAP
280
     0
  9
$OBSCOLOR
 70
   257
  9
$OBSLTYPE
280
     0
  9
$INTERSECTIONDISPLAY
280
     0
  9
$INTERSECTIONCOLOR
 70
   257
  9
$DIMASSOC
280
     1
  9
$PROJECTNAME
  1

  9
$CAMERADISPLAY
290
     0
  9
$LENSLENGTH
 40
50.0
  9
$CAMERAHEIGHT
 40
0.0
  9
$STEPSPERSEC
 40
2.0
  9
$STEPSIZE
 40
6.0
  9
$3DDWFPREC
 40
2.0
  9
$PSOLWIDTH
 40
0.25
  9
$PSOLHEIGHT
 40
4.0
  9
$LOFTANG1
 40
1.570796326794897
  9
$LOFTANG2
 40
1.570796326794897
  9
$LOFTMAG1
 40
0.0
  9
$LOFTMAG2
 40
0.0
  9
$LOFTPARAM
 70
     7
  9
$LOFTNORMALS
280
     1
  9
$LATITUDE
 40
37.795
  9
$LONGITUDE
 40
-122.394
  9
$NORTHDIRECTION
 40
0.0
  9
$TIMEZONE
 70
 -8000
  9
$LIGHTGLYPHDISPLAY
280
     1
  9
$TILEMODELIGHTSYNCH
280
     1
  9
$CMATERIAL
347
11
  9
$SOLIDHIST
280
     1
  9
$SHOWHIST
280
     1
  9
$DWFFRAME
280
     2
  9
$DGNFRAME
280
     0
  9
$REALWORLDSCALE
290
     1
  9
$INTERFERECOLOR
 62
   256
  9
$INTERFEREOBJVS
345
33
  9
$INTERFEREVPVS
346
30
  9
$CSHADOW
280
     0
  9
$SHADOWPLANELOCATION
 40
0.0
  0
ENDSEC
  0
SECTION
  2
CLASSES
  0
CLASS
  1
ACDBDICTIONARYWDFLT
  2
AcDbDictionaryWithDefault
  3
ObjectDBX Classes
 90
        0
 91
        4
280
     0
281
     0
  0
CLASS
  1
MATERIAL
  2
AcDbMaterial
  3
ObjectDBX Classes
 90
     1153
 91
        4
280
     0
281
     0
  0
CLASS
  1
VISUALSTYLE
  2
AcDbVisualStyle
  3
ObjectDBX Classes
 90
     4095
 91
        4
280
     0
281
     0
  0
CLASS
  1
SCALE
  2
AcDbScale
  3
ObjectDBX Classes
 90
     1153
 91
        4
280
     0
281
     0
  0
CLASS
  1
TABLESTYLE
  2
AcDbTableStyle
  3
ObjectDBX Classes
 90
     4095
 91
        4
280
     0
281
     0
  0
CLASS
  1
MLEADERSTYLE
  2
AcDbMLeaderStyle
  3
ACDB_MLEADERSTYLE_CLASS
 90
     4095
 91
        4
280
     0
281
     0
  0
CLASS
  1
ACDBSECTIONVIEWSTYLE
  2
AcDbSectionViewStyle
  3
ObjectDBX Classes
 90
     1025
 91
        4
280
     0
281
     0
  0
CLASS
  1
ACDBDETAILVIEWSTYLE
  2
AcDbDetailViewStyle
  3
ObjectDBX Classes
 90
     1025
 91
        4
280
     0
281
     0
  0
CLASS
  1
AMGSETTINGSOBJ
  2
AmgSettingsObj
  3
AmgSettingsObj|...|...
 90
        0
 91
        4
280
     0
281
     0
  0
CLASS
  1
ACME_DOCUMENT
  2
AcMeDbDoc
  3
AcMeServices
 90
     1024
 91
        1
280
     1
281
     0
  0
CLASS
  1
ACMESCOPE
  2
AcMeScope
  3
AcMeScope|...|...
 90
        0
 91
        4
280
     0
281
     0
  0
CLASS
  1
ACMECOMMANDHISTORY
  2
AcMeCommandHistory
  3
AcMeServices
 90
     1024
 91
        1
280
     1
281
     0
  0
CLASS
  1
ACIMSYSVARMAN
  2
AcImSysVarManager
  3
AcImSysVarManager|...|...
 90
        0
 91
        4
280
     0
281
     0
  0
CLASS
  1
ACIMINTSYSVAR
  2
AcImIntSysVar
  3
AcImIntSysVar|...|...
 90
        0
 91
        4
280
     0
281
     0
  0
CLASS
  1
ACMESTATEMGR
  2
AcMeStateMgr
  3
AcMeStateMgr|...|...
 90
        0
 91
        4
280
     0
281
     0
  0
CLASS
  1
ACDBENTITYCACHE
  2
AcMeEntityCache
  3
AcMeServices
 90
     1024
 91
        1
280
     1
281
     0
  0
CLASS
  1
ACGREFMASTER
  2
AcGrefMaster
  3
AcAttribServices
 90
     1024
 91
        1
280
     1
281
     0
  0
CLASS
  1
ACME_DATABASE
  2
AcMeDbDatabase
  3
AcMeServices
 90
     1024
 91
        1
280
     1
281
     0
  0
CLASS
  1
ACRFINSADJUSTERMGR
  2
AcRfInsAdjusterMgr
  3
AcMeServices
 90
     1024
 91
        1
280
     1
281
     0
  0
CLASS
  1
ACGREFACADMASTER
  2
AcGrefacadMaster
  3
AcGrefServices
 90
     1024
 91
        1
280
     1
281
     0
  0
CLASS
  1
AMDTMENUSTATEMGR
  2
AmdtMenuStateMgr
  3
McadcomServices
 90
     1024
 91
        1
280
     1
281
     0
  0
CLASS
  1
AMDTMCOMMENUSTATE
  2
AmdtMcomMenuState
  3
McadcomServices
 90
     1024
 91
        1
280
     1
281
     0
  0
CLASS
  1
AMIMASTER
  2
AmiMaster
  3
AmiServices
 90
     1024
 91
        1
280
     1
281
     0
  0
CLASS
  1
MAPIAMMOUDLE
  2
MApiAmModule
  3
MApiAmServices
 90
     1024
 91
        1
280
     1
281
     0
  0
CLASS
  1
ACIMSTRSYSVAR
  2
AcImStrSysVar
  3
AcImStrSysVar|...|...
 90
        0
 91
        4
280
     0
281
     0
  0
CLASS
  1
AMDTAMMENUSTATE
  2
AmdtAmMenuState
  3
DesignerAssemblies
 90
     1024
 91
        1
280
     1
281
     0
  0
CLASS
  1
ACAMPROJECT
  2
AcAmProject
  3
AcAmProject|...|...
 90
        0
 91
        4
280
     0
281
     0
  0
CLASS
  1
ACAMGRCOMPDEF
  2
AcAmGrCompDef
  3
AcAmGrCompDef|...|...
 90
        0
 91
        4
280
     0
281
     0
  0
CLASS
  1
ACAMCOMPDEF
  2
AcAmCompDef
  3
AcAmCompDef|...|...
 90
        0
 91
        4
280
     0
281
     0
  0
CLASS
  1
ACAMCOMPDEFMGR
  2
AcAmCompDefMgr
  3
AcAmCompDefMgr|...|...
 90
        0
 91
        4
280
     0
281
     0
  0
CLASS
  1
ACAMCONTEXTMGR
  2
AcAmContextMgr
  3
AcAmContextMgr|...|...
 90
        0
 91
        4
280
     0
281
     0
  0
CLASS
  1
ACAMCONTEXTMODELER
  2
AcAmContextModeler
  3
AcAmContextModeler|...|...
 90
        0
 91
        4
280
     0
281
     0
  0
CLASS
  1
ACMDATADICTIONARY
  2
AcmDataDictionary
  3
AcmDataDictionary|...|...
 90
        0
 91
        4
280
     0
281
     0
  0
CLASS
  1
ACAMGRCOMPDEFSET
  2
AcAmGrCompDefSet
  3
DesignerAssemblies
 90
     1024
 91
        1
280
     1
281
     0
  0
CLASS
  1
AMDTBROWSERDBTAB
  2
AmdtBrowserDbTab
  3
McadcomServices
 90
     1024
 91
        1
280
     1
281
     0
  0
CLASS
  1
CBROWSERAPPOBJECT
  2
CBrowserAppObject
  3
McadcomServices
 90
     1024
 91
        1
280
     1
281
     0
  0
CLASS
  1
DM_PLACEHOLDER
  2
AcDmSelsetPlaceholder
  3
McadcomServices
 90
     1024
 91
        1
280
     1
281
     0
  0
CLASS
  1
EXACXREFPANELOBJECT
  2
ExAcXREFPanelObject
  3
EXAC_ESW
 90
     1025
 91
        1
280
     1
281
     0
  0
CLASS
  1
NPOCOLLECTION
  2
AcDbImpNonPersistentObjectsCollection
  3
ObjectDBX Classes
 90
     1153
 91
        1
280
     1
281
     0
  0
CLASS
  1
ACMSTANDARDANSI
  2
AcmStandardANSI
  3
AcmStandardANSI|...|...
 90
        0
 91
        4
280
     0
281
     0
  0
CLASS
  1
ACMSURFSTANDARDANSI
  2
AcmSurfTextStdANSI
  3
AcmSurfTextStdANSI|...|...
 90
        0
 91
        4
280
     0
281
     0
  0
CLASS
  1
ACMFCFSTANDARDANSI
  2
AcmFCFStdANSI
  3
AcmFCFStdANSI|...|...
 90
        0
 91
        5
280
     0
281
     0
  0
CLASS
  1
ACMWELDSTANDARDANSI
  2
AcmWeldingStdANSI
  3
AcmWeldingStdANSI|...|...
 90
        0
 91
        4
280
     0
281
     0
  0
CLASS
  1
ACMIDSTANDARDANSI
  2
AcmIdStdANSI
  3
AcmIdStdANSI|...|...
 90
        0
 91
        5
280
     0
281
     0
  0
CLASS
  1
ACMDATUMSTANDARDANSI
  2
AcmDatumStdANSI
  3
AcmDatumStdANSI|...|...
 90
        0
 91
        4
280
     0
281
     0
  0
CLASS
  1
ACMBOMSTANDARDANSI
  2
AcmBOMStdANSI
  3
AcmBOMStdANSI|...|...
 90
        0
 91
        4
280
     0
281
     0
  0
CLASS
  1
ACMDETAILSTANDARDANSI
  2
AmdtDetailSymStdANSI
  3
AmdtDetailSymStdANSI|...|...
 90
        0
 91
        4
280
     0
281
     0
  0
CLASS
  1
ACMSECTIONSTANDARDANSI
  2
AmdtSectionSymStdANSI
  3
AmdtSectionSymStdANSI|...|...
 90
        0
 91
        4
280
     0
281
     0
  0
CLASS
  1
ACMCENTERLINESTANDARDANSI
  2
AmdtCenterLineStdANSI
  3
AmdtCenterLineStdANSI|...|...
 90
        0
 91
        4
280
     0
281
     0
  0
CLASS
  1
ACMTHREADLINESTANDARDANSI
  2
AmdtThreadLineStdANSI
  3
AmdtThreadLineStdANSI|...|...
 90
        0
 91
        4
280
     0
281
     0
  0
CLASS
  1
ACMNOTESTANDARDANSI
  2
AmdtNoteStdANSI
  3
AmdtNoteStdANSI|...|...
 90
        0
 91
        4
280
     0
281
     0
  0
CLASS
  1
ACMTAPERSTANDARDANSI
  2
AcmTaperStdANSI
  3
AcmTaperStdANSI|...|...
 90
        0
 91
        4
280
     0
281
     0
  0
CLASS
  1
ACMANOOTATIONVIEWSTANDARDANSI
  2
AmdtAnViewStdANSI
  3
AmdtAnViewStdANSI|...|...
 90
        0
 91
        4
280
     0
281
     0
  0
CLASS
  1
ACAMGLAYSTD
  2
AcAmgLayStd
  3
AcAmgLayStd|...|...
 90
        0
 91
        4
280
     0
281
     0
  0
CLASS
  1
ACAMGDIMSTD
  2
AcAmgDimStd
  3
AcAmgDimStd|...|...
 90
        0
 91
        4
280
     0
281
     0
  0
CLASS
  1
AMGOBJPROPCFG
  2
AmgObjPropCfg
  3
AmgObjPropCfg|...|...
 90
        0
 91
        4
280
     0
281
     0
  0
CLASS
  1
ACAMGHOLECHARTSTDANSI
  2
AcAmgHoleChartStdANSI
  3
AcAmgHoleChartStdANSI|...|...
 90
        0
 91
        4
280
     0
281
     0
  0
CLASS
  1
ACAMGTITLESTD
  2
AcAmgTitleStd
  3
AcAmgTitleStd|...|...
 90
        0
 91
        4
280
     0
281
     0
  0
CLASS
  1
AMDTNOTETEMPLATEDB
  2
AmdtNoteTemplateDB
  3
AmdtNoteTemplateDB|...|...
 90
        0
 91
        4
280
     0
281
     0
  0
CLASS
  1
ACAMGFILTERDAT
  2
AcAmgFilterDat
  3
"AcadM|Product Description: AutoCAD Mechanical|Company: Autodesk, Inc."
 90
     1024
 91
        1
280
     1
281
     0
  0
CLASS
  1
DICTIONARYVAR
  2
AcDbDictionaryVar
  3
ObjectDBX Classes
 90
        0
 91
        4
280
     0
281
     0
  0
CLASS
  1
CELLSTYLEMAP
  2
AcDbCellStyleMap
  3
ObjectDBX Classes
 90
     1152
 91
        4
280
     0
281
     0
  0
CLASS
  1
FIELD
  2
AcDbField
  3
ObjectDBX Classes
 90
     1152
 91
        4
280
     0
281
     0
  0
CLASS
  1
ACMDETAILSTANDARDCUSTOM
  2
AmdtDetailSymStdCustom
  3
AmdtDetailSymStdCustom|...|...
 90
        0
 91
        4
280
     0
281
     0
  0
CLASS
  1
ACMSECTIONSTANDARDCUSTOM
  2
AmdtSectionSymStdCustom
  3
AmdtSectionSymStdCustom|...|...
 90
        0
 91
        4
280
     0
281
     0
  0
CLASS
  1
FIELDLIST
  2
AcDbFieldList
  3
ObjectDBX Classes
 90
     1152
 91
        4
280
     0
281
     0
  0
CLASS
  1
AMDTFCFLIBRARY
  2
AmdtFCFLibrary
  3
AmdtFCFLibrary|...|...
 90
        0
 91
        4
280
     0
281
     0
  0
CLASS
  1
AMDTSURFTEXTLIBRARY
  2
AmdtSurfTextLibrary
  3
AmdtSurfTextLibrary|...|...
 90
        0
 91
        4
280
     0
281
     0
  0
CLASS
  1
AMDTWELDINGLIBRARY
  2
AmdtWeldingLibrary
  3
AmdtWeldingLibrary|...|...
 90
        0
 91
        4
280
     0
281
     0
  0
CLASS
  1
AMDTFCFLIBOBJECT
  2
AmdtFCFLibObject
  3
AmdtFCFLibObject|...|...
 90
        0
 91
        4
280
     0
281
     0
  0
CLASS
  1
AMDTSURFTEXTLIBOBJECT
  2
AmdtSurfTextLibObject
  3
AmdtSurfTextLibObject|...|...
 90
        0
 91
        4
280
     0
281
     0
  0
CLASS
  1
AMDTWELDINGLIBOBJECT
  2
AmdtWeldingLibObject
  3
AmdtWeldingLibObject|...|...
 90
        0
 91
        4
280
     0
281
     0
  0
CLASS
  1
ACMDATAENTRYBLOCK
  2
AcmDataEntryBlock
  3
AcmDataEntryBlock|...|...
 90
        0
 91
        4
280
     0
281
     0
  0
CLASS
  1
AMDTSYSATTR
  2
AmdtSystemAttribute
  3
AmdtSystemAttribute|...|...
 90
        0
 91
        4
280
     0
281
     0
  0
ENDSEC
  0
SECTION
  2
TABLES
  0
TABLE
  2
VPORT
  5
8
330
0
100
AcDbSymbolTable
 70
     1
  0
VPORT
  5
7B
330
8
100
AcDbSymbolTableRecord
100
AcDbViewportTableRecord
  2
*Active
 70
     0
 10
0.0
 20
0.0
 11
1.0
 21
1.0
 12
713.343835617694
 22
480.5366796198816
 13
0.0
 23
0.0
 14
1.0
 24
1.0
 15
0.0
 25
0.0
 16
0.0
 26
0.0
 36
1.0
 17
0.0
 27
0.0
 37
0.0
 40
694.2200047953216
 41
2.007225433526012
 42
50.0
 43
0.0
 44
0.0
 50
0.0
 51
0.0
 71
     0
 72
   100
 73
     1
 74
     1
 75
     0
 76
     0
 77
     0
 78
     0
281
     0
 65
     0
110
0.0
120
0.0
130
0.0
111
1.0
121
0.0
131
0.0
112
0.0
122
1.0
132
0.0
 79
     0
146
0.0
348
2F
 60
     3
 61
     5
292
     1
282
     1
141
0.0
142
0.0
 63
   250
1001
ACAD_NAV_VCDISPLAY
1070
     3
  0
ENDTAB
  0
TABLE
  2
LTYPE
  5
5
330
0
100
AcDbSymbolTable
 70
    19
  0
LTYPE
  5
5A
330
5
100
AcDbSymbolTableRecord
100
AcDbLinetypeTableRecord
  2
ByBlock
 70
     0
  3

 72
    65
 73
     0
 40
0.0
  0
LTYPE
  5
5B
330
5
100
AcDbSymbolTableRecord
100
AcDbLinetypeTableRecord
  2
ByLayer
 70
     0
  3

 72
    65
 73
     0
 40
0.0
  0
LTYPE
  5
5C
330
5
100
AcDbSymbolTableRecord
100
AcDbLinetypeTableRecord
  2
CONTINUOUS
 70
     0
  3
Solid line
 72
    65
 73
     0
 40
0.0
  0
LTYPE
  5
68
330
5
100
AcDbSymbolTableRecord
100
AcDbLinetypeTableRecord
  2
PHANTOM2
 70
     0
  3
Phantom (.5x) ___ _ _ ___ _ _ ___ _ _ ___ _ _
 72
    65
 73
     6
 40
1.25
 49
0.625
 74
     0
 49
-0.125
 74
     0
 49
0.125
 74
     0
 49
-0.125
 74
     0
 49
0.125
 74
     0
 49
-0.125
 74
     0
  0
LTYPE
  5
74
330
5
100
AcDbSymbolTableRecord
100
AcDbLinetypeTableRecord
  2
DASHED
 70
     0
  3
__ __ __ __ __ __ __ __ __ __ __ __ __ __ __
 72
    65
 73
     2
 40
3.5
 49
2.0
 74
     0
 49
-1.5
 74
     0
  0
LTYPE
  5
75
330
5
100
AcDbSymbolTableRecord
100
AcDbLinetypeTableRecord
  2
CENTER
 70
     0
  3
____ _ ____ _ ____ _ ____ _ ____ _ ____ _ ____
 72
    65
 73
     4
 40
17.5
 49
13.0
 74
     0
 49
-1.5
 74
     0
 49
1.5
 74
     0
 49
-1.5
 74
     0
  0
LTYPE
  5
76
330
5
100
AcDbSymbolTableRecord
100
AcDbLinetypeTableRecord
  2
PHANTOM
 70
     0
  3
_____ _ _ _____ _ _ _____ _ _ _____ _ _ ____  
 72
    65
 73
     6
 40
15.5
 49
8.0
 74
     0
 49
-1.5
 74
     0
 49
1.5
 74
     0
 49
-1.5
 74
     0
 49
1.5
 74
     0
 49
-1.5
 74
     0
  0
LTYPE
  5
77
330
5
100
AcDbSymbolTableRecord
100
AcDbLinetypeTableRecord
  2
DOT
 70
     0
  3
. . . . . . . . . . . . . . . . . . . . . . . .
 72
    65
 73
     2
 40
0.25
 49
0.0
 74
     0
 49
-0.25
 74
     0
  0
LTYPE
  5
78
330
5
100
AcDbSymbolTableRecord
100
AcDbLinetypeTableRecord
  2
HIDDEN
 70
     0
  3
__ __ __ __ __ __ __ __ __ __ __ __ __ __ __
 72
    65
 73
     2
 40
3.5
 49
2.0
 74
     0
 49
-1.5
 74
     0
  0
LTYPE
  5
2D2
330
5
100
AcDbSymbolTableRecord
100
AcDbLinetypeTableRecord
  2
AM_ISO02W050
 70
     0
  3
__ __ __ __ __ __ __ __ __ __ __ __ __ __ __
 72
    65
 73
     2
 40
7.5
 49
6.0
 74
     0
 49
-1.5
 74
     0
  0
LTYPE
  5
2D3
330
5
100
AcDbSymbolTableRecord
100
AcDbLinetypeTableRecord
  2
AM_ISO08W050
 70
     0
  3
____ . ____ . ____ . ____ . ____ . ____ . ____
 72
    65
 73
     4
 40
18.0
 49
12.0
 74
     0
 49
-1.5
 74
     0
 49
3.0
 74
     0
 49
-1.5
 74
     0
  0
LTYPE
  5
2D4
330
5
100
AcDbSymbolTableRecord
100
AcDbLinetypeTableRecord
  2
AM_ISO09W050
 70
     0
  3
_____ . . _____ . . _____ . . ____ .. ____
 72
    65
 73
     6
 40
22.5
 49
12.0
 74
     0
 49
-1.5
 74
     0
 49
3.0
 74
     0
 49
-1.5
 74
     0
 49
3.0
 74
     0
 49
-1.5
 74
     0
  0
LTYPE
  5
2D5
330
5
100
AcDbSymbolTableRecord
100
AcDbLinetypeTableRecord
  2
Amconstr
 70
     0
  3
_______________________
 72
    65
 73
     2
 40
9999.0
 49
9999.0
 74
     0
 49
0.0
 74
     0
  0
LTYPE
  5
2D6
330
5
100
AcDbSymbolTableRecord
100
AcDbLinetypeTableRecord
  2
AM_ISO08W050x2
 70
     0
  3
__ . __ . __ . __ . __ . __
 72
    65
 73
     4
 40
9.0
 49
6.0
 74
     0
 49
-0.75
 74
     0
 49
1.5
 74
     0
 49
-0.75
 74
     0
  0
LTYPE
  5
2D7
330
5
100
AcDbSymbolTableRecord
100
AcDbLinetypeTableRecord
  2
AM_ISO02W050x2
 70
     0
  3
 _ _ _ _ _ _ _ _ _ _ _ _
 72
    65
 73
     2
 40
3.75
 49
3.0
 74
     0
 49
-0.75
 74
     0
  0
LTYPE
  5
2DA
330
5
100
AcDbSymbolTableRecord
100
AcDbLinetypeTableRecord
  2
Amzigzag
 70
     0
  3
/\/-/\/-/\/-/\/-/\/-/\/
 72
    65
 73
     2
 40
11.0001
 49
0.0001
 74
     4
 75
   136
340
2D9
 46
0.04
 50
0.0
 44
0.0
 45
0.0
 49
-11.0
 74
     0
  0
LTYPE
  5
2DB
330
5
100
AcDbSymbolTableRecord
100
AcDbLinetypeTableRecord
  2
CENTER2
 70
     0
  3
Center (.5x) ___ _ ___ _ ___ _ ___ _ ___ _ ___
 72
    65
 73
     4
 40
1.125
 49
0.75
 74
     0
 49
-0.125
 74
     0
 49
0.125
 74
     0
 49
-0.125
 74
     0
  0
LTYPE
  5
2DC
330
5
100
AcDbSymbolTableRecord
100
AcDbLinetypeTableRecord
  2
HIDDEN2
 70
     0
  3
Hidden (.5x) _ _ _ _ _ _ _ _ _ _ _ _ _ _ _ _ _
 72
    65
 73
     2
 40
0.1875
 49
0.125
 74
     0
 49
-0.0625
 74
     0
  0
LTYPE
  5
2DD
330
5
100
AcDbSymbolTableRecord
100
AcDbLinetypeTableRecord
  2
Amzigzag2
 70
     0
  3
/\/-/\/-/\/-/\/-/\/-/\/
 72
    65
 73
     2
 40
0.4401
 49
0.0001
 74
     4
 75
   136
340
2D9
 46
0.0016
 50
0.0
 44
0.0
 45
0.0
 49
-0.4400000000000001
 74
     0
  0
LTYPE
  5
2EB
330
5
100
AcDbSymbolTableRecord
100
AcDbLinetypeTableRecord
  2
ACANSTGB
 70
     0
  3
__ . . __ . .
 72
    65
 73
     6
 40
0.35433070866
 49
0.15748031496
 74
     0
 49
-0.03937007874
 74
     0
 49
0.03937007874
 74
     0
 49
-0.03937007874
 74
     0
 49
0.03937007874
 74
     0
 49
-0.03937007874
 74
     0
  0
LTYPE
  5
2EC
330
5
100
AcDbSymbolTableRecord
100
AcDbLinetypeTableRecord
  2
ACANSTGL
 70
     0
  3
_ _ _ _ _
 72
    65
 73
     2
 40
0.11811023622
 49
0.07874015748
 74
     0
 49
-0.03937007874
 74
     0
  0
ENDTAB
  0
TABLE
  2
LAYER
  5
2
330
0
100
AcDbSymbolTable
 70
     1
  0
LAYER
  5
54
102
{ACAD_XDICTIONARY
360
2FE
102
}
330
2
100
AcDbSymbolTableRecord
100
AcDbLayerTableRecord
  2
0
 70
     0
 62
     7
  6
CONTINUOUS
370
    -3
390
F
347
21
348
0
  0
ENDTAB
  0
TABLE
  2
STYLE
  5
3
330
0
100
AcDbSymbolTable
 70
     5
  0
STYLE
  5
55
330
3
100
AcDbSymbolTableRecord
100
AcDbTextStyleTableRecord
  2
STANDARD
 70
     0
 40
0.0
 41
1.0
 50
0.0
 71
     0
 42
0.2
  3
txt
  4
BIGFONT
  0
STYLE
  5
59
330
3
100
AcDbSymbolTableRecord
100
AcDbTextStyleTableRecord
  2
Annotative
 70
     0
 40
0.0
 41
1.0
 50
0.0
 71
     0
 42
0.2
  3
txt
  4

1001
AcadAnnotative
1000
AnnotativeData
1002
{
1070
     1
1070
     1
1002
}
  0
STYLE
  5
2D9
330
3
100
AcDbSymbolTableRecord
100
AcDbTextStyleTableRecord
  2

 70
     1
 40
0.0
 41
1.0
 50
0.0
 71
     0
 42
3.2
  3
genltshp.shx
  4

  0
STYLE
  5
2E9
330
3
100
AcDbSymbolTableRecord
100
AcDbTextStyleTableRecord
  2
ACANSTS
 70
     0
 40
1.0
 41
1.0
 50
0.0
 71
     0
 42
3.2
  3
romans.shx
  4
extfont.shx
  0
STYLE
  5
2EA
330
3
100
AcDbSymbolTableRecord
100
AcDbTextStyleTableRecord
  2
ACANSGDT
 70
     0
 40
0.0
 41
1.0
 50
0.0
 71
     0
 42
3.2
  3
amgdt.shx
  4

  0
ENDTAB
  0
TABLE
  2
VIEW
  5
6
330
0
100
AcDbSymbolTable
 70
     0
  0
ENDTAB
  0
TABLE
  2
UCS
  5
7
330
0
100
AcDbSymbolTable
 70
     0
  0
ENDTAB
  0
TABLE
  2
APPID
  5
9
330
0
100
AcDbSymbolTable
 70
    54
  0
APPID
  5
56
330
9
100
AcDbSymbolTableRecord
100
AcDbRegAppTableRecord
  2
ACAD
 70
     0
  0
APPID
  5
5D
330
9
100
AcDbSymbolTableRecord
100
AcDbRegAppTableRecord
  2
AcadAnnotative
 70
     0
  0
APPID
  5
290
330
9
100
AcDbSymbolTableRecord
100
AcDbRegAppTableRecord
  2
MCAD_NO_VIS
 70
     0
  0
APPID
  5
291
330
9
100
AcDbSymbolTableRecord
100
AcDbRegAppTableRecord
  2
ACAD_TEMP_GRAPHIC
 70
     0
  0
APPID
  5
29B
330
9
100
AcDbSymbolTableRecord
100
AcDbRegAppTableRecord
  2
ACATTRIBSERVICES
 70
     0
  0
APPID
  5
2B3
330
9
100
AcDbSymbolTableRecord
100
AcDbRegAppTableRecord
  2
DESIGNERASSEMBLIES
 70
     0
  0
APPID
  5
2CF
330
9
100
AcDbSymbolTableRecord
100
AcDbRegAppTableRecord
  2
ACAD_DSTYLE_DIMJAG
 70
     0
  0
APPID
  5
2D0
330
9
100
AcDbSymbolTableRecord
100
AcDbRegAppTableRecord
  2
ACAD_DSTYLE_DIMBREAK
 70
     0
  0
APPID
  5
2F4
330
9
100
AcDbSymbolTableRecord
100
AcDbRegAppTableRecord
  2
ACAD_NAV_VCDISPLAY
 70
     0
  0
APPID
  5
2FC
330
9
100
AcDbSymbolTableRecord
100
AcDbRegAppTableRecord
  2
ACAD_EXEMPT_FROM_CAD_STANDARDS
 70
     0
  0
APPID
  5
33E
330
9
100
AcDbSymbolTableRecord
100
AcDbRegAppTableRecord
  2
ACAD_MLEADERVER
 70
     0
  0
APPID
  5
33F
330
9
100
AcDbSymbolTableRecord
100
AcDbRegAppTableRecord
  2
ACAD_DSTYLE_DIMARC_LENGTH_SYMBOL
 70
     0
  0
APPID
  5
340
330
9
100
AcDbSymbolTableRecord
100
AcDbRegAppTableRecord
  2
ACAD_DSTYLE_DIM_LINETYPE
 70
     0
  0
APPID
  5
341
330
9
100
AcDbSymbolTableRecord
100
AcDbRegAppTableRecord
  2
ACAD_DSTYLE_DIM_EXT1_LINETYPE
 70
     0
  0
APPID
  5
342
330
9
100
AcDbSymbolTableRecord
100
AcDbRegAppTableRecord
  2
ACAD_DSTYLE_DIM_EXT2_LINETYPE
 70
     0
  0
APPID
  5
343
330
9
100
AcDbSymbolTableRecord
100
AcDbRegAppTableRecord
  2
HC_SUPERPART
 70
     0
  0
APPID
  5
344
330
9
100
AcDbSymbolTableRecord
100
AcDbRegAppTableRecord
  2
HC_SP4BLOCK
 70
     0
  0
APPID
  5
345
330
9
100
AcDbSymbolTableRecord
100
AcDbRegAppTableRecord
  2
HC_XDATA_SPRING
 70
     0
  0
APPID
  5
346
330
9
100
AcDbSymbolTableRecord
100
AcDbRegAppTableRecord
  2
HCCAD_FRAME
 70
     0
  0
APPID
  5
347
330
9
100
AcDbSymbolTableRecord
100
AcDbRegAppTableRecord
  2
GENIUS_GENOLIS_13
 70
     0
  0
APPID
  5
348
330
9
100
AcDbSymbolTableRecord
100
AcDbRegAppTableRecord
  2
GENIUS_GENOENT_13
 70
     0
  0
APPID
  5
349
330
9
100
AcDbSymbolTableRecord
100
AcDbRegAppTableRecord
  2
GENIUS_GENODEF_13
 70
     0
  0
APPID
  5
34A
330
9
100
AcDbSymbolTableRecord
100
AcDbRegAppTableRecord
  2
GENIUS_GENOREF_13
 70
     0
  0
APPID
  5
34B
330
9
100
AcDbSymbolTableRecord
100
AcDbRegAppTableRecord
  2
GENIUS_GENOBJ-N-TIT_13
 70
     0
  0
APPID
  5
34C
330
9
100
AcDbSymbolTableRecord
100
AcDbRegAppTableRecord
  2
GENIUS_GENOBJ-N-SDF_13
 70
     0
  0
APPID
  5
34D
330
9
100
AcDbSymbolTableRecord
100
AcDbRegAppTableRecord
  2
GENIUS_GENOBJ-N-ZOO_13
 70
     0
  0
APPID
  5
34E
330
9
100
AcDbSymbolTableRecord
100
AcDbRegAppTableRecord
  2
GENIUS_GENTITLE_13
 70
     0
  0
APPID
  5
34F
330
9
100
AcDbSymbolTableRecord
100
AcDbRegAppTableRecord
  2
GENIUS_GENSCREG_15
 70
     0
  0
APPID
  5
350
330
9
100
AcDbSymbolTableRecord
100
AcDbRegAppTableRecord
  2
GENIUS_GENSYMENT_13
 70
     0
  0
APPID
  5
351
330
9
100
AcDbSymbolTableRecord
100
AcDbRegAppTableRecord
  2
GENIUS_GENSCSYM_13
 70
     0
  0
APPID
  5
352
330
9
100
AcDbSymbolTableRecord
100
AcDbRegAppTableRecord
  2
GENIUS_GENOBJ-N-REV_13
 70
     0
  0
APPID
  5
353
330
9
100
AcDbSymbolTableRecord
100
AcDbRegAppTableRecord
  2
GENIUS_GENOBJ-N-RSSYM_13
 70
     0
  0
APPID
  5
354
330
9
100
AcDbSymbolTableRecord
100
AcDbRegAppTableRecord
  2
GENIUS_GENREV_15
 70
     0
  0
APPID
  5
355
330
9
100
AcDbSymbolTableRecord
100
AcDbRegAppTableRecord
  2
HRA
 70
     0
  0
APPID
  5
356
330
9
100
AcDbSymbolTableRecord
100
AcDbRegAppTableRecord
  2
HTIT
 70
     0
  0
APPID
  5
357
330
9
100
AcDbSymbolTableRecord
100
AcDbRegAppTableRecord
  2
GENIUS_GENZOO_17
 70
     0
  0
APPID
  5
358
330
9
100
AcDbSymbolTableRecord
100
AcDbRegAppTableRecord
  2
GENIUS_GENOBJ-N-CEN_13
 70
     0
  0
APPID
  5
359
330
9
100
AcDbSymbolTableRecord
100
AcDbRegAppTableRecord
  2
GENIUS_GENCEN_19
 70
     0
  0
APPID
  5
35A
330
9
100
AcDbSymbolTableRecord
100
AcDbRegAppTableRecord
  2
GENIUS_GENOBJ-N-CRS_13
 70
     0
  0
APPID
  5
35B
330
9
100
AcDbSymbolTableRecord
100
AcDbRegAppTableRecord
  2
GENIUS_GENCRS_20
 70
     0
  0
APPID
  5
35C
330
9
100
AcDbSymbolTableRecord
100
AcDbRegAppTableRecord
  2
GENIUS_GENOBJ-N-CRC_13
 70
     0
  0
APPID
  5
35D
330
9
100
AcDbSymbolTableRecord
100
AcDbRegAppTableRecord
  2
GENIUS_GENCRC_14
 70
     0
  0
APPID
  5
35E
330
9
100
AcDbSymbolTableRecord
100
AcDbRegAppTableRecord
  2
GENIUS_GENFIL_13
 70
     0
  0
APPID
  5
35F
330
9
100
AcDbSymbolTableRecord
100
AcDbRegAppTableRecord
  2
GENIUS_GENOBJ-N-CHA_13
 70
     0
  0
APPID
  5
360
330
9
100
AcDbSymbolTableRecord
100
AcDbRegAppTableRecord
  2
GENIUS_GENOBJ-N-FIL_13
 70
     0
  0
APPID
  5
361
330
9
100
AcDbSymbolTableRecord
100
AcDbRegAppTableRecord
  2
GENIUS_GENHATCH_13
 70
     0
  0
APPID
  5
362
330
9
100
AcDbSymbolTableRecord
100
AcDbRegAppTableRecord
  2
GENIUS_GENOBJ-N-HTC_13
 70
     0
  0
APPID
  5
363
330
9
100
AcDbSymbolTableRecord
100
AcDbRegAppTableRecord
  2
GENIUS_GENDIM_13
 70
     0
  0
APPID
  5
364
330
9
100
AcDbSymbolTableRecord
100
AcDbRegAppTableRecord
  2
GENIUS_GENOBJ-N-DIM_13
 70
     0
  0
APPID
  5
365
330
9
100
AcDbSymbolTableRecord
100
AcDbRegAppTableRecord
  2
GENIUS_GENOBJ-N-DIMLI_13
 70
     0
  0
APPID
  5
366
330
9
100
AcDbSymbolTableRecord
100
AcDbRegAppTableRecord
  2
GENIUS_GENOBJ-N-FITL_13
 70
     0
  0
APPID
  5
367
330
9
100
AcDbSymbolTableRecord
100
AcDbRegAppTableRecord
  2
GENIUS_GENFITL_13
 70
     0
  0
APPID
  5
368
330
9
100
AcDbSymbolTableRecord
100
AcDbRegAppTableRecord
  2
GENIUS_GENDTOL_13
 70
     0
  0
APPID
  5
369
330
9
100
AcDbSymbolTableRecord
100
AcDbRegAppTableRecord
  2
GENLAYCOLOR
 70
     0
  0
ENDTAB
  0
TABLE
  2
DIMSTYLE
  5
A
330
0
100
AcDbSymbolTable
 70
     8
100
AcDbDimStyleTable
  0
DIMSTYLE
105
57
330
A
100
AcDbSymbolTableRecord
100
AcDbDimStyleTableRecord
  2
Standard
 70
     0
178
     0
340
55
  0
DIMSTYLE
105
58
330
A
100
AcDbSymbolTableRecord
100
AcDbDimStyleTableRecord
  2
Annotative
 70
     0
178
     0
340
55
1001
AcadAnnotative
1000
AnnotativeData
1002
{
1070
     1
1070
     1
1002
}
  0
DIMSTYLE
105
2CE
330
A
100
AcDbSymbolTableRecord
100
AcDbDimStyleTableRecord
  2
AM_ANSI
 70
     0
  4
mm
 41
0.12
 42
0.05
 43
0.5
 44
0.1
 47
0.1
 48
0.1
 90
        1
 78
     7
 79
     2
140
0.12
141
0.0
146
0.71
147
0.06
176
   256
177
   256
178
     2
274
     4
284
     7
340
55
371
    -1
372
    -1
345
5A
346
5A
347
5A
1001
ACAD_DSTYLE_DIMJAG
1070
   388
1040
1.5
1001
ACAD_DSTYLE_DIMBREAK
1070
   391
1040
0.125
  0
DIMSTYLE
105
2DE
330
A
100
AcDbSymbolTableRecord
100
AcDbDimStyleTableRecord
  2
AM_ANSI$3
 70
     0
  4
mm
 41
0.12
 42
0.05
 43
0.5
 44
0.1
 47
0.1
 48
0.1
 90
        1
 78
     7
 79
     2
140
0.12
141
0.0
146
0.71
147
0.06
176
   256
177
   256
178
     2
274
     4
284
     7
288
     1
289
     0
340
55
371
    -1
372
    -1
345
5A
346
5A
347
5A
1001
ACAD_DSTYLE_DIMBREAK
1070
   391
1040
0.125
1001
ACAD_DSTYLE_DIMJAG
1070
   388
1040
1.5
  0
DIMSTYLE
105
2DF
330
A
100
AcDbSymbolTableRecord
100
AcDbDimStyleTableRecord
  2
AM_ANSI$4
 70
     0
  4
mm
 41
0.12
 42
0.05
 43
0.5
 44
0.1
 47
0.1
 48
0.1
 90
        1
 78
     7
 79
     2
140
0.12
141
0.0
146
0.71
147
0.06
176
   256
177
   256
178
     2
274
     4
284
     7
288
     1
289
     0
340
55
371
    -1
372
    -1
345
5A
346
5A
347
5A
1001
ACAD_DSTYLE_DIMBREAK
1070
   391
1040
0.125
1001
ACAD_DSTYLE_DIMJAG
1070
   388
1040
1.5
  0
DIMSTYLE
105
2E0
330
A
100
AcDbSymbolTableRecord
100
AcDbDimStyleTableRecord
  2
AM_ANSI$7
 70
     0
  4
mm
 41
0.12
 42
0.05
 43
0.5
 44
0.1
 47
0.1
 48
0.1
 90
        1
 78
     7
 79
     2
140
0.12
141
0.0
146
0.71
147
0.06
176
   256
177
   256
178
     2
274
     4
284
     7
340
55
371
    -1
372
    -1
345
5A
346
5A
347
5A
1001
ACAD_DSTYLE_DIMBREAK
1070
   391
1040
0.125
1001
ACAD_DSTYLE_DIMJAG
1070
   388
1040
1.5
  0
DIMSTYLE
105
2E1
330
A
100
AcDbSymbolTableRecord
100
AcDbDimStyleTableRecord
  2
AM_ANSI$SF
 70
     0
  4
mm
 41
0.12
 42
0.05
 43
0.5
 44
0.1
 47
0.1
 48
0.1
 90
        1
 75
     1
 76
     1
 78
     7
 79
     2
140
0.12
141
0.0
146
0.71
147
0.06
176
   256
177
   256
178
     2
274
     4
284
     7
340
55
371
    -1
372
    -1
345
5A
346
5A
347
5A
1001
ACAD_DSTYLE_DIMBREAK
1070
   391
1040
0.125
1001
ACAD_DSTYLE_DIMJAG
1070
   388
1040
1.5
  0
DIMSTYLE
105
2E6
330
A
100
AcDbSymbolTableRecord
100
AcDbDimStyleTableRecord
  2
AM_ANSI$SH
 70
     0
  4
mm
 41
0.12
 42
0.05
 43
0.5
 44
0.1
 47
0.1
 48
0.1
 90
        1
 75
     1
 76
     1
 78
     7
 79
     2
140
0.12
141
0.0
146
0.71
147
0.06
173
     1
176
   256
177
   256
178
     2
274
     4
284
     7
340
55
343
2E2
371
    -1
372
    -1
345
5A
346
5A
347
5A
1001
ACAD_DSTYLE_DIMBREAK
1070
   391
1040
0.125
1001
ACAD_DSTYLE_DIMJAG
1070
   388
1040
1.5
  0
ENDTAB
  0
TABLE
  2
BLOCK_RECORD
  5
1
330
0
100
AcDbSymbolTable
 70
    36
  0
BLOCK_RECORD
  5
70
330
1
100
AcDbSymbolTableRecord
100
AcDbBlockTableRecord
  2
*Model_Space
340
73
 70
     0
280
     1
281
     0
  0
BLOCK_RECORD
  5
6C
330
1
100
AcDbSymbolTableRecord
100
AcDbBlockTableRecord
  2
*Paper_Space
340
6F
 70
     0
280
     1
281
     0
  0
BLOCK_RECORD
  5
7C
330
1
100
AcDbSymbolTableRecord
100
AcDbBlockTableRecord
  2
KOZU0001
340
0
102
{BLKREFS
331
257
102
}
 70
     0
280
     1
281
     0
  0
BLOCK_RECORD
  5
83
330
1
100
AcDbSymbolTableRecord
100
AcDbBlockTableRecord
  2
KOZU0002
340
0
102
{BLKREFS
331
258
102
}
 70
     0
280
     1
281
     0
  0
BLOCK_RECORD
  5
8A
330
1
100
AcDbSymbolTableRecord
100
AcDbBlockTableRecord
  2
KOZU0003
340
0
102
{BLKREFS
331
259
102
}
 70
     0
280
     1
281
     0
  0
BLOCK_RECORD
  5
91
330
1
100
AcDbSymbolTableRecord
100
AcDbBlockTableRecord
  2
KOZU0004
340
0
102
{BLKREFS
331
25A
102
}
 70
     0
280
     1
281
     0
  0
BLOCK_RECORD
  5
98
330
1
100
AcDbSymbolTableRecord
100
AcDbBlockTableRecord
  2
KOZU0005
340
0
102
{BLKREFS
331
25B
102
}
 70
     0
280
     1
281
     0
  0
BLOCK_RECORD
  5
9F
330
1
100
AcDbSymbolTableRecord
100
AcDbBlockTableRecord
  2
KOZU0006
340
0
102
{BLKREFS
331
25C
102
}
 70
     0
280
     1
281
     0
  0
BLOCK_RECORD
  5
A6
330
1
100
AcDbSymbolTableRecord
100
AcDbBlockTableRecord
  2
KOZU0007
340
0
102
{BLKREFS
331
25D
102
}
 70
     0
280
     1
281
     0
  0
BLOCK_RECORD
  5
AD
330
1
100
AcDbSymbolTableRecord
100
AcDbBlockTableRecord
  2
KOZU0008
340
0
102
{BLKREFS
331
25E
102
}
 70
     0
280
     1
281
     0
  0
BLOCK_RECORD
  5
B4
330
1
100
AcDbSymbolTableRecord
100
AcDbBlockTableRecord
  2
KOZU0009
340
0
102
{BLKREFS
331
25F
102
}
 70
     0
280
     1
281
     0
  0
BLOCK_RECORD
  5
BB
330
1
100
AcDbSymbolTableRecord
100
AcDbBlockTableRecord
  2
KOZU0010
340
0
102
{BLKREFS
331
260
102
}
 70
     0
280
     1
281
     0
  0
BLOCK_RECORD
  5
C2
330
1
100
AcDbSymbolTableRecord
100
AcDbBlockTableRecord
  2
KOZU0011
340
0
102
{BLKREFS
331
261
102
}
 70
     0
280
     1
281
     0
  0
BLOCK_RECORD
  5
C9
330
1
100
AcDbSymbolTableRecord
100
AcDbBlockTableRecord
  2
KOZU0012
340
0
102
{BLKREFS
331
262
102
}
 70
     0
280
     1
281
     0
  0
BLOCK_RECORD
  5
D0
330
1
100
AcDbSymbolTableRecord
100
AcDbBlockTableRecord
  2
KOZU0013
340
0
102
{BLKREFS
331
263
102
}
 70
     0
280
     1
281
     0
  0
BLOCK_RECORD
  5
D7
330
1
100
AcDbSymbolTableRecord
100
AcDbBlockTableRecord
  2
KOZU0014
340
0
102
{BLKREFS
331
264
102
}
 70
     0
280
     1
281
     0
  0
BLOCK_RECORD
  5
DE
330
1
100
AcDbSymbolTableRecord
100
AcDbBlockTableRecord
  2
KOZU0015
340
0
102
{BLKREFS
331
265
102
}
 70
     0
280
     1
281
     0
  0
BLOCK_RECORD
  5
E5
330
1
100
AcDbSymbolTableRecord
100
AcDbBlockTableRecord
  2
KOZU0016
340
0
102
{BLKREFS
331
266
102
}
 70
     0
280
     1
281
     0
  0
BLOCK_RECORD
  5
EC
330
1
100
AcDbSymbolTableRecord
100
AcDbBlockTableRecord
  2
KOZU0017
340
0
102
{BLKREFS
331
267
102
}
 70
     0
280
     1
281
     0
  0
BLOCK_RECORD
  5
F3
330
1
100
AcDbSymbolTableRecord
100
AcDbBlockTableRecord
  2
KOZU0018
340
0
102
{BLKREFS
331
268
102
}
 70
     0
280
     1
281
     0
  0
BLOCK_RECORD
  5
FA
330
1
100
AcDbSymbolTableRecord
100
AcDbBlockTableRecord
  2
KOZU0019
340
0
102
{BLKREFS
331
269
102
}
 70
     0
280
     1
281
     0
  0
BLOCK_RECORD
  5
101
330
1
100
AcDbSymbolTableRecord
100
AcDbBlockTableRecord
  2
KOZU0020
340
0
102
{BLKREFS
331
26A
102
}
 70
     0
280
     1
281
     0
  0
BLOCK_RECORD
  5
108
330
1
100
AcDbSymbolTableRecord
100
AcDbBlockTableRecord
  2
KOZU0021
340
0
102
{BLKREFS
331
26B
102
}
 70
     0
280
     1
281
     0
  0
BLOCK_RECORD
  5
10F
330
1
100
AcDbSymbolTableRecord
100
AcDbBlockTableRecord
  2
KOZU0022
340
0
102
{BLKREFS
331
26C
102
}
 70
     0
280
     1
281
     0
  0
BLOCK_RECORD
  5
116
330
1
100
AcDbSymbolTableRecord
100
AcDbBlockTableRecord
  2
KOZU0023
340
0
102
{BLKREFS
331
26D
102
}
 70
     0
280
     1
281
     0
  0
BLOCK_RECORD
  5
11D
330
1
100
AcDbSymbolTableRecord
100
AcDbBlockTableRecord
  2
KOZU0024
340
0
102
{BLKREFS
331
26E
102
}
 70
     0
280
     1
281
     0
  0
BLOCK_RECORD
  5
124
330
1
100
AcDbSymbolTableRecord
100
AcDbBlockTableRecord
  2
KOZU0025
340
0
102
{BLKREFS
331
26F
102
}
 70
     0
280
     1
281
     0
  0
BLOCK_RECORD
  5
12B
330
1
100
AcDbSymbolTableRecord
100
AcDbBlockTableRecord
  2
KOZU0026
340
0
102
{BLKREFS
331
270
102
}
 70
     0
280
     1
281
     0
  0
BLOCK_RECORD
  5
132
330
1
100
AcDbSymbolTableRecord
100
AcDbBlockTableRecord
  2
KOZU0027
340
0
102
{BLKREFS
331
271
102
}
 70
     0
280
     1
281
     0
  0
BLOCK_RECORD
  5
139
330
1
100
AcDbSymbolTableRecord
100
AcDbBlockTableRecord
  2
KOZU0028
340
0
102
{BLKREFS
331
272
102
}
 70
     0
280
     1
281
     0
  0
BLOCK_RECORD
  5
140
330
1
100
AcDbSymbolTableRecord
100
AcDbBlockTableRecord
  2
KOZU0029
340
0
102
{BLKREFS
331
273
102
}
 70
     0
280
     1
281
     0
  0
BLOCK_RECORD
  5
147
330
1
100
AcDbSymbolTableRecord
100
AcDbBlockTableRecord
  2
KOZU0030
340
0
102
{BLKREFS
331
274
102
}
 70
     0
280
     1
281
     0
  0
BLOCK_RECORD
  5
14E
330
1
100
AcDbSymbolTableRecord
100
AcDbBlockTableRecord
  2
KOZU0031
340
0
102
{BLKREFS
331
275
102
}
 70
     0
280
     1
281
     0
  0
BLOCK_RECORD
  5
155
330
1
100
AcDbSymbolTableRecord
100
AcDbBlockTableRecord
  2
KOZU0032
340
0
102
{BLKREFS
331
276
102
}
 70
     0
280
     1
281
     0
  0
BLOCK_RECORD
  5
15C
330
1
100
AcDbSymbolTableRecord
100
AcDbBlockTableRecord
  2
KOZU0033
340
0
102
{BLKREFS
331
277
102
}
 70
     0
280
     1
281
     0
  0
BLOCK_RECORD
  5
163
330
1
100
AcDbSymbolTableRecord
100
AcDbBlockTableRecord
  2
KOZU0034
340
0
102
{BLKREFS
331
278
102
}
 70
     0
280
     1
281
     0
  0
BLOCK_RECORD
  5
2E2
330
1
100
AcDbSymbolTableRecord
100
AcDbBlockTableRecord
  2
GENAXEH
340
0
 70
     0
280
     1
281
     0
  0
BLOCK_RECORD
  5
381
330
1
100
AcDbSymbolTableRecord
100
AcDbBlockTableRecord
  2
_ACMFILLEDHALF
340
0
 70
     0
280
     1
281
     0
  0
ENDTAB
  0
ENDSEC
  0
SECTION
  2
BLOCKS
  0
BLOCK
  5
71
330
70
100
AcDbEntity
  8
0
100
AcDbBlockBegin
  2
*Model_Space
 70
     0
 10
0.0
 20
0.0
 30
0.0
  3
*Model_Space
  1

  0
ENDBLK
  5
72
330
70
100
AcDbEntity
  8
0
100
AcDbBlockEnd
  0
BLOCK
  5
6D
330
6C
100
AcDbEntity
 67
     1
  8
0
100
AcDbBlockBegin
  2
*Paper_Space
 70
     0
 10
0.0
 20
0.0
 30
0.0
  3
*Paper_Space
  1

  0
ENDBLK
  5
6E
330
6C
100
AcDbEntity
 67
     1
  8
0
100
AcDbBlockEnd
  0
BLOCK
  5
7D
330
7C
100
AcDbEntity
  8
0
100
AcDbBlockBegin
  2
KOZU0001
 70
     0
 10
0.0
 20
0.0
 30
0.0
  3
KOZU0001
  1

  0
LWPOLYLINE
  5
7E
330
7C
100
AcDbEntity
  8
0
  6
Continuous
 62
     7
100
AcDbPolyline
 90
        2
 70
     1
 43
0.4000000100000001
 10
-0.2
 20
0.0
 42
1.0
 10
0.2
 20
0.0
 42
1.0
  0
ENDBLK
  5
82
330
7C
100
AcDbEntity
  8
0
100
AcDbBlockEnd
  0
BLOCK
  5
84
330
83
100
AcDbEntity
  8
0
100
AcDbBlockBegin
  2
KOZU0002
 70
     0
 10
0.0
 20
0.0
 30
0.0
  3
KOZU0002
  1

  0
LWPOLYLINE
  5
85
330
83
100
AcDbEntity
  8
0
  6
Continuous
 62
     7
100
AcDbPolyline
 90
        2
 70
     1
 43
0.4000000100000001
 10
-0.2
 20
0.0
 42
1.0
 10
0.2
 20
0.0
 42
1.0
  0
ENDBLK
  5
89
330
83
100
AcDbEntity
  8
0
100
AcDbBlockEnd
  0
BLOCK
  5
8B
330
8A
100
AcDbEntity
  8
0
100
AcDbBlockBegin
  2
KOZU0003
 70
     0
 10
0.0
 20
0.0
 30
0.0
  3
KOZU0003
  1

  0
LWPOLYLINE
  5
8C
330
8A
100
AcDbEntity
  8
0
  6
Continuous
 62
     7
100
AcDbPolyline
 90
        2
 70
     1
 43
0.4000000100000001
 10
-0.2
 20
0.0
 42
1.0
 10
0.2
 20
0.0
 42
1.0
  0
ENDBLK
  5
90
330
8A
100
AcDbEntity
  8
0
100
AcDbBlockEnd
  0
BLOCK
  5
92
330
91
100
AcDbEntity
  8
0
100
AcDbBlockBegin
  2
KOZU0004
 70
     0
 10
0.0
 20
0.0
 30
0.0
  3
KOZU0004
  1

  0
LWPOLYLINE
  5
93
330
91
100
AcDbEntity
  8
0
  6
Continuous
 62
     7
100
AcDbPolyline
 90
        2
 70
     1
 43
0.4000000100000001
 10
-0.2
 20
0.0
 42
1.0
 10
0.2
 20
0.0
 42
1.0
  0
ENDBLK
  5
97
330
91
100
AcDbEntity
  8
0
100
AcDbBlockEnd
  0
BLOCK
  5
99
330
98
100
AcDbEntity
  8
0
100
AcDbBlockBegin
  2
KOZU0005
 70
     0
 10
0.0
 20
0.0
 30
0.0
  3
KOZU0005
  1

  0
LWPOLYLINE
  5
9A
330
98
100
AcDbEntity
  8
0
  6
Continuous
 62
     7
100
AcDbPolyline
 90
        2
 70
     1
 43
0.4000000100000001
 10
-0.2
 20
0.0
 42
1.0
 10
0.2
 20
0.0
 42
1.0
  0
ENDBLK
  5
9E
330
98
100
AcDbEntity
  8
0
100
AcDbBlockEnd
  0
BLOCK
  5
A0
330
9F
100
AcDbEntity
  8
0
100
AcDbBlockBegin
  2
KOZU0006
 70
     0
 10
0.0
 20
0.0
 30
0.0
  3
KOZU0006
  1

  0
LWPOLYLINE
  5
A1
330
9F
100
AcDbEntity
  8
0
  6
Continuous
 62
     7
100
AcDbPolyline
 90
        2
 70
     1
 43
0.4000000100000001
 10
-0.2
 20
0.0
 42
1.0
 10
0.2
 20
0.0
 42
1.0
  0
ENDBLK
  5
A5
330
9F
100
AcDbEntity
  8
0
100
AcDbBlockEnd
  0
BLOCK
  5
A7
330
A6
100
AcDbEntity
  8
0
100
AcDbBlockBegin
  2
KOZU0007
 70
     0
 10
0.0
 20
0.0
 30
0.0
  3
KOZU0007
  1

  0
LWPOLYLINE
  5
A8
330
A6
100
AcDbEntity
  8
0
  6
Continuous
 62
     7
100
AcDbPolyline
 90
        2
 70
     1
 43
0.4000000100000001
 10
-0.2
 20
0.0
 42
1.0
 10
0.2
 20
0.0
 42
1.0
  0
ENDBLK
  5
AC
330
A6
100
AcDbEntity
  8
0
100
AcDbBlockEnd
  0
BLOCK
  5
AE
330
AD
100
AcDbEntity
  8
0
100
AcDbBlockBegin
  2
KOZU0008
 70
     0
 10
0.0
 20
0.0
 30
0.0
  3
KOZU0008
  1

  0
LWPOLYLINE
  5
AF
330
AD
100
AcDbEntity
  8
0
  6
Continuous
 62
     7
100
AcDbPolyline
 90
        2
 70
     1
 43
0.4000000100000001
 10
-0.2
 20
0.0
 42
1.0
 10
0.2
 20
0.0
 42
1.0
  0
ENDBLK
  5
B3
330
AD
100
AcDbEntity
  8
0
100
AcDbBlockEnd
  0
BLOCK
  5
B5
330
B4
100
AcDbEntity
  8
0
100
AcDbBlockBegin
  2
KOZU0009
 70
     0
 10
0.0
 20
0.0
 30
0.0
  3
KOZU0009
  1

  0
LWPOLYLINE
  5
B6
330
B4
100
AcDbEntity
  8
0
  6
Continuous
 62
     7
100
AcDbPolyline
 90
        2
 70
     1
 43
0.4000000100000001
 10
-0.2
 20
0.0
 42
1.0
 10
0.2
 20
0.0
 42
1.0
  0
ENDBLK
  5
BA
330
B4
100
AcDbEntity
  8
0
100
AcDbBlockEnd
  0
BLOCK
  5
BC
330
BB
100
AcDbEntity
  8
0
100
AcDbBlockBegin
  2
KOZU0010
 70
     0
 10
0.0
 20
0.0
 30
0.0
  3
KOZU0010
  1

  0
LWPOLYLINE
  5
BD
330
BB
100
AcDbEntity
  8
0
  6
Continuous
 62
     7
100
AcDbPolyline
 90
        2
 70
     1
 43
0.4000000100000001
 10
-0.2
 20
0.0
 42
1.0
 10
0.2
 20
0.0
 42
1.0
  0
ENDBLK
  5
C1
330
BB
100
AcDbEntity
  8
0
100
AcDbBlockEnd
  0
BLOCK
  5
C3
330
C2
100
AcDbEntity
  8
0
100
AcDbBlockBegin
  2
KOZU0011
 70
     0
 10
0.0
 20
0.0
 30
0.0
  3
KOZU0011
  1

  0
LWPOLYLINE
  5
C4
330
C2
100
AcDbEntity
  8
0
  6
Continuous
 62
     7
100
AcDbPolyline
 90
        2
 70
     1
 43
0.4000000100000001
 10
-0.2
 20
0.0
 42
1.0
 10
0.2
 20
0.0
 42
1.0
  0
ENDBLK
  5
C8
330
C2
100
AcDbEntity
  8
0
100
AcDbBlockEnd
  0
BLOCK
  5
CA
330
C9
100
AcDbEntity
  8
0
100
AcDbBlockBegin
  2
KOZU0012
 70
     0
 10
0.0
 20
0.0
 30
0.0
  3
KOZU0012
  1

  0
LWPOLYLINE
  5
CB
330
C9
100
AcDbEntity
  8
0
  6
Continuous
 62
     7
100
AcDbPolyline
 90
        2
 70
     1
 43
0.4000000100000001
 10
-0.2
 20
0.0
 42
1.0
 10
0.2
 20
0.0
 42
1.0
  0
ENDBLK
  5
CF
330
C9
100
AcDbEntity
  8
0
100
AcDbBlockEnd
  0
BLOCK
  5
D1
330
D0
100
AcDbEntity
  8
0
100
AcDbBlockBegin
  2
KOZU0013
 70
     0
 10
0.0
 20
0.0
 30
0.0
  3
KOZU0013
  1

  0
LWPOLYLINE
  5
D2
330
D0
100
AcDbEntity
  8
0
  6
Continuous
 62
     7
100
AcDbPolyline
 90
        2
 70
     1
 43
0.4000000100000001
 10
-0.2
 20
0.0
 42
1.0
 10
0.2
 20
0.0
 42
1.0
  0
ENDBLK
  5
D6
330
D0
100
AcDbEntity
  8
0
100
AcDbBlockEnd
  0
BLOCK
  5
D8
330
D7
100
AcDbEntity
  8
0
100
AcDbBlockBegin
  2
KOZU0014
 70
     0
 10
0.0
 20
0.0
 30
0.0
  3
KOZU0014
  1

  0
LWPOLYLINE
  5
D9
330
D7
100
AcDbEntity
  8
0
  6
Continuous
 62
     7
100
AcDbPolyline
 90
        2
 70
     1
 43
0.4000000100000001
 10
-0.2
 20
0.0
 42
1.0
 10
0.2
 20
0.0
 42
1.0
  0
ENDBLK
  5
DD
330
D7
100
AcDbEntity
  8
0
100
AcDbBlockEnd
  0
BLOCK
  5
DF
330
DE
100
AcDbEntity
  8
0
100
AcDbBlockBegin
  2
KOZU0015
 70
     0
 10
0.0
 20
0.0
 30
0.0
  3
KOZU0015
  1

  0
LWPOLYLINE
  5
E0
330
DE
100
AcDbEntity
  8
0
  6
Continuous
 62
     7
100
AcDbPolyline
 90
        2
 70
     1
 43
0.4000000100000001
 10
-0.2
 20
0.0
 42
1.0
 10
0.2
 20
0.0
 42
1.0
  0
ENDBLK
  5
E4
330
DE
100
AcDbEntity
  8
0
100
AcDbBlockEnd
  0
BLOCK
  5
E6
330
E5
100
AcDbEntity
  8
0
100
AcDbBlockBegin
  2
KOZU0016
 70
     0
 10
0.0
 20
0.0
 30
0.0
  3
KOZU0016
  1

  0
LWPOLYLINE
  5
E7
330
E5
100
AcDbEntity
  8
0
  6
Continuous
 62
     7
100
AcDbPolyline
 90
        2
 70
     1
 43
0.4000000100000001
 10
-0.2
 20
0.0
 42
1.0
 10
0.2
 20
0.0
 42
1.0
  0
ENDBLK
  5
EB
330
E5
100
AcDbEntity
  8
0
100
AcDbBlockEnd
  0
BLOCK
  5
ED
330
EC
100
AcDbEntity
  8
0
100
AcDbBlockBegin
  2
KOZU0017
 70
     0
 10
0.0
 20
0.0
 30
0.0
  3
KOZU0017
  1

  0
LWPOLYLINE
  5
EE
330
EC
100
AcDbEntity
  8
0
  6
Continuous
 62
     7
100
AcDbPolyline
 90
        2
 70
     1
 43
0.4000000100000001
 10
-0.2
 20
0.0
 42
1.0
 10
0.2
 20
0.0
 42
1.0
  0
ENDBLK
  5
F2
330
EC
100
AcDbEntity
  8
0
100
AcDbBlockEnd
  0
BLOCK
  5
F4
330
F3
100
AcDbEntity
  8
0
100
AcDbBlockBegin
  2
KOZU0018
 70
     0
 10
0.0
 20
0.0
 30
0.0
  3
KOZU0018
  1

  0
LWPOLYLINE
  5
F5
330
F3
100
AcDbEntity
  8
0
  6
Continuous
 62
     7
100
AcDbPolyline
 90
        2
 70
     1
 43
0.4000000100000001
 10
-0.2
 20
0.0
 42
1.0
 10
0.2
 20
0.0
 42
1.0
  0
ENDBLK
  5
F9
330
F3
100
AcDbEntity
  8
0
100
AcDbBlockEnd
  0
BLOCK
  5
FB
330
FA
100
AcDbEntity
  8
0
100
AcDbBlockBegin
  2
KOZU0019
 70
     0
 10
0.0
 20
0.0
 30
0.0
  3
KOZU0019
  1

  0
LWPOLYLINE
  5
FC
330
FA
100
AcDbEntity
  8
0
  6
Continuous
 62
     7
100
AcDbPolyline
 90
        2
 70
     1
 43
0.4000000100000001
 10
-0.2
 20
0.0
 42
1.0
 10
0.2
 20
0.0
 42
1.0
  0
ENDBLK
  5
100
330
FA
100
AcDbEntity
  8
0
100
AcDbBlockEnd
  0
BLOCK
  5
102
330
101
100
AcDbEntity
  8
0
100
AcDbBlockBegin
  2
KOZU0020
 70
     0
 10
0.0
 20
0.0
 30
0.0
  3
KOZU0020
  1

  0
LWPOLYLINE
  5
103
330
101
100
AcDbEntity
  8
0
  6
Continuous
 62
     7
100
AcDbPolyline
 90
        2
 70
     1
 43
0.4000000100000001
 10
-0.2
 20
0.0
 42
1.0
 10
0.2
 20
0.0
 42
1.0
  0
ENDBLK
  5
107
330
101
100
AcDbEntity
  8
0
100
AcDbBlockEnd
  0
BLOCK
  5
109
330
108
100
AcDbEntity
  8
0
100
AcDbBlockBegin
  2
KOZU0021
 70
     0
 10
0.0
 20
0.0
 30
0.0
  3
KOZU0021
  1

  0
LWPOLYLINE
  5
10A
330
108
100
AcDbEntity
  8
0
  6
Continuous
 62
     7
100
AcDbPolyline
 90
        2
 70
     1
 43
0.4000000100000001
 10
-0.2
 20
0.0
 42
1.0
 10
0.2
 20
0.0
 42
1.0
  0
ENDBLK
  5
10E
330
108
100
AcDbEntity
  8
0
100
AcDbBlockEnd
  0
BLOCK
  5
110
330
10F
100
AcDbEntity
  8
0
100
AcDbBlockBegin
  2
KOZU0022
 70
     0
 10
0.0
 20
0.0
 30
0.0
  3
KOZU0022
  1

  0
LWPOLYLINE
  5
111
330
10F
100
AcDbEntity
  8
0
  6
Continuous
 62
     7
100
AcDbPolyline
 90
        2
 70
     1
 43
0.4000000100000001
 10
-0.2
 20
0.0
 42
1.0
 10
0.2
 20
0.0
 42
1.0
  0
ENDBLK
  5
115
330
10F
100
AcDbEntity
  8
0
100
AcDbBlockEnd
  0
BLOCK
  5
117
330
116
100
AcDbEntity
  8
0
100
AcDbBlockBegin
  2
KOZU0023
 70
     0
 10
0.0
 20
0.0
 30
0.0
  3
KOZU0023
  1

  0
LWPOLYLINE
  5
118
330
116
100
AcDbEntity
  8
0
  6
Continuous
 62
     7
100
AcDbPolyline
 90
        2
 70
     1
 43
0.4000000100000001
 10
-0.2
 20
0.0
 42
1.0
 10
0.2
 20
0.0
 42
1.0
  0
ENDBLK
  5
11C
330
116
100
AcDbEntity
  8
0
100
AcDbBlockEnd
  0
BLOCK
  5
11E
330
11D
100
AcDbEntity
  8
0
100
AcDbBlockBegin
  2
KOZU0024
 70
     0
 10
0.0
 20
0.0
 30
0.0
  3
KOZU0024
  1

  0
LWPOLYLINE
  5
11F
330
11D
100
AcDbEntity
  8
0
  6
Continuous
 62
     7
100
AcDbPolyline
 90
        2
 70
     1
 43
0.4000000100000001
 10
-0.2
 20
0.0
 42
1.0
 10
0.2
 20
0.0
 42
1.0
  0
ENDBLK
  5
123
330
11D
100
AcDbEntity
  8
0
100
AcDbBlockEnd
  0
BLOCK
  5
125
330
124
100
AcDbEntity
  8
0
100
AcDbBlockBegin
  2
KOZU0025
 70
     0
 10
0.0
 20
0.0
 30
0.0
  3
KOZU0025
  1

  0
LWPOLYLINE
  5
126
330
124
100
AcDbEntity
  8
0
  6
Continuous
 62
     7
100
AcDbPolyline
 90
        2
 70
     1
 43
0.4000000100000001
 10
-0.2
 20
0.0
 42
1.0
 10
0.2
 20
0.0
 42
1.0
  0
ENDBLK
  5
12A
330
124
100
AcDbEntity
  8
0
100
AcDbBlockEnd
  0
BLOCK
  5
12C
330
12B
100
AcDbEntity
  8
0
100
AcDbBlockBegin
  2
KOZU0026
 70
     0
 10
0.0
 20
0.0
 30
0.0
  3
KOZU0026
  1

  0
LWPOLYLINE
  5
12D
330
12B
100
AcDbEntity
  8
0
  6
Continuous
 62
     7
100
AcDbPolyline
 90
        2
 70
     1
 43
0.4000000100000001
 10
-0.2
 20
0.0
 42
1.0
 10
0.2
 20
0.0
 42
1.0
  0
ENDBLK
  5
131
330
12B
100
AcDbEntity
  8
0
100
AcDbBlockEnd
  0
BLOCK
  5
133
330
132
100
AcDbEntity
  8
0
100
AcDbBlockBegin
  2
KOZU0027
 70
     0
 10
0.0
 20
0.0
 30
0.0
  3
KOZU0027
  1

  0
LWPOLYLINE
  5
134
330
132
100
AcDbEntity
  8
0
  6
Continuous
 62
     7
100
AcDbPolyline
 90
        2
 70
     1
 43
0.4000000100000001
 10
-0.2
 20
0.0
 42
1.0
 10
0.2
 20
0.0
 42
1.0
  0
ENDBLK
  5
138
330
132
100
AcDbEntity
  8
0
100
AcDbBlockEnd
  0
BLOCK
  5
13A
330
139
100
AcDbEntity
  8
0
100
AcDbBlockBegin
  2
KOZU0028
 70
     0
 10
0.0
 20
0.0
 30
0.0
  3
KOZU0028
  1

  0
LWPOLYLINE
  5
13B
330
139
100
AcDbEntity
  8
0
  6
Continuous
 62
     7
100
AcDbPolyline
 90
        2
 70
     1
 43
0.4000000100000001
 10
-0.2
 20
0.0
 42
1.0
 10
0.2
 20
0.0
 42
1.0
  0
ENDBLK
  5
13F
330
139
100
AcDbEntity
  8
0
100
AcDbBlockEnd
  0
BLOCK
  5
141
330
140
100
AcDbEntity
  8
0
100
AcDbBlockBegin
  2
KOZU0029
 70
     0
 10
0.0
 20
0.0
 30
0.0
  3
KOZU0029
  1

  0
LWPOLYLINE
  5
142
330
140
100
AcDbEntity
  8
0
  6
Continuous
 62
     7
100
AcDbPolyline
 90
        2
 70
     1
 43
0.4000000100000001
 10
-0.2
 20
0.0
 42
1.0
 10
0.2
 20
0.0
 42
1.0
  0
ENDBLK
  5
146
330
140
100
AcDbEntity
  8
0
100
AcDbBlockEnd
  0
BLOCK
  5
148
330
147
100
AcDbEntity
  8
0
100
AcDbBlockBegin
  2
KOZU0030
 70
     0
 10
0.0
 20
0.0
 30
0.0
  3
KOZU0030
  1

  0
LWPOLYLINE
  5
149
330
147
100
AcDbEntity
  8
0
  6
Continuous
 62
     7
100
AcDbPolyline
 90
        2
 70
     1
 43
0.4000000100000001
 10
-0.2
 20
0.0
 42
1.0
 10
0.2
 20
0.0
 42
1.0
  0
ENDBLK
  5
14D
330
147
100
AcDbEntity
  8
0
100
AcDbBlockEnd
  0
BLOCK
  5
14F
330
14E
100
AcDbEntity
  8
0
100
AcDbBlockBegin
  2
KOZU0031
 70
     0
 10
0.0
 20
0.0
 30
0.0
  3
KOZU0031
  1

  0
LWPOLYLINE
  5
150
330
14E
100
AcDbEntity
  8
0
  6
Continuous
 62
     7
100
AcDbPolyline
 90
        2
 70
     1
 43
0.4000000100000001
 10
-0.2
 20
0.0
 42
1.0
 10
0.2
 20
0.0
 42
1.0
  0
ENDBLK
  5
154
330
14E
100
AcDbEntity
  8
0
100
AcDbBlockEnd
  0
BLOCK
  5
156
330
155
100
AcDbEntity
  8
0
100
AcDbBlockBegin
  2
KOZU0032
 70
     0
 10
0.0
 20
0.0
 30
0.0
  3
KOZU0032
  1

  0
LWPOLYLINE
  5
157
330
155
100
AcDbEntity
  8
0
  6
Continuous
 62
     7
100
AcDbPolyline
 90
        2
 70
     1
 43
0.4000000100000001
 10
-0.2
 20
0.0
 42
1.0
 10
0.2
 20
0.0
 42
1.0
  0
ENDBLK
  5
15B
330
155
100
AcDbEntity
  8
0
100
AcDbBlockEnd
  0
BLOCK
  5
15D
330
15C
100
AcDbEntity
  8
0
100
AcDbBlockBegin
  2
KOZU0033
 70
     0
 10
0.0
 20
0.0
 30
0.0
  3
KOZU0033
  1

  0
LWPOLYLINE
  5
15E
330
15C
100
AcDbEntity
  8
0
  6
Continuous
 62
     7
100
AcDbPolyline
 90
        2
 70
     1
 43
0.4000000100000001
 10
-0.2
 20
0.0
 42
1.0
 10
0.2
 20
0.0
 42
1.0
  0
ENDBLK
  5
162
330
15C
100
AcDbEntity
  8
0
100
AcDbBlockEnd
  0
BLOCK
  5
164
330
163
100
AcDbEntity
  8
0
100
AcDbBlockBegin
  2
KOZU0034
 70
     0
 10
0.0
 20
0.0
 30
0.0
  3
KOZU0034
  1

  0
LWPOLYLINE
  5
165
330
163
100
AcDbEntity
  8
0
  6
Continuous
 62
     7
100
AcDbPolyline
 90
        2
 70
     1
 43
0.4000000100000001
 10
-0.2
 20
0.0
 42
1.0
 10
0.2
 20
0.0
 42
1.0
  0
ENDBLK
  5
169
330
163
100
AcDbEntity
  8
0
100
AcDbBlockEnd
  0
BLOCK
  5
2E4
330
2E2
100
AcDbEntity
  8
0
100
AcDbBlockBegin
  2
GENAXEH
 70
     0
 10
0.0
 20
0.0
 30
0.0
  3
GENAXEH
  1

  0
LINE
  5
2E3
330
2E2
100
AcDbEntity
  8
0
100
AcDbLine
 10
-1.0
 20
0.0
 30
0.0
 11
1.0
 21
0.0
 31
0.0
  0
ENDBLK
  5
2E5
330
2E2
100
AcDbEntity
  8
0
100
AcDbBlockEnd
  0
BLOCK
  5
382
330
381
100
AcDbEntity
  8
0
100
AcDbBlockBegin
  2
_ACMFILLEDHALF
 70
     0
 10
0.0
 20
0.0
 30
0.0
  3
_ACMFILLEDHALF
  1

  0
TRACE
  5
383
330
381
100
AcDbEntity
  8
0
 62
     0
100
AcDbTrace
 10
-0.8
 20
0.0
 30
0.0
 11
-1.0
 21
0.166666666
 31
0.0
 12
0.0
 22
0.0
 32
0.0
 13
0.0
 23
0.0
 33
0.0
  0
LINE
  5
384
330
381
100
AcDbEntity
  8
0
 62
     0
100
AcDbLine
 10
-1.0
 20
0.0
 30
0.0
 11
-0.8
 21
0.0
 31
0.0
  0
ENDBLK
  5
385
330
381
100
AcDbEntity
  8
0
100
AcDbBlockEnd
  0
ENDSEC
  0
SECTION
  2
ENTITIES
  0
POINT
  5
16A
330
70
100
AcDbEntity
  8
0
  6
Continuous
 62
     3
100
AcDbPoint
 10
826.14465
 20
362.17078
 30
0.0
  0
POINT
  5
16B
330
70
100
AcDbEntity
  8
0
  6
Continuous
 62
     3
100
AcDbPoint
 10
826.14465
 20
382.17078
 30
0.0
  0
POINT
  5
16C
330
70
100
AcDbEntity
  8
0
  6
Continuous
 62
     3
100
AcDbPoint
 10
816.14465
 20
382.17078
 30
0.0
  0
POINT
  5
16D
330
70
100
AcDbEntity
  8
0
  6
Continuous
 62
     3
100
AcDbPoint
 10
826.14465
 20
493.1707799999999
 30
0.0
  0
POINT
  5
16E
330
70
100
AcDbEntity
  8
0
  6
Continuous
 62
     3
100
AcDbPoint
 10
826.14465
 20
382.17078
 30
0.0
  0
POINT
  5
16F
330
70
100
AcDbEntity
  8
0
  6
Continuous
 62
     3
100
AcDbPoint
 10
816.14465
 20
382.17078
 30
0.0
  0
POINT
  5
170
330
70
100
AcDbEntity
  8
0
  6
Continuous
 62
     3
100
AcDbPoint
 10
826.14465
 20
493.1707799999999
 30
0.0
  0
POINT
  5
171
330
70
100
AcDbEntity
  8
0
  6
Continuous
 62
     3
100
AcDbPoint
 10
841.14465
 20
493.1707799999999
 30
0.0
  0
POINT
  5
172
330
70
100
AcDbEntity
  8
0
  6
Continuous
 62
     3
100
AcDbPoint
 10
841.14465
 20
503.1707799999999
 30
0.0
  0
POINT
  5
173
330
70
100
AcDbEntity
  8
0
  6
Continuous
 62
     3
100
AcDbPoint
 10
841.14465
 20
493.1707799999999
 30
0.0
  0
POINT
  5
174
330
70
100
AcDbEntity
  8
0
  6
Continuous
 62
     3
100
AcDbPoint
 10
891.14465
 20
362.17078
 30
0.0
  0
POINT
  5
175
330
70
100
AcDbEntity
  8
0
  6
Continuous
 62
     3
100
AcDbPoint
 10
891.14465
 20
503.1707799999999
 30
0.0
  0
POINT
  5
176
330
70
100
AcDbEntity
  8
0
  6
Continuous
 62
     3
100
AcDbPoint
 10
826.14465
 20
493.1707799999999
 30
0.0
  0
POINT
  5
177
330
70
100
AcDbEntity
  8
0
  6
Continuous
 62
     3
100
AcDbPoint
 10
891.14465
 20
362.17078
 30
0.0
  0
POINT
  5
178
330
70
100
AcDbEntity
  8
0
  6
Continuous
 62
     3
100
AcDbPoint
 10
891.14465
 20
513.17078
 30
0.0
  0
POINT
  5
179
330
70
100
AcDbEntity
  8
0
  6
Continuous
 62
     3
100
AcDbPoint
 10
826.14465
 20
362.17078
 30
0.0
  0
POINT
  5
17A
330
70
100
AcDbEntity
  8
0
  6
Continuous
 62
     3
100
AcDbPoint
 10
836.14465
 20
362.17078
 30
0.0
  0
POINT
  5
17B
330
70
100
AcDbEntity
  8
0
  6
Continuous
 62
     3
100
AcDbPoint
 10
836.14465
 20
347.17078
 30
0.0
  0
POINT
  5
17C
330
70
100
AcDbEntity
  8
0
  6
Continuous
 62
     3
100
AcDbPoint
 10
836.14465
 20
376.67078
 30
0.0
  0
POINT
  5
17D
330
70
100
AcDbEntity
  8
0
  6
Continuous
 62
     3
100
AcDbPoint
 10
891.14465
 20
362.17078
 30
0.0
  0
POINT
  5
17E
330
70
100
AcDbEntity
  8
0
  6
Continuous
 62
     3
100
AcDbPoint
 10
891.14465
 20
347.17078
 30
0.0
  0
POINT
  5
17F
330
70
100
AcDbEntity
  8
0
  6
Continuous
 62
     3
100
AcDbPoint
 10
730.4486099999999
 20
493.1707799999999
 30
0.0
  0
POINT
  5
180
330
70
100
AcDbEntity
  8
0
  6
Continuous
 62
     3
100
AcDbPoint
 10
679.4486099999999
 20
473.1707799999999
 30
0.0
  0
POINT
  5
181
330
70
100
AcDbEntity
  8
0
  6
Continuous
 62
     3
100
AcDbPoint
 10
745.4486099999999
 20
473.1707799999999
 30
0.0
  0
POINT
  5
182
330
70
100
AcDbEntity
  8
0
  6
Continuous
 62
     3
100
AcDbPoint
 10
730.4486099999999
 20
473.1707799999999
 30
0.0
  0
POINT
  5
183
330
70
100
AcDbEntity
  8
0
  6
Continuous
 62
     3
100
AcDbPoint
 10
730.4486099999999
 20
362.17078
 30
0.0
  0
POINT
  5
184
330
70
100
AcDbEntity
  8
0
  6
Continuous
 62
     3
100
AcDbPoint
 10
745.4486099999999
 20
362.17078
 30
0.0
  0
POINT
  5
185
330
70
100
AcDbEntity
  8
0
  6
Continuous
 62
     3
100
AcDbPoint
 10
730.4486099999999
 20
493.1707799999999
 30
0.0
  0
POINT
  5
186
330
70
100
AcDbEntity
  8
0
  6
Continuous
 62
     3
100
AcDbPoint
 10
730.4486099999999
 20
362.17078
 30
0.0
  0
POINT
  5
187
330
70
100
AcDbEntity
  8
0
  6
Continuous
 62
     3
100
AcDbPoint
 10
755.4486099999999
 20
362.17078
 30
0.0
  0
POINT
  5
188
330
70
100
AcDbEntity
  8
0
  6
Continuous
 62
     3
100
AcDbPoint
 10
730.4486099999999
 20
362.17078
 30
0.0
  0
POINT
  5
189
330
70
100
AcDbEntity
  8
0
  6
Continuous
 62
     3
100
AcDbPoint
 10
729.64862
 20
362.17078
 30
0.0
  0
POINT
  5
18A
330
70
100
AcDbEntity
  8
0
  6
Continuous
 62
     3
100
AcDbPoint
 10
729.64862
 20
347.17078
 30
0.0
  0
POINT
  5
18B
330
70
100
AcDbEntity
  8
0
  6
Continuous
 62
     3
100
AcDbPoint
 10
460.4486099999999
 20
362.17078
 30
0.0
  0
POINT
  5
18C
330
70
100
AcDbEntity
  8
0
  6
Continuous
 62
     3
100
AcDbPoint
 10
461.2486299999999
 20
362.17078
 30
0.0
  0
POINT
  5
18D
330
70
100
AcDbEntity
  8
0
  6
Continuous
 62
     3
100
AcDbPoint
 10
461.2486299999999
 20
347.17078
 30
0.0
  0
POINT
  5
18E
330
70
100
AcDbEntity
  8
0
  6
Continuous
 62
     3
100
AcDbPoint
 10
460.4486099999999
 20
493.1707799999999
 30
0.0
  0
POINT
  5
18F
330
70
100
AcDbEntity
  8
0
  6
Continuous
 62
     3
100
AcDbPoint
 10
511.4486099999999
 20
493.1707799999999
 30
0.0
  0
POINT
  5
190
330
70
100
AcDbEntity
  8
0
  6
Continuous
 62
     3
100
AcDbPoint
 10
511.4486099999999
 20
503.1707799999999
 30
0.0
  0
POINT
  5
191
330
70
100
AcDbEntity
  8
0
  6
Continuous
 62
     3
100
AcDbPoint
 10
511.4486099999999
 20
493.1707799999999
 30
0.0
  0
POINT
  5
192
330
70
100
AcDbEntity
  8
0
  6
Continuous
 62
     3
100
AcDbPoint
 10
679.4486099999999
 20
493.1707799999999
 30
0.0
  0
POINT
  5
193
330
70
100
AcDbEntity
  8
0
  6
Continuous
 62
     3
100
AcDbPoint
 10
679.4486099999999
 20
503.1707799999999
 30
0.0
  0
POINT
  5
194
330
70
100
AcDbEntity
  8
0
  6
Continuous
 62
     3
100
AcDbPoint
 10
679.4486099999999
 20
493.1707799999999
 30
0.0
  0
POINT
  5
195
330
70
100
AcDbEntity
  8
0
  6
Continuous
 62
     3
100
AcDbPoint
 10
730.4486099999999
 20
493.1707799999999
 30
0.0
  0
POINT
  5
196
330
70
100
AcDbEntity
  8
0
  6
Continuous
 62
     3
100
AcDbPoint
 10
730.4486099999999
 20
503.1707799999999
 30
0.0
  0
POINT
  5
197
330
70
100
AcDbEntity
  8
0
  6
Continuous
 62
     3
100
AcDbPoint
 10
460.4486099999999
 20
493.1707799999999
 30
0.0
  0
POINT
  5
198
330
70
100
AcDbEntity
  8
0
  6
Continuous
 62
     3
100
AcDbPoint
 10
730.4486099999999
 20
493.1707799999999
 30
0.0
  0
POINT
  5
199
330
70
100
AcDbEntity
  8
0
  6
Continuous
 62
     3
100
AcDbPoint
 10
730.4486099999999
 20
513.17078
 30
0.0
  0
POINT
  5
19A
330
70
100
AcDbEntity
  8
0
  6
Continuous
 62
     7
100
AcDbPoint
 10
0.0
 20
0.0
 30
0.0
  0
POINT
  5
19B
330
70
100
AcDbEntity
  8
0
  6
Continuous
 62
     3
100
AcDbPoint
 10
835.0141599999998
 20
379.94101
 30
0.0
  0
POINT
  5
19C
330
70
100
AcDbEntity
  8
0
  6
Continuous
 62
     3
100
AcDbPoint
 10
837.27515
 20
384.40054
 30
0.0
  0
LINE
  5
19D
330
70
100
AcDbEntity
  8
0
  6
Continuous
 62
     7
100
AcDbLine
 10
461.2486299999999
 20
362.17078
 30
0.0
 11
461.2486299999999
 21
492.3707900000001
 31
0.0
  0
LINE
  5
19E
330
70
100
AcDbEntity
  8
0
  6
Continuous
 62
     7
100
AcDbLine
 10
461.2486299999999
 20
492.3707900000001
 30
0.0
 11
511.4486099999999
 21
492.3707900000001
 31
0.0
  0
LINE
  5
19F
330
70
100
AcDbEntity
  8
0
  6
Continuous
 62
     7
100
AcDbLine
 10
729.64862
 20
492.3707900000001
 30
0.0
 11
729.64862
 21
362.17078
 31
0.0
  0
LINE
  5
1A0
330
70
100
AcDbEntity
  8
0
  6
Continuous
 62
     7
100
AcDbLine
 10
495.4486099999999
 20
377.17078
 30
0.0
 11
695.4486099999999
 21
377.17078
 31
0.0
  0
LINE
  5
1A1
330
70
100
AcDbEntity
  8
0
  6
Continuous
 62
     7
100
AcDbLine
 10
495.4486099999999
 20
387.17078
 30
0.0
 11
695.4486099999999
 21
387.17078
 31
0.0
  0
LINE
  5
1A2
330
70
100
AcDbEntity
  8
0
  6
Continuous
 62
     7
100
AcDbLine
 10
495.4486099999999
 20
386.17078
 30
0.0
 11
695.4486099999999
 21
386.17078
 31
0.0
  0
LINE
  5
1A3
330
70
100
AcDbEntity
  8
0
  6
Continuous
 62
     7
100
AcDbLine
 10
495.4486099999999
 20
378.17078
 30
0.0
 11
695.4486099999999
 21
378.17078
 31
0.0
  0
LINE
  5
1A4
330
70
100
AcDbEntity
  8
0
  6
Continuous
 62
     7
100
AcDbLine
 10
679.4486099999999
 20
492.3707900000001
 30
0.0
 11
729.64862
 21
492.3707900000001
 31
0.0
  0
LINE
  5
1A5
330
70
100
AcDbEntity
  8
0
  6
Continuous
 62
     7
100
AcDbLine
 10
826.14465
 20
362.17078
 30
0.0
 11
891.14465
 21
362.17078
 31
0.0
  0
LINE
  5
1A6
330
70
100
AcDbEntity
  8
0
  6
CENTER
 62
     4
100
AcDbLine
 10
836.14465
 20
387.67078
 30
0.0
 11
836.14465
 21
376.67078
 31
0.0
  0
LINE
  5
1A7
330
70
100
AcDbEntity
  8
0
  6
CENTER
 62
     4
100
AcDbLine
 10
841.64465
 20
382.17078
 30
0.0
 11
830.64465
 21
382.17078
 31
0.0
  0
LINE
  5
1A8
330
70
100
AcDbEntity
  8
0
  6
Continuous
 62
     3
100
AcDbLine
 10
825.14465
 20
362.17078
 30
0.0
 11
815.14465
 21
362.17078
 31
0.0
  0
LINE
  5
1A9
330
70
100
AcDbEntity
  8
0
  6
Continuous
 62
     3
100
AcDbLine
 10
825.14465
 20
382.17078
 30
0.0
 11
815.14465
 21
382.17078
 31
0.0
  0
LINE
  5
1AA
330
70
100
AcDbEntity
  8
0
  6
Continuous
 62
     3
100
AcDbLine
 10
816.14465
 20
362.97076
 30
0.0
 11
816.14465
 21
381.37079
 31
0.0
  0
LINE
  5
1AB
330
70
100
AcDbEntity
  8
0
  6
Continuous
 62
     7
100
AcDbLine
 10
816.14465
 20
362.57077
 30
0.0
 11
816.14465
 21
362.97076
 31
0.0
  0
LINE
  5
1AC
330
70
100
AcDbEntity
  8
0
  6
Continuous
 62
     7
100
AcDbLine
 10
816.14465
 20
381.77078
 30
0.0
 11
816.14465
 21
381.37079
 31
0.0
  0
LINE
  5
1AD
330
70
100
AcDbEntity
  8
0
  6
Continuous
 62
     7
100
AcDbLine
 10
826.14465
 20
493.1707799999999
 30
0.0
 11
826.14465
 21
362.17078
 31
0.0
  0
LINE
  5
1AE
330
70
100
AcDbEntity
  8
0
  6
Continuous
 62
     7
100
AcDbLine
 10
826.14465
 20
493.1707799999999
 30
0.0
 11
834.2578099999998
 21
493.1707799999999
 31
0.0
  0
LINE
  5
1AF
330
70
100
AcDbEntity
  8
0
  6
Continuous
 62
     7
100
AcDbLine
 10
843.6004
 20
486.7366599999999
 30
0.0
 11
891.14465
 21
362.17081
 31
0.0
  0
LINE
  5
1B0
330
70
100
AcDbEntity
  8
0
  6
Continuous
 62
     3
100
AcDbLine
 10
825.14465
 20
493.1707799999999
 30
0.0
 11
815.14465
 21
493.1707799999999
 31
0.0
  0
LINE
  5
1B1
330
70
100
AcDbEntity
  8
0
  6
Continuous
 62
     3
100
AcDbLine
 10
825.14465
 20
382.17078
 30
0.0
 11
815.14465
 21
382.17078
 31
0.0
  0
LINE
  5
1B2
330
70
100
AcDbEntity
  8
0
  6
Continuous
 62
     3
100
AcDbLine
 10
816.14465
 20
492.3707900000001
 30
0.0
 11
816.14465
 21
382.97076
 31
0.0
  0
LINE
  5
1B3
330
70
100
AcDbEntity
  8
0
  6
Continuous
 62
     7
100
AcDbLine
 10
816.14465
 20
492.77078
 30
0.0
 11
816.14465
 21
492.3707900000001
 31
0.0
  0
LINE
  5
1B4
330
70
100
AcDbEntity
  8
0
  6
Continuous
 62
     7
100
AcDbLine
 10
816.14465
 20
382.57077
 30
0.0
 11
816.14465
 21
382.97076
 31
0.0
  0
LINE
  5
1B5
330
70
100
AcDbEntity
  8
0
  6
Continuous
 62
     3
100
AcDbLine
 10
826.14465
 20
494.1707799999999
 30
0.0
 11
826.14465
 21
504.17078
 31
0.0
  0
LINE
  5
1B6
330
70
100
AcDbEntity
  8
0
  6
Continuous
 62
     3
100
AcDbLine
 10
841.14465
 20
494.1707799999999
 30
0.0
 11
841.14465
 21
504.17078
 31
0.0
  0
LINE
  5
1B7
330
70
100
AcDbEntity
  8
0
  6
Continuous
 62
     3
100
AcDbLine
 10
826.94464
 20
503.1707799999999
 30
0.0
 11
840.34467
 21
503.1707799999999
 31
0.0
  0
LINE
  5
1B8
330
70
100
AcDbEntity
  8
0
  6
Continuous
 62
     7
100
AcDbLine
 10
826.5446799999999
 20
503.1707799999999
 30
0.0
 11
826.94464
 21
503.1707799999999
 31
0.0
  0
LINE
  5
1B9
330
70
100
AcDbEntity
  8
0
  6
Continuous
 62
     7
100
AcDbLine
 10
840.74463
 20
503.1707799999999
 30
0.0
 11
840.34467
 21
503.1707799999999
 31
0.0
  0
LINE
  5
1BA
330
70
100
AcDbEntity
  8
0
  6
Continuous
 62
     3
100
AcDbLine
 10
841.14465
 20
494.1707799999999
 30
0.0
 11
841.14465
 21
504.17078
 31
0.0
  0
LINE
  5
1BB
330
70
100
AcDbEntity
  8
0
  6
Continuous
 62
     3
100
AcDbLine
 10
891.14465
 20
363.17078
 30
0.0
 11
891.14465
 21
504.17078
 31
0.0
  0
LINE
  5
1BC
330
70
100
AcDbEntity
  8
0
  6
Continuous
 62
     3
100
AcDbLine
 10
841.9446399999999
 20
503.1707799999999
 30
0.0
 11
890.34467
 21
503.1707799999999
 31
0.0
  0
LINE
  5
1BD
330
70
100
AcDbEntity
  8
0
  6
Continuous
 62
     7
100
AcDbLine
 10
841.5446800000001
 20
503.1707799999999
 30
0.0
 11
841.9446399999999
 21
503.1707799999999
 31
0.0
  0
LINE
  5
1BE
330
70
100
AcDbEntity
  8
0
  6
Continuous
 62
     7
100
AcDbLine
 10
890.74463
 20
503.1707799999999
 30
0.0
 11
890.34467
 21
503.1707799999999
 31
0.0
  0
LINE
  5
1BF
330
70
100
AcDbEntity
  8
0
  6
Continuous
 62
     3
100
AcDbLine
 10
826.14465
 20
494.1707799999999
 30
0.0
 11
826.14465
 21
514.17078
 31
0.0
  0
LINE
  5
1C0
330
70
100
AcDbEntity
  8
0
  6
Continuous
 62
     3
100
AcDbLine
 10
891.14465
 20
363.17078
 30
0.0
 11
891.14465
 21
514.17078
 31
0.0
  0
LINE
  5
1C1
330
70
100
AcDbEntity
  8
0
  6
Continuous
 62
     3
100
AcDbLine
 10
826.94464
 20
513.17078
 30
0.0
 11
890.34467
 21
513.17078
 31
0.0
  0
LINE
  5
1C2
330
70
100
AcDbEntity
  8
0
  6
Continuous
 62
     7
100
AcDbLine
 10
826.5446799999999
 20
513.17078
 30
0.0
 11
826.94464
 21
513.17078
 31
0.0
  0
LINE
  5
1C3
330
70
100
AcDbEntity
  8
0
  6
Continuous
 62
     7
100
AcDbLine
 10
890.74463
 20
513.17078
 30
0.0
 11
890.34467
 21
513.17078
 31
0.0
  0
LINE
  5
1C4
330
70
100
AcDbEntity
  8
0
  6
Continuous
 62
     3
100
AcDbLine
 10
826.14465
 20
361.17078
 30
0.0
 11
826.14465
 21
346.17078
 31
0.0
  0
LINE
  5
1C5
330
70
100
AcDbEntity
  8
0
  6
Continuous
 62
     3
100
AcDbLine
 10
836.14465
 20
361.17078
 30
0.0
 11
836.14465
 21
346.17078
 31
0.0
  0
LINE
  5
1C6
330
70
100
AcDbEntity
  8
0
  6
Continuous
 62
     3
100
AcDbLine
 10
826.94464
 20
347.17078
 30
0.0
 11
835.3446700000001
 21
347.17078
 31
0.0
  0
LINE
  5
1C7
330
70
100
AcDbEntity
  8
0
  6
Continuous
 62
     7
100
AcDbLine
 10
826.5446799999999
 20
347.17078
 30
0.0
 11
826.94464
 21
347.17078
 31
0.0
  0
LINE
  5
1C8
330
70
100
AcDbEntity
  8
0
  6
Continuous
 62
     7
100
AcDbLine
 10
835.7446300000001
 20
347.17078
 30
0.0
 11
835.3446700000001
 21
347.17078
 31
0.0
  0
LINE
  5
1C9
330
70
100
AcDbEntity
  8
0
  6
Continuous
 62
     3
100
AcDbLine
 10
836.14465
 20
375.67078
 30
0.0
 11
836.14465
 21
346.17078
 31
0.0
  0
LINE
  5
1CA
330
70
100
AcDbEntity
  8
0
  6
Continuous
 62
     3
100
AcDbLine
 10
891.14465
 20
361.17078
 30
0.0
 11
891.14465
 21
346.17078
 31
0.0
  0
LINE
  5
1CB
330
70
100
AcDbEntity
  8
0
  6
Continuous
 62
     3
100
AcDbLine
 10
836.94464
 20
347.17078
 30
0.0
 11
890.34467
 21
347.17078
 31
0.0
  0
LINE
  5
1CC
330
70
100
AcDbEntity
  8
0
  6
Continuous
 62
     7
100
AcDbLine
 10
836.5446799999999
 20
347.17078
 30
0.0
 11
836.94464
 21
347.17078
 31
0.0
  0
LINE
  5
1CD
330
70
100
AcDbEntity
  8
0
  6
Continuous
 62
     7
100
AcDbLine
 10
890.74463
 20
347.17078
 30
0.0
 11
890.34467
 21
347.17078
 31
0.0
  0
LINE
  5
1CE
330
70
100
AcDbEntity
  8
0
  6
Continuous
 62
     3
100
AcDbLine
 10
731.4486099999998
 20
493.1707799999999
 30
0.0
 11
746.4486099999999
 21
493.1707799999999
 31
0.0
  0
LINE
  5
1CF
330
70
100
AcDbEntity
  8
0
  6
Continuous
 62
     3
100
AcDbLine
 10
680.4486099999999
 20
473.1707799999999
 30
0.0
 11
746.4486099999999
 21
473.1707799999999
 31
0.0
  0
LINE
  5
1D0
330
70
100
AcDbEntity
  8
0
  6
Continuous
 62
     3
100
AcDbLine
 10
745.4486099999999
 20
492.3707900000001
 30
0.0
 11
745.4486099999999
 21
473.97076
 31
0.0
  0
LINE
  5
1D1
330
70
100
AcDbEntity
  8
0
  6
Continuous
 62
     7
100
AcDbLine
 10
745.4486099999999
 20
492.77078
 30
0.0
 11
745.4486099999999
 21
492.3707900000001
 31
0.0
  0
LINE
  5
1D2
330
70
100
AcDbEntity
  8
0
  6
Continuous
 62
     7
100
AcDbLine
 10
745.4486099999999
 20
473.57077
 30
0.0
 11
745.4486099999999
 21
473.97076
 31
0.0
  0
LINE
  5
1D3
330
70
100
AcDbEntity
  8
0
  6
Continuous
 62
     3
100
AcDbLine
 10
731.4486099999998
 20
473.1707799999999
 30
0.0
 11
746.4486099999999
 21
473.1707799999999
 31
0.0
  0
LINE
  5
1D4
330
70
100
AcDbEntity
  8
0
  6
Continuous
 62
     3
100
AcDbLine
 10
731.4486099999998
 20
362.17078
 30
0.0
 11
746.4486099999999
 21
362.17078
 31
0.0
  0
LINE
  5
1D5
330
70
100
AcDbEntity
  8
0
  6
Continuous
 62
     3
100
AcDbLine
 10
745.4486099999999
 20
472.37079
 30
0.0
 11
745.4486099999999
 21
362.97076
 31
0.0
  0
LINE
  5
1D6
330
70
100
AcDbEntity
  8
0
  6
Continuous
 62
     7
100
AcDbLine
 10
745.4486099999999
 20
472.77078
 30
0.0
 11
745.4486099999999
 21
472.37079
 31
0.0
  0
LINE
  5
1D7
330
70
100
AcDbEntity
  8
0
  6
Continuous
 62
     7
100
AcDbLine
 10
745.4486099999999
 20
362.57077
 30
0.0
 11
745.4486099999999
 21
362.97076
 31
0.0
  0
LINE
  5
1D8
330
70
100
AcDbEntity
  8
0
  6
Continuous
 62
     3
100
AcDbLine
 10
731.4486099999998
 20
493.1707799999999
 30
0.0
 11
756.4486099999998
 21
493.1707799999999
 31
0.0
  0
LINE
  5
1D9
330
70
100
AcDbEntity
  8
0
  6
Continuous
 62
     3
100
AcDbLine
 10
731.4486099999998
 20
362.17078
 30
0.0
 11
756.4486099999998
 21
362.17078
 31
0.0
  0
LINE
  5
1DA
330
70
100
AcDbEntity
  8
0
  6
Continuous
 62
     3
100
AcDbLine
 10
755.4486099999999
 20
492.3707900000001
 30
0.0
 11
755.4486099999999
 21
362.97076
 31
0.0
  0
LINE
  5
1DB
330
70
100
AcDbEntity
  8
0
  6
Continuous
 62
     7
100
AcDbLine
 10
755.4486099999999
 20
492.77078
 30
0.0
 11
755.4486099999999
 21
492.3707900000001
 31
0.0
  0
LINE
  5
1DC
330
70
100
AcDbEntity
  8
0
  6
Continuous
 62
     7
100
AcDbLine
 10
755.4486099999999
 20
362.57077
 30
0.0
 11
755.4486099999999
 21
362.97076
 31
0.0
  0
LINE
  5
1DD
330
70
100
AcDbEntity
  8
0
  6
Continuous
 62
     3
100
AcDbLine
 10
730.4486099999999
 20
361.17078
 30
0.0
 11
730.4486099999999
 21
346.17078
 31
0.0
  0
LINE
  5
1DE
330
70
100
AcDbEntity
  8
0
  6
Continuous
 62
     3
100
AcDbLine
 10
729.64862
 20
361.17078
 30
0.0
 11
729.64862
 21
346.17078
 31
0.0
  0
LINE
  5
1DF
330
70
100
AcDbEntity
  8
0
  6
Continuous
 62
     3
100
AcDbLine
 10
731.2485999999999
 20
347.17078
 30
0.0
 11
732.04858
 21
347.17078
 31
0.0
  0
LINE
  5
1E0
330
70
100
AcDbEntity
  8
0
  6
Continuous
 62
     3
100
AcDbLine
 10
728.8486299999998
 20
347.17078
 30
0.0
 11
720.5661
 21
347.17078
 31
0.0
  0
LINE
  5
1E1
330
70
100
AcDbEntity
  8
0
  6
Continuous
 62
     3
100
AcDbLine
 10
730.4486099999999
 20
347.17078
 30
0.0
 11
729.64862
 21
347.17078
 31
0.0
  0
LINE
  5
1E2
330
70
100
AcDbEntity
  8
0
  6
Continuous
 62
     7
100
AcDbLine
 10
730.8486299999998
 20
347.17078
 30
0.0
 11
731.2485999999999
 21
347.17078
 31
0.0
  0
LINE
  5
1E3
330
70
100
AcDbEntity
  8
0
  6
Continuous
 62
     7
100
AcDbLine
 10
729.2486
 20
347.17078
 30
0.0
 11
728.8486299999998
 21
347.17078
 31
0.0
  0
LINE
  5
1E4
330
70
100
AcDbEntity
  8
0
  6
Continuous
 62
     3
100
AcDbLine
 10
460.4486099999999
 20
361.17078
 30
0.0
 11
460.4486099999999
 21
346.17078
 31
0.0
  0
LINE
  5
1E5
330
70
100
AcDbEntity
  8
0
  6
Continuous
 62
     3
100
AcDbLine
 10
461.2486299999999
 20
361.17078
 30
0.0
 11
461.2486299999999
 21
346.17078
 31
0.0
  0
LINE
  5
1E6
330
70
100
AcDbEntity
  8
0
  6
Continuous
 62
     3
100
AcDbLine
 10
459.64862
 20
347.17078
 30
0.0
 11
458.8485999999999
 21
347.17078
 31
0.0
  0
LINE
  5
1E7
330
70
100
AcDbEntity
  8
0
  6
Continuous
 62
     3
100
AcDbLine
 10
462.0486099999999
 20
347.17078
 30
0.0
 11
470.3311499999999
 21
347.17078
 31
0.0
  0
LINE
  5
1E8
330
70
100
AcDbEntity
  8
0
  6
Continuous
 62
     3
100
AcDbLine
 10
460.4486099999999
 20
347.17078
 30
0.0
 11
461.2486299999999
 21
347.17078
 31
0.0
  0
LINE
  5
1E9
330
70
100
AcDbEntity
  8
0
  6
Continuous
 62
     7
100
AcDbLine
 10
460.0486099999999
 20
347.17078
 30
0.0
 11
459.64862
 21
347.17078
 31
0.0
  0
LINE
  5
1EA
330
70
100
AcDbEntity
  8
0
  6
Continuous
 62
     7
100
AcDbLine
 10
461.6486199999999
 20
347.17078
 30
0.0
 11
462.0486099999999
 21
347.17078
 31
0.0
  0
LINE
  5
1EB
330
70
100
AcDbEntity
  8
0
  6
Continuous
 62
     3
100
AcDbLine
 10
460.4486099999999
 20
494.1707799999999
 30
0.0
 11
460.4486099999999
 21
504.17078
 31
0.0
  0
LINE
  5
1EC
330
70
100
AcDbEntity
  8
0
  6
Continuous
 62
     3
100
AcDbLine
 10
511.4486099999999
 20
494.1707799999999
 30
0.0
 11
511.4486099999999
 21
504.17078
 31
0.0
  0
LINE
  5
1ED
330
70
100
AcDbEntity
  8
0
  6
Continuous
 62
     3
100
AcDbLine
 10
461.2486299999999
 20
503.1707799999999
 30
0.0
 11
510.6486199999999
 21
503.1707799999999
 31
0.0
  0
LINE
  5
1EE
330
70
100
AcDbEntity
  8
0
  6
Continuous
 62
     7
100
AcDbLine
 10
460.8486
 20
503.1707799999999
 30
0.0
 11
461.2486299999999
 21
503.1707799999999
 31
0.0
  0
LINE
  5
1EF
330
70
100
AcDbEntity
  8
0
  6
Continuous
 62
     7
100
AcDbLine
 10
511.0486099999999
 20
503.1707799999999
 30
0.0
 11
510.6486199999999
 21
503.1707799999999
 31
0.0
  0
LINE
  5
1F0
330
70
100
AcDbEntity
  8
0
  6
Continuous
 62
     3
100
AcDbLine
 10
511.4486099999999
 20
494.1707799999999
 30
0.0
 11
511.4486099999999
 21
504.17078
 31
0.0
  0
LINE
  5
1F1
330
70
100
AcDbEntity
  8
0
  6
Continuous
 62
     3
100
AcDbLine
 10
679.4486099999999
 20
494.1707799999999
 30
0.0
 11
679.4486099999999
 21
504.17078
 31
0.0
  0
LINE
  5
1F2
330
70
100
AcDbEntity
  8
0
  6
Continuous
 62
     3
100
AcDbLine
 10
512.2486
 20
503.1707799999999
 30
0.0
 11
678.64862
 21
503.1707799999999
 31
0.0
  0
LINE
  5
1F3
330
70
100
AcDbEntity
  8
0
  6
Continuous
 62
     7
100
AcDbLine
 10
511.8485999999999
 20
503.1707799999999
 30
0.0
 11
512.2486
 21
503.1707799999999
 31
0.0
  0
LINE
  5
1F4
330
70
100
AcDbEntity
  8
0
  6
Continuous
 62
     7
100
AcDbLine
 10
679.0485799999999
 20
503.1707799999999
 30
0.0
 11
678.64862
 21
503.1707799999999
 31
0.0
  0
LINE
  5
1F5
330
70
100
AcDbEntity
  8
0
  6
Continuous
 62
     3
100
AcDbLine
 10
679.4486099999999
 20
494.1707799999999
 30
0.0
 11
679.4486099999999
 21
504.17078
 31
0.0
  0
LINE
  5
1F6
330
70
100
AcDbEntity
  8
0
  6
Continuous
 62
     3
100
AcDbLine
 10
730.4486099999999
 20
494.1707799999999
 30
0.0
 11
730.4486099999999
 21
504.17078
 31
0.0
  0
LINE
  5
1F7
330
70
100
AcDbEntity
  8
0
  6
Continuous
 62
     3
100
AcDbLine
 10
680.2486
 20
503.1707799999999
 30
0.0
 11
729.64862
 21
503.1707799999999
 31
0.0
  0
LINE
  5
1F8
330
70
100
AcDbEntity
  8
0
  6
Continuous
 62
     7
100
AcDbLine
 10
679.8486299999998
 20
503.1707799999999
 30
0.0
 11
680.2486
 21
503.1707799999999
 31
0.0
  0
LINE
  5
1F9
330
70
100
AcDbEntity
  8
0
  6
Continuous
 62
     7
100
AcDbLine
 10
730.04858
 20
503.1707799999999
 30
0.0
 11
729.64862
 21
503.1707799999999
 31
0.0
  0
LINE
  5
1FA
330
70
100
AcDbEntity
  8
0
  6
Continuous
 62
     3
100
AcDbLine
 10
460.4486099999999
 20
494.1707799999999
 30
0.0
 11
460.4486099999999
 21
514.17078
 31
0.0
  0
LINE
  5
1FB
330
70
100
AcDbEntity
  8
0
  6
Continuous
 62
     3
100
AcDbLine
 10
730.4486099999999
 20
494.1707799999999
 30
0.0
 11
730.4486099999999
 21
514.17078
 31
0.0
  0
LINE
  5
1FC
330
70
100
AcDbEntity
  8
0
  6
Continuous
 62
     3
100
AcDbLine
 10
461.2486299999999
 20
513.17078
 30
0.0
 11
729.64862
 21
513.17078
 31
0.0
  0
LINE
  5
1FD
330
70
100
AcDbEntity
  8
0
  6
Continuous
 62
     7
100
AcDbLine
 10
460.8486
 20
513.17078
 30
0.0
 11
461.2486299999999
 21
513.17078
 31
0.0
  0
LINE
  5
1FE
330
70
100
AcDbEntity
  8
0
  6
Continuous
 62
     7
100
AcDbLine
 10
730.04858
 20
513.17078
 30
0.0
 11
729.64862
 21
513.17078
 31
0.0
  0
LINE
  5
1FF
330
70
100
AcDbEntity
  8
0
  6
Continuous
 62
     7
100
AcDbLine
 10
375.66077
 20
263.69434
 30
0.0
 11
969.66077
 21
263.69434
 31
0.0
  0
LINE
  5
200
330
70
100
AcDbEntity
  8
0
  6
Continuous
 62
     7
100
AcDbLine
 10
375.66077
 20
683.69434
 30
0.0
 11
375.66077
 21
263.69434
 31
0.0
  0
LINE
  5
201
330
70
100
AcDbEntity
  8
0
  6
Continuous
 62
     7
100
AcDbLine
 10
950.16077
 20
276.44434
 30
0.0
 11
950.16077
 21
670.94434
 31
0.0
  0
LINE
  5
202
330
70
100
AcDbEntity
  8
0
  6
Continuous
 62
     7
100
AcDbLine
 10
395.16077
 20
574.94434
 30
0.0
 11
395.16077
 21
276.44434
 31
0.0
  0
LINE
  5
203
330
70
100
AcDbEntity
  8
0
  6
Continuous
 62
     7
100
AcDbLine
 10
950.16077
 20
670.94434
 30
0.0
 11
505.1607699999999
 21
670.94434
 31
0.0
  0
LINE
  5
204
330
70
100
AcDbEntity
  8
0
  6
Continuous
 62
     7
100
AcDbLine
 10
395.16077
 20
276.44434
 30
0.0
 11
950.16077
 21
276.44434
 31
0.0
  0
LINE
  5
205
330
70
100
AcDbEntity
  8
0
  6
Continuous
 62
     7
100
AcDbLine
 10
969.66077
 20
683.69434
 30
0.0
 11
969.66077
 21
263.69434
 31
0.0
  0
LINE
  5
206
330
70
100
AcDbEntity
  8
0
  6
Continuous
 62
     7
100
AcDbLine
 10
375.66077
 20
683.69434
 30
0.0
 11
969.66077
 21
683.69434
 31
0.0
  0
LINE
  5
207
330
70
100
AcDbEntity
  8
0
  6
Continuous
 62
     7
100
AcDbLine
 10
395.16077
 20
670.94434
 30
0.0
 11
505.1607699999999
 21
670.94434
 31
0.0
  0
LINE
  5
208
330
70
100
AcDbEntity
  8
0
  6
Continuous
 62
     7
100
AcDbLine
 10
395.16077
 20
670.94434
 30
0.0
 11
395.16077
 21
574.94434
 31
0.0
  0
LINE
  5
209
330
70
100
AcDbEntity
  8
0
  6
Continuous
 62
     7
100
AcDbLine
 10
415.16077
 20
670.94434
 30
0.0
 11
415.16077
 21
574.94434
 31
0.0
  0
LINE
  5
20A
330
70
100
AcDbEntity
  8
0
  6
Continuous
 62
     7
100
AcDbLine
 10
395.16077
 20
662.94434
 30
0.0
 11
505.1607699999999
 21
662.94434
 31
0.0
  0
LINE
  5
20B
330
70
100
AcDbEntity
  8
0
  6
Continuous
 62
     7
100
AcDbLine
 10
395.16077
 20
654.94434
 30
0.0
 11
505.1607699999999
 21
654.94434
 31
0.0
  0
LINE
  5
20C
330
70
100
AcDbEntity
  8
0
  6
Continuous
 62
     7
100
AcDbLine
 10
395.16077
 20
646.94434
 30
0.0
 11
505.1607699999999
 21
646.94434
 31
0.0
  0
LINE
  5
20D
330
70
100
AcDbEntity
  8
0
  6
Continuous
 62
     7
100
AcDbLine
 10
395.16077
 20
638.94434
 30
0.0
 11
505.1607699999999
 21
638.94434
 31
0.0
  0
LINE
  5
20E
330
70
100
AcDbEntity
  8
0
  6
Continuous
 62
     7
100
AcDbLine
 10
415.16077
 20
614.94434
 30
0.0
 11
505.1607699999999
 21
614.94434
 31
0.0
  0
LINE
  5
20F
330
70
100
AcDbEntity
  8
0
  6
Continuous
 62
     7
100
AcDbLine
 10
415.16077
 20
606.9443399999999
 30
0.0
 11
505.1607699999999
 21
606.9443399999999
 31
0.0
  0
LINE
  5
210
330
70
100
AcDbEntity
  8
0
  6
Continuous
 62
     7
100
AcDbLine
 10
395.16077
 20
598.9443399999999
 30
0.0
 11
505.1607699999999
 21
598.9443399999999
 31
0.0
  0
LINE
  5
211
330
70
100
AcDbEntity
  8
0
  6
Continuous
 62
     7
100
AcDbLine
 10
415.16077
 20
590.9443399999999
 30
0.0
 11
505.1607699999999
 21
590.9443399999999
 31
0.0
  0
LINE
  5
212
330
70
100
AcDbEntity
  8
0
  6
Continuous
 62
     7
100
AcDbLine
 10
415.16077
 20
582.94434
 30
0.0
 11
505.1607699999999
 21
582.94434
 31
0.0
  0
LINE
  5
213
330
70
100
AcDbEntity
  8
0
  6
Continuous
 62
     7
100
AcDbLine
 10
395.16077
 20
574.94434
 30
0.0
 11
505.1607699999999
 21
574.94434
 31
0.0
  0
LINE
  5
214
330
70
100
AcDbEntity
  8
0
  6
Continuous
 62
     7
100
AcDbLine
 10
395.16077
 20
670.94434
 30
0.0
 11
395.16077
 21
574.94434
 31
0.0
  0
LINE
  5
215
330
70
100
AcDbEntity
  8
0
  6
Continuous
 62
     7
100
AcDbLine
 10
395.16077
 20
670.94434
 30
0.0
 11
505.1607699999999
 21
670.94434
 31
0.0
  0
LINE
  5
216
330
70
100
AcDbEntity
  8
0
  6
Continuous
 62
     7
100
AcDbLine
 10
505.1607699999999
 20
670.94434
 30
0.0
 11
505.1607699999999
 21
574.94434
 31
0.0
  0
LINE
  5
217
330
70
100
AcDbEntity
  8
0
  6
Continuous
 62
     7
100
AcDbLine
 10
395.16077
 20
630.94434
 30
0.0
 11
505.1607699999999
 21
630.94434
 31
0.0
  0
LINE
  5
218
330
70
100
AcDbEntity
  8
0
  6
Continuous
 62
     7
100
AcDbLine
 10
395.16077
 20
622.94434
 30
0.0
 11
505.1607699999999
 21
622.94434
 31
0.0
  0
LINE
  5
219
330
70
100
AcDbEntity
  8
0
  6
Continuous
 62
     7
100
AcDbLine
 10
415.16077
 20
614.94434
 30
0.0
 11
505.1607699999999
 21
614.94434
 31
0.0
  0
LINE
  5
21A
330
70
100
AcDbEntity
  8
0
  6
Continuous
 62
     3
100
AcDbLine
 10
836.91339
 20
383.68704
 30
0.0
 11
835.37592
 21
380.65454
 31
0.0
  0
LINE
  5
21B
330
70
100
AcDbEntity
  8
0
  6
Continuous
 62
     3
100
AcDbLine
 10
835.0141599999998
 20
379.94101
 30
0.0
 11
813.3292199999999
 21
337.17081
 31
0.0
  0
LINE
  5
21C
330
70
100
AcDbEntity
  8
0
  6
Continuous
 62
     3
100
AcDbLine
 10
813.3292199999999
 20
337.17078
 30
0.0
 11
802.9754
 21
337.17078
 31
0.0
  0
LINE
  5
21D
330
70
100
AcDbEntity
  8
0
  6
Continuous
 62
     7
100
AcDbLine
 10
837.0943
 20
384.04379
 30
0.0
 11
836.91339
 21
383.68704
 31
0.0
  0
LINE
  5
21E
330
70
100
AcDbEntity
  8
0
  6
Continuous
 62
     7
100
AcDbLine
 10
835.1950099999999
 20
380.29773
 30
0.0
 11
835.37592
 21
380.65454
 31
0.0
  0
ARC
  5
21F
330
70
100
AcDbEntity
  8
0
  6
Continuous
 62
     7
100
AcDbCircle
 10
495.4486099999999
 20
382.17078
 30
0.0
 40
5.0
100
AcDbArc
 50
90.0
 51
270.0
  0
ARC
  5
220
330
70
100
AcDbEntity
  8
0
  6
Continuous
 62
     7
100
AcDbCircle
 10
695.4486099999999
 20
382.17078
 30
0.0
 40
5.0
100
AcDbArc
 50
270.0
 51
90.0
  0
ARC
  5
221
330
70
100
AcDbEntity
  8
0
  6
Continuous
 62
     7
100
AcDbCircle
 10
495.4486099999999
 20
382.17078
 30
0.0
 40
4.0
100
AcDbArc
 50
90.0
 51
270.0
  0
ARC
  5
222
330
70
100
AcDbEntity
  8
0
  6
Continuous
 62
     7
100
AcDbCircle
 10
695.4486099999999
 20
382.17078
 30
0.0
 40
4.0
100
AcDbArc
 50
270.0
 51
90.0
  0
CIRCLE
  5
223
330
70
100
AcDbEntity
  8
0
  6
Continuous
 62
     7
100
AcDbCircle
 10
836.14465
 20
382.17078
 30
0.0
 40
2.5
  0
ARC
  5
224
330
70
100
AcDbEntity
  8
0
  6
Continuous
 62
     7
100
AcDbCircle
 10
834.2578099999998
 20
483.17078
 30
0.0
 40
10.0
100
AcDbArc
 50
20.890896
 51
90.0
  0
LWPOLYLINE
  5
225
330
70
100
AcDbEntity
  8
0
  6
Continuous
 62
     7
100
AcDbPolyline
 90
        5
 70
     0
 43
0.0
 10
460.4486099999999
 20
362.17078
 10
730.4486099999999
 20
362.17078
 10
730.4486099999999
 20
493.1707799999999
 10
460.4486099999999
 20
493.1707799999999
 10
460.4486099999999
 20
362.17078
  0
LWPOLYLINE
  5
22C
330
70
100
AcDbEntity
  8
0
  6
Continuous
 62
     7
100
AcDbPolyline
 90
        5
 70
     0
 43
0.0
 10
511.4486099999999
 20
493.1707799999999
 10
679.4486099999999
 20
493.1707799999999
 10
679.4486099999999
 20
473.1707799999999
 10
511.4486099999999
 20
473.1707799999999
 10
511.4486099999999
 20
493.1707799999999
  0
TEXT
  5
233
330
70
100
AcDbEntity
  8
0
  6
Continuous
 62
     3
100
AcDbText
 10
814.64431
 20
369.50411
 30
0.0
 40
3.2
  1
20
 50
90.000003
 41
1.071428599999999
100
AcDbText
  0
TEXT
  5
234
330
70
100
AcDbEntity
  8
0
  6
Continuous
 62
     3
100
AcDbText
 10
814.6446799999999
 20
433.4041099999999
 30
0.0
 40
3.2
  1
111
 50
90.000003
 41
1.5
100
AcDbText
  0
TEXT
  5
235
330
70
100
AcDbEntity
  8
0
  6
Continuous
 62
     3
100
AcDbText
 10
830.97799
 20
504.67078
 30
0.0
 40
3.2
  1
15
 41
1.25
100
AcDbText
  0
TEXT
  5
236
330
70
100
AcDbEntity
  8
0
  6
Continuous
 62
     3
100
AcDbText
 10
863.4779900000001
 20
504.67078
 30
0.0
 40
3.2
  1
50
 41
1.071428599999999
100
AcDbText
  0
TEXT
  5
237
330
70
100
AcDbEntity
  8
0
  6
Continuous
 62
     3
100
AcDbText
 10
855.97799
 20
514.6707499999999
 30
0.0
 40
3.2
  1
65
100
AcDbText
  0
TEXT
  5
238
330
70
100
AcDbEntity
  8
0
  6
Continuous
 62
     3
100
AcDbText
 10
828.47799
 20
348.67078
 30
0.0
 40
3.2
  1
10
 41
1.363636399999999
100
AcDbText
  0
TEXT
  5
239
330
70
100
AcDbEntity
  8
0
  6
Continuous
 62
     3
100
AcDbText
 10
860.9779900000001
 20
348.67078
 30
0.0
 40
3.2
  1
55
100
AcDbText
  0
TEXT
  5
23A
330
70
100
AcDbEntity
  8
0
  6
Continuous
 62
     3
100
AcDbText
 10
743.9483299999999
 20
480.5041099999999
 30
0.0
 40
3.2
  1
20
 50
90.000003
 41
1.071428599999999
100
AcDbText
  0
TEXT
  5
23B
330
70
100
AcDbEntity
  8
0
  6
Continuous
 62
     3
100
AcDbText
 10
743.9486299999999
 20
413.40411
 30
0.0
 40
3.2
  1
111
 50
90.000003
 41
1.5
100
AcDbText
  0
TEXT
  5
23C
330
70
100
AcDbEntity
  8
0
  6
Continuous
 62
     3
100
AcDbText
 10
753.94863
 20
423.4041099999999
 30
0.0
 40
3.2
  1
131
 50
90.000003
 41
1.263157899999999
100
AcDbText
  0
TEXT
  5
23D
330
70
100
AcDbEntity
  8
0
  6
Continuous
 62
     3
100
AcDbText
 10
720.0407099999999
 20
348.67078
 30
0.0
 40
3.2
  1
0.8
 41
1.454545399999999
100
AcDbText
  0
TEXT
  5
23E
330
70
100
AcDbEntity
  8
0
  6
Continuous
 62
     3
100
AcDbText
 10
462.32321
 20
348.67078
 30
0.0
 40
3.2
  1
0.8
 41
1.454545399999999
100
AcDbText
  0
TEXT
  5
23F
330
70
100
AcDbEntity
  8
0
  6
Continuous
 62
     3
100
AcDbText
 10
483.2819399999999
 20
504.67078
 30
0.0
 40
3.2
  1
51
 41
1.1538462
100
AcDbText
  0
TEXT
  5
240
330
70
100
AcDbEntity
  8
0
  6
Continuous
 62
     3
100
AcDbText
 10
591.18194
 20
504.67078
 30
0.0
 40
3.2
  1
168
 41
1.1428571
100
AcDbText
  0
TEXT
  5
241
330
70
100
AcDbEntity
  8
0
  6
Continuous
 62
     3
100
AcDbText
 10
702.2819400000001
 20
504.67078
 30
0.0
 40
3.2
  1
51
 41
1.1538462
100
AcDbText
  0
TEXT
  5
242
330
70
100
AcDbEntity
  8
0
  6
Continuous
 62
     3
100
AcDbText
 10
591.18194
 20
514.6711199999999
 30
0.0
 40
3.2
  1
270
 41
1.0434782
100
AcDbText
  0
TEXT
  5
243
330
70
100
AcDbEntity
  8
0
  6
Continuous
 62
     2
100
AcDbText
 10
375.66078
 20
263.69434
 30
0.0
 40
2.5
  1
!GENTITLE-LL
 41
1.09375
100
AcDbText
  0
TEXT
  5
244
330
70
100
AcDbEntity
  8
0
  6
Continuous
 62
     2
100
AcDbText
 10
950.16078
 20
670.94434
 30
0.0
 40
2.5
  1
!GENTITLE-RU
 41
1.09375
100
AcDbText
  0
TEXT
  5
245
330
70
100
AcDbEntity
  8
0
  6
Continuous
 62
     2
100
AcDbText
 10
969.66077
 20
683.69434
 30
0.0
 40
2.5
  1
!GENTITLE-MAX
 41
1.0857143
100
AcDbText
  0
TEXT
  5
246
330
70
100
AcDbEntity
  8
0
  6
Continuous
 62
     2
100
AcDbText
 10
395.16076
 20
670.94434
 30
0.0
 40
2.5
  1
!GENTITLE-INSERT
 41
1.0930233
100
AcDbText
  0
TEXT
  5
247
330
70
100
AcDbEntity
  8
0
  6
Continuous
 62
     7
100
AcDbText
 10
401.3892799999999
 20
666.9443499999999
 30
0.0
 40
3.2
  1
品　名
 41
0.60999997
100
AcDbText
  0
TEXT
  5
248
330
70
100
AcDbEntity
  8
0
  6
Continuous
 62
     7
100
AcDbText
 10
401.3892799999999
 20
658.9443499999999
 30
0.0
 40
3.2
  1
品　番
 41
0.60999997
100
AcDbText
  0
TEXT
  5
249
330
70
100
AcDbEntity
  8
0
  6
Continuous
 62
     7
100
AcDbText
 10
401.3892799999999
 20
650.9443499999999
 30
0.0
 40
3.2
  1
材　質
 41
0.60999997
100
AcDbText
  0
TEXT
  5
24A
330
70
100
AcDbEntity
  8
0
  6
Continuous
 62
     7
100
AcDbText
 10
401.3892799999999
 20
642.9443499999999
 30
0.0
 40
3.2
  1
仕上げ
 41
0.60999997
100
AcDbText
  0
TEXT
  5
24B
330
70
100
AcDbEntity
  8
0
  6
Continuous
 62
     7
100
AcDbText
 10
398.18926
 20
618.94435
 30
0.0
 40
3.2
  1
セットビス
 41
0.60999999
100
AcDbText
  0
TEXT
  5
24C
330
70
100
AcDbEntity
  8
0
  6
Continuous
 62
     7
100
AcDbText
 10
402.98927
 20
594.94435
 30
0.0
 40
3.2
  1
備考
 41
0.61
100
AcDbText
  0
TEXT
  5
24D
330
70
100
AcDbEntity
  8
0
  6
Continuous
 62
     7
100
AcDbText
 10
401.3892799999999
 20
634.9443499999999
 30
0.0
 40
3.2
  1
定　尺
 41
0.60999997
100
AcDbText
  0
TEXT
  5
24E
330
70
100
AcDbEntity
  8
0
  6
Continuous
 62
     7
100
AcDbText
 10
399.78927
 20
626.94435
 30
0.0
 40
3.2
  1
左右勝手
 41
0.60999998
100
AcDbText
  0
TEXT
  5
24F
330
70
100
AcDbEntity
  8
0
  6
Continuous
 62
     7
100
AcDbText
 10
418.58926
 20
665.34431
 30
0.0
 40
3.2
  1
ポストフード
 41
0.75
100
AcDbText
  0
TEXT
  5
250
330
70
100
AcDbEntity
  8
0
  6
Continuous
 62
     7
100
AcDbText
 10
418.5892799999999
 20
657.34431
 30
0.0
 40
3.2
  1
ＤＰ－７９
 41
0.74999999
100
AcDbText
  0
TEXT
  5
251
330
70
100
AcDbEntity
  8
0
  6
Continuous
 62
     7
100
AcDbText
 10
418.58926
 20
649.34431
 30
0.0
 40
3.2
  1
スチール
 41
0.7499999800000001
100
AcDbText
  0
TEXT
  5
252
330
70
100
AcDbEntity
  8
0
  6
Continuous
 62
     7
100
AcDbText
 10
418.58927
 20
641.34431
 30
0.0
 40
3.2
  1
焼付塗装（アイボリーホワイト）
 41
0.75000002
100
AcDbText
  0
TEXT
  5
253
330
70
100
AcDbEntity
  8
0
  6
Continuous
 62
     7
100
AcDbText
 10
418.58926
 20
625.34431
 30
0.0
 40
3.2
  1
無し
 41
0.74999999
100
AcDbText
  0
TEXT
  5
254
330
70
100
AcDbEntity
  8
0
  6
Continuous
 62
     7
100
AcDbText
 10
418.5892799999999
 20
593.34431
 30
0.0
 40
3.2
  1
ポスト口ＤＰ‐８４、８５　ポストガイドＤＰ‐７８を御使用
 41
0.72403055
100
AcDbText
  0
TEXT
  5
255
330
70
100
AcDbEntity
  8
0
  6
Continuous
 62
     7
100
AcDbText
 10
418.58926
 20
585.34431
 30
0.0
 40
3.2
  1
下さい。
 41
0.7499999800000001
100
AcDbText
  0
TEXT
  5
256
330
70
100
AcDbEntity
  8
0
  6
Continuous
 62
     3
100
AcDbText
 10
801.23168
 20
338.67109
 30
0.0
 40
3.2
  1
２－%%C５
 41
0.8838808000000001
100
AcDbText
  0
INSERT
  5
257
330
70
100
AcDbEntity
  8
0
  6
Continuous
 62
     7
100
AcDbBlockReference
  2
KOZU0001
 10
816.14465
 20
362.17078
 30
0.0
  0
INSERT
  5
258
330
70
100
AcDbEntity
  8
0
  6
Continuous
 62
     7
100
AcDbBlockReference
  2
KOZU0002
 10
816.14465
 20
382.17078
 30
0.0
  0
INSERT
  5
259
330
70
100
AcDbEntity
  8
0
  6
Continuous
 62
     7
100
AcDbBlockReference
  2
KOZU0003
 10
816.14465
 20
493.1707799999999
 30
0.0
  0
INSERT
  5
25A
330
70
100
AcDbEntity
  8
0
  6
Continuous
 62
     7
100
AcDbBlockReference
  2
KOZU0004
 10
816.14465
 20
382.17078
 30
0.0
  0
INSERT
  5
25B
330
70
100
AcDbEntity
  8
0
  6
Continuous
 62
     7
100
AcDbBlockReference
  2
KOZU0005
 10
826.14465
 20
503.1707799999999
 30
0.0
  0
INSERT
  5
25C
330
70
100
AcDbEntity
  8
0
  6
Continuous
 62
     7
100
AcDbBlockReference
  2
KOZU0006
 10
841.14465
 20
503.1707799999999
 30
0.0
  0
INSERT
  5
25D
330
70
100
AcDbEntity
  8
0
  6
Continuous
 62
     7
100
AcDbBlockReference
  2
KOZU0007
 10
841.14465
 20
503.1707799999999
 30
0.0
  0
INSERT
  5
25E
330
70
100
AcDbEntity
  8
0
  6
Continuous
 62
     7
100
AcDbBlockReference
  2
KOZU0008
 10
891.14465
 20
503.1707799999999
 30
0.0
  0
INSERT
  5
25F
330
70
100
AcDbEntity
  8
0
  6
Continuous
 62
     7
100
AcDbBlockReference
  2
KOZU0009
 10
826.14465
 20
513.17078
 30
0.0
  0
INSERT
  5
260
330
70
100
AcDbEntity
  8
0
  6
Continuous
 62
     7
100
AcDbBlockReference
  2
KOZU0010
 10
891.14465
 20
513.17078
 30
0.0
  0
INSERT
  5
261
330
70
100
AcDbEntity
  8
0
  6
Continuous
 62
     7
100
AcDbBlockReference
  2
KOZU0011
 10
826.14465
 20
347.17078
 30
0.0
  0
INSERT
  5
262
330
70
100
AcDbEntity
  8
0
  6
Continuous
 62
     7
100
AcDbBlockReference
  2
KOZU0012
 10
836.14465
 20
347.17078
 30
0.0
  0
INSERT
  5
263
330
70
100
AcDbEntity
  8
0
  6
Continuous
 62
     7
100
AcDbBlockReference
  2
KOZU0013
 10
836.14465
 20
347.17078
 30
0.0
  0
INSERT
  5
264
330
70
100
AcDbEntity
  8
0
  6
Continuous
 62
     7
100
AcDbBlockReference
  2
KOZU0014
 10
891.14465
 20
347.17078
 30
0.0
  0
INSERT
  5
265
330
70
100
AcDbEntity
  8
0
  6
Continuous
 62
     7
100
AcDbBlockReference
  2
KOZU0015
 10
745.4486099999999
 20
493.1707799999999
 30
0.0
  0
INSERT
  5
266
330
70
100
AcDbEntity
  8
0
  6
Continuous
 62
     7
100
AcDbBlockReference
  2
KOZU0016
 10
745.4486099999999
 20
473.1707799999999
 30
0.0
  0
INSERT
  5
267
330
70
100
AcDbEntity
  8
0
  6
Continuous
 62
     7
100
AcDbBlockReference
  2
KOZU0017
 10
745.4486099999999
 20
473.1707799999999
 30
0.0
  0
INSERT
  5
268
330
70
100
AcDbEntity
  8
0
  6
Continuous
 62
     7
100
AcDbBlockReference
  2
KOZU0018
 10
745.4486099999999
 20
362.17078
 30
0.0
  0
INSERT
  5
269
330
70
100
AcDbEntity
  8
0
  6
Continuous
 62
     7
100
AcDbBlockReference
  2
KOZU0019
 10
755.4486099999999
 20
493.1707799999999
 30
0.0
  0
INSERT
  5
26A
330
70
100
AcDbEntity
  8
0
  6
Continuous
 62
     7
100
AcDbBlockReference
  2
KOZU0020
 10
755.4486099999999
 20
362.17078
 30
0.0
  0
INSERT
  5
26B
330
70
100
AcDbEntity
  8
0
  6
Continuous
 62
     7
100
AcDbBlockReference
  2
KOZU0021
 10
730.4486099999999
 20
347.17078
 30
0.0
  0
INSERT
  5
26C
330
70
100
AcDbEntity
  8
0
  6
Continuous
 62
     7
100
AcDbBlockReference
  2
KOZU0022
 10
729.64862
 20
347.17078
 30
0.0
  0
INSERT
  5
26D
330
70
100
AcDbEntity
  8
0
  6
Continuous
 62
     7
100
AcDbBlockReference
  2
KOZU0023
 10
460.4486099999999
 20
347.17078
 30
0.0
  0
INSERT
  5
26E
330
70
100
AcDbEntity
  8
0
  6
Continuous
 62
     7
100
AcDbBlockReference
  2
KOZU0024
 10
461.2486299999999
 20
347.17078
 30
0.0
  0
INSERT
  5
26F
330
70
100
AcDbEntity
  8
0
  6
Continuous
 62
     7
100
AcDbBlockReference
  2
KOZU0025
 10
460.4486099999999
 20
503.1707799999999
 30
0.0
  0
INSERT
  5
270
330
70
100
AcDbEntity
  8
0
  6
Continuous
 62
     7
100
AcDbBlockReference
  2
KOZU0026
 10
511.4486099999999
 20
503.1707799999999
 30
0.0
  0
INSERT
  5
271
330
70
100
AcDbEntity
  8
0
  6
Continuous
 62
     7
100
AcDbBlockReference
  2
KOZU0027
 10
511.4486099999999
 20
503.1707799999999
 30
0.0
  0
INSERT
  5
272
330
70
100
AcDbEntity
  8
0
  6
Continuous
 62
     7
100
AcDbBlockReference
  2
KOZU0028
 10
679.4486099999999
 20
503.1707799999999
 30
0.0
  0
INSERT
  5
273
330
70
100
AcDbEntity
  8
0
  6
Continuous
 62
     7
100
AcDbBlockReference
  2
KOZU0029
 10
679.4486099999999
 20
503.1707799999999
 30
0.0
  0
INSERT
  5
274
330
70
100
AcDbEntity
  8
0
  6
Continuous
 62
     7
100
AcDbBlockReference
  2
KOZU0030
 10
730.4486099999999
 20
503.1707799999999
 30
0.0
  0
INSERT
  5
275
330
70
100
AcDbEntity
  8
0
  6
Continuous
 62
     7
100
AcDbBlockReference
  2
KOZU0031
 10
460.4486099999999
 20
513.17078
 30
0.0
  0
INSERT
  5
276
330
70
100
AcDbEntity
  8
0
  6
Continuous
 62
     7
100
AcDbBlockReference
  2
KOZU0032
 10
730.4486099999999
 20
513.17078
 30
0.0
  0
INSERT
  5
277
330
70
100
AcDbEntity
  8
0
  6
Continuous
 62
     7
100
AcDbBlockReference
  2
KOZU0033
 10
837.27515
 20
384.40054
 30
0.0
  0
INSERT
  5
278
330
70
100
AcDbEntity
  8
0
  6
Continuous
 62
     7
100
AcDbBlockReference
  2
KOZU0034
 10
835.0141599999998
 20
379.94101
 30
0.0
  0
SOLID
  5
279
330
70
100
AcDbEntity
  8
0
  6
Continuous
 62
     3
100
AcDbTrace
 10
837.4400599999999
 20
384.74435
 30
0.0
 11
837.6027799999999
 21
384.49603
 31
0.0
 12
837.6087599999998
 22
384.45651
 32
0.0
 13
837.6087599999998
 23
384.45651
 33
0.0
  0
SOLID
  5
27A
330
70
100
AcDbEntity
  8
0
  6
Continuous
 62
     3
100
AcDbTrace
 10
837.6087599999998
 20
384.45651
 30
0.0
 11
837.151
 21
384.81207
 31
0.0
 12
837.4400599999999
 22
384.74435
 32
0.0
 13
837.4400599999999
 23
384.74435
 33
0.0
  0
SOLID
  5
27B
330
70
100
AcDbEntity
  8
0
  6
Continuous
 62
     3
100
AcDbTrace
 10
837.151
 20
384.81207
 30
0.0
 11
837.6087599999998
 21
384.45651
 31
0.0
 12
837.6107799999999
 22
384.41656
 32
0.0
 13
837.6107799999999
 23
384.41656
 33
0.0
  0
SOLID
  5
27C
330
70
100
AcDbEntity
  8
0
  6
Continuous
 62
     3
100
AcDbTrace
 10
837.6107799999999
 20
384.41656
 30
0.0
 11
836.8949
 21
384.66196
 31
0.0
 12
837.151
 22
384.81207
 32
0.0
 13
837.151
 23
384.81207
 33
0.0
  0
SOLID
  5
27D
330
70
100
AcDbEntity
  8
0
  6
Continuous
 62
     3
100
AcDbTrace
 10
836.8949
 20
384.66196
 30
0.0
 11
837.6107799999999
 21
384.41656
 31
0.0
 12
837.50061
 22
384.1409
 32
0.0
 13
837.50061
 23
384.1409
 33
0.0
  0
SOLID
  5
27E
330
70
100
AcDbEntity
  8
0
  6
Continuous
 62
     3
100
AcDbTrace
 10
837.50061
 20
384.1409
 30
0.0
 11
836.81274
 21
384.37665
 31
0.0
 12
836.8949
 22
384.66196
 32
0.0
 13
836.8949
 23
384.66196
 33
0.0
  0
SOLID
  5
27F
330
70
100
AcDbEntity
  8
0
  6
Continuous
 62
     3
100
AcDbTrace
 10
836.81274
 20
384.37665
 30
0.0
 11
837.50061
 21
384.1409
 31
0.0
 12
837.23077
 22
384.01706
 32
0.0
 13
837.23077
 23
384.01706
 33
0.0
  0
SOLID
  5
280
330
70
100
AcDbEntity
  8
0
  6
Continuous
 62
     3
100
AcDbTrace
 10
837.23077
 20
384.01706
 30
0.0
 11
836.9498899999999
 21
384.11334
 31
0.0
 12
836.81274
 22
384.37665
 32
0.0
 13
836.81274
 23
384.37665
 33
0.0
  0
SOLID
  5
281
330
70
100
AcDbEntity
  8
0
  6
Continuous
 62
     3
100
AcDbTrace
 10
835.20123
 20
380.27066
 30
0.0
 11
835.3639499999999
 21
380.02237
 31
0.0
 12
835.3699299999998
 22
379.98285
 32
0.0
 13
835.3699299999998
 23
379.98285
 33
0.0
  0
SOLID
  5
282
330
70
100
AcDbEntity
  8
0
  6
Continuous
 62
     3
100
AcDbTrace
 10
835.3699299999998
 20
379.98285
 30
0.0
 11
834.9121700000001
 21
380.33841
 31
0.0
 12
835.20123
 22
380.27066
 32
0.0
 13
835.20123
 23
380.27066
 33
0.0
  0
SOLID
  5
283
330
70
100
AcDbEntity
  8
0
  6
Continuous
 62
     3
100
AcDbTrace
 10
834.9121700000001
 20
380.33841
 30
0.0
 11
835.3699299999998
 21
379.98285
 31
0.0
 12
835.37195
 22
379.9429
 32
0.0
 13
835.37195
 23
379.9429
 33
0.0
  0
SOLID
  5
284
330
70
100
AcDbEntity
  8
0
  6
Continuous
 62
     3
100
AcDbTrace
 10
835.37195
 20
379.9429
 30
0.0
 11
834.6560699999999
 21
380.18826
 31
0.0
 12
834.9121700000001
 22
380.33841
 32
0.0
 13
834.9121700000001
 23
380.33841
 33
0.0
  0
SOLID
  5
285
330
70
100
AcDbEntity
  8
0
  6
Continuous
 62
     3
100
AcDbTrace
 10
834.6560699999999
 20
380.18826
 30
0.0
 11
835.37195
 21
379.9429
 31
0.0
 12
835.2617799999999
 22
379.66721
 32
0.0
 13
835.2617799999999
 23
379.66721
 33
0.0
  0
SOLID
  5
286
330
70
100
AcDbEntity
  8
0
  6
Continuous
 62
     3
100
AcDbTrace
 10
835.2617799999999
 20
379.66721
 30
0.0
 11
834.57391
 21
379.90298
 31
0.0
 12
834.6560699999999
 22
380.18826
 32
0.0
 13
834.6560699999999
 23
380.18826
 33
0.0
  0
SOLID
  5
287
330
70
100
AcDbEntity
  8
0
  6
Continuous
 62
     3
100
AcDbTrace
 10
834.57391
 20
379.90298
 30
0.0
 11
835.2617799999999
 21
379.66721
 31
0.0
 12
834.99194
 22
379.5434
 32
0.0
 13
834.99194
 23
379.5434
 33
0.0
  0
SOLID
  5
288
330
70
100
AcDbEntity
  8
0
  6
Continuous
 62
     3
100
AcDbTrace
 10
834.99194
 20
379.5434
 30
0.0
 11
834.71106
 21
379.63968
 31
0.0
 12
834.57391
 22
379.90298
 32
0.0
 13
834.57391
 23
379.90298
 33
0.0
  0
ENDSEC
  0
SECTION
  2
OBJECTS
  0
DICTIONARY
  5
C
330
0
100
AcDbDictionary
281
     1
  3
ACAD_CIP_PREVIOUS_PRODUCT_INFO
350
28A
  3
ACAD_COLOR
350
62
  3
ACAD_DETAILVIEWSTYLE
350
6A
  3
ACAD_DGNDEFINITIONS
350
36D
  3
ACAD_DWFDEFINITIONS
350
36C
  3
ACAD_FIELDLIST
350
3BC
  3
ACAD_GROUP
350
D
  3
ACAD_LAYOUT
350
61
  3
ACAD_MATERIAL
350
10
  3
ACAD_MLEADERSTYLE
350
65
  3
ACAD_MLINESTYLE
350
5E
  3
ACAD_PDFDEFINITIONS
350
36B
  3
ACAD_PLOTSETTINGS
350
60
  3
ACAD_PLOTSTYLENAME
350
E
  3
ACAD_SCALELIST
350
42
  3
ACAD_SECTIONVIEWSTYLE
350
67
  3
ACAD_TABLESTYLE
350
63
  3
ACAD_VISUALSTYLE
350
29
  3
ACDB_RECOMPOSE_DATA
350
3F3
  3
AcDbVariableDictionary
350
300
  3
gmRefExt
350
3DC
  3
HCJX_INFO
350
3DD
  0
DICTIONARY
  5
2FE
330
54
100
AcDbDictionary
280
     1
281
     1
  3
ADSK_XREC_LAYER_RECONCILED
360
2FF
  0
XRECORD
  5
28A
102
{ACAD_REACTORS
330
C
102
}
330
C
100
AcDbXrecord
280
     1
300
AMECH_PP
300
2013
300
85964PDSS_2013_0F
  0
DICTIONARY
  5
62
102
{ACAD_REACTORS
330
C
102
}
330
C
100
AcDbDictionary
281
     1
  0
DICTIONARY
  5
6A
102
{ACAD_REACTORS
330
C
102
}
330
C
100
AcDbDictionary
281
     1
  3
Imperial24
350
6B
  0
DICTIONARY
  5
36D
102
{ACAD_REACTORS
330
C
102
}
330
C
100
AcDbDictionary
281
     1
  0
DICTIONARY
  5
36C
102
{ACAD_REACTORS
330
C
102
}
330
C
100
AcDbDictionary
281
     1
  0
FIELDLIST
  5
3BC
102
{ACAD_REACTORS
330
C
102
}
330
C
100
AcDbIdSet
 90
        2
330
37D
330
38D
100
AcDbFieldList
  0
DICTIONARY
  5
D
102
{ACAD_REACTORS
330
C
102
}
330
C
100
AcDbDictionary
281
     1
  0
DICTIONARY
  5
61
102
{ACAD_REACTORS
330
C
102
}
330
C
100
AcDbDictionary
281
     1
  3
Model
350
73
  3
レイアウト1
350
6F
  0
DICTIONARY
  5
10
102
{ACAD_REACTORS
330
C
102
}
330
C
100
AcDbDictionary
281
     1
  3
ByBlock
350
19
  3
ByLayer
350
11
  3
Global
350
21
  0
DICTIONARY
  5
65
102
{ACAD_REACTORS
330
C
102
}
330
C
100
AcDbDictionary
281
     1
  3
Standard
350
66
  0
DICTIONARY
  5
5E
102
{ACAD_REACTORS
330
C
102
}
330
C
100
AcDbDictionary
281
     1
  3
Standard
350
5F
  0
DICTIONARY
  5
36B
102
{ACAD_REACTORS
330
C
102
}
330
C
100
AcDbDictionary
281
     1
  0
DICTIONARY
  5
60
102
{ACAD_REACTORS
330
C
102
}
330
C
100
AcDbDictionary
281
     1
  0
ACDBDICTIONARYWDFLT
  5
E
102
{ACAD_REACTORS
330
C
102
}
330
C
100
AcDbDictionary
281
     1
  3
Normal
350
F
100
AcDbDictionaryWithDefault
340
F
  0
DICTIONARY
  5
42
102
{ACAD_REACTORS
330
C
102
}
330
C
100
AcDbDictionary
281
     1
  3
A0
350
43
  3
A1
350
44
  3
A2
350
45
  3
A3
350
46
  3
A4
350
47
  3
A5
350
48
  3
A6
350
49
  3
A7
350
4A
  3
A8
350
4B
  3
A9
350
4C
  3
B0
350
4D
  3
B1
350
4E
  3
B2
350
4F
  3
B3
350
50
  3
B4
350
51
  3
B5
350
52
  3
B6
350
53
  0
DICTIONARY
  5
67
102
{ACAD_REACTORS
330
C
102
}
330
C
100
AcDbDictionary
281
     1
  3
Imperial24
350
69
  0
DICTIONARY
  5
63
102
{ACAD_REACTORS
330
C
102
}
330
C
100
AcDbDictionary
281
     1
  3
Standard
350
64
  0
DICTIONARY
  5
29
102
{ACAD_REACTORS
330
C
102
}
330
C
100
AcDbDictionary
281
     1
  3
2dWireframe
350
2F
  3
Basic
350
2E
  3
Brighten
350
35
  3
ColorChange
350
39
  3
Conceptual
350
32
  3
Dim
350
34
  3
EdgeColorOff
350
41
  3
Facepattern
350
38
  3
Flat
350
2A
  3
FlatWithEdges
350
2B
  3
Gouraud
350
2C
  3
GouraudWithEdges
350
2D
  3
Hidden
350
31
  3
JitterOff
350
3F
  3
Linepattern
350
37
  3
OverhangOff
350
40
  3
Realistic
350
33
  3
Shaded
350
3E
  3
Shaded with edges
350
3D
  3
Shades of Gray
350
3A
  3
Sketchy
350
3B
  3
Thicken
350
36
  3
Wireframe
350
30
  3
X-Ray
350
3C
  0
XRECORD
  5
3F3
102
{ACAD_REACTORS
330
C
102
}
330
C
100
AcDbXrecord
280
     1
 90
        1
330
64
  0
DICTIONARY
  5
300
102
{ACAD_REACTORS
330
C
102
}
330
C
100
AcDbDictionary
281
     1
  3
CANNOSCALE
350
305
  3
CMLEADERSTYLE
350
302
  3
CTABLESTYLE
350
301
  3
CVIEWDETAILSTYLE
350
303
  3
CVIEWSECTIONSTYLE
350
304
  3
MSLTSCALE
350
3E6
  3
XCLIPFRAME
350
306
  0
XRECORD
  5
3DC
102
{ACAD_REACTORS
330
C
102
}
330
C
100
AcDbXrecord
280
     1
  0
DICTIONARY
  5
3DD
102
{ACAD_REACTORS
330
C
102
}
330
C
100
AcDbDictionary
281
     1
  3
GmRelease
350
3DE
  3
GmTimeStamp
350
3DF
  0
XRECORD
  5
2FF
102
{ACAD_REACTORS
330
2FE
102
}
330
2FE
100
AcDbXrecord
280
     1
290
     1
  0
ACDBDETAILVIEWSTYLE
  5
6B
102
{ACAD_REACTORS
330
6A
102
}
102
{ACAD_XDICTIONARY
360
3E8
102
}
330
6A
100
AcDbModelDocViewStyle
 70
     0
  3
Imperial24
290
     0
100
AcDbDetailViewStyle
 70
     0
 71
     0
 90
        3
 71
     1
340
55
 62
   256
 40
0.24
340
0
 62
   256
 40
0.24
300

 40
0.36
280
     3
 71
     2
340
5C
 90
       25
 62
   256
 71
     3
340
55
 62
   256
 40
0.24
 90
        1
 40
0.75
 90
        1
300
%<\AcVar ViewType \f "%tc1">% %<\AcVar ViewDetailId>%\PSCALE %<\AcVar ViewScale \f "%sn">%
 71
     4
340
5C
 90
       25
 62
   256
340
5C
 90
       25
 62
   256
280
     0
  0
LAYOUT
  5
73
102
{ACAD_REACTORS
330
61
102
}
330
61
100
AcDbPlotSettings
  1

  2
OneNote
  4

  6

 40
0.0
 41
0.0
 42
0.0
 43
0.0
 44
0.0
 45
0.0
 46
0.0
 47
0.0
 48
0.0
 49
0.0
140
0.0
141
0.0
142
1.0
143
1.0
 70
  1712
 72
     0
 73
     0
 74
     0
  7

 75
     0
 76
     0
 77
     2
 78
   300
147
1.0
148
0.0
149
0.0
100
AcDbLayout
  1
Model
 70
     1
 71
     0
 10
0.0
 20
0.0
 11
12.0
 21
9.0
 12
0.0
 22
0.0
 32
0.0
 14
0.0
 24
0.0
 34
0.0
 15
0.0
 25
0.0
 35
0.0
146
0.0
 13
0.0
 23
0.0
 33
0.0
 16
1.0
 26
0.0
 36
0.0
 17
0.0
 27
1.0
 37
0.0
 76
     0
330
70
331
7B
  0
LAYOUT
  5
6F
102
{ACAD_REACTORS
330
61
102
}
330
61
100
AcDbPlotSettings
  1

  2
OneNote
  4

  6

 40
0.0
 41
0.0
 42
0.0
 43
0.0
 44
0.0
 45
0.0
 46
0.0
 47
0.0
 48
0.0
 49
0.0
140
0.0
141
0.0
142
1.0
143
1.0
 70
   688
 72
     0
 73
     0
 74
     5
  7

 75
    16
 76
     0
 77
     2
 78
   300
147
1.0
148
0.0
149
0.0
100
AcDbLayout
  1
レイアウト1
 70
     1
 71
     1
 10
375.66077
 20
263.69434
 11
969.66077
 21
683.69434
 12
0.0
 22
0.0
 32
0.0
 14
1.000000000000000E+20
 24
1.000000000000000E+20
 34
1.000000000000000E+20
 15
-1.000000000000000E+20
 25
-1.000000000000000E+20
 35
-1.000000000000000E+20
146
0.0
 13
0.0
 23
0.0
 33
0.0
 16
1.0
 26
0.0
 36
0.0
 17
0.0
 27
1.0
 37
0.0
 76
     0
330
6C
  0
MATERIAL
  5
19
102
{ACAD_REACTORS
330
10
102
}
330
10
100
AcDbMaterial
  1
ByBlock
 72
     0
 43
0.0208333333333333
 43
0.0
 43
0.0
 43
0.0
 43
0.0
 43
0.0208333333333333
 43
0.0
 43
0.0
 43
0.0
 43
0.0
 43
1.0
 43
0.0
 43
0.0
 43
0.0
 43
0.0
 43
1.0
 77
     0
 47
0.0208333333333333
 47
0.0
 47
0.0
 47
0.0
 47
0.0
 47
0.0208333333333333
 47
0.0
 47
0.0
 47
0.0
 47
0.0
 47
1.0
 47
0.0
 47
0.0
 47
0.0
 47
0.0
 47
1.0
171
     0
 49
0.0208333333333333
 49
0.0
 49
0.0
 49
0.0
 49
0.0
 49
0.0208333333333333
 49
0.0
 49
0.0
 49
0.0
 49
0.0
 49
1.0
 49
0.0
 49
0.0
 49
0.0
 49
0.0
 49
1.0
175
     0
142
0.0208333333333333
142
0.0
142
0.0
142
0.0
142
0.0
142
0.0208333333333333
142
0.0
142
0.0
142
0.0
142
0.0
142
1.0
142
0.0
142
0.0
142
0.0
142
0.0
142
1.0
179
     0
144
0.0208333333333333
144
0.0
144
0.0
144
0.0
144
0.0
144
0.0208333333333333
144
0.0
144
0.0
144
0.0
144
0.0
144
1.0
144
0.0
144
0.0
144
0.0
144
0.0
144
1.0
147
0.0208333333333333
147
0.0
147
0.0
147
0.0
147
0.0
147
0.0208333333333333
147
0.0
147
0.0
147
0.0
147
0.0
147
1.0
147
0.0
147
0.0
147
0.0
147
0.0
147
1.0
 94
      127
  0
MATERIAL
  5
11
102
{ACAD_REACTORS
330
10
102
}
330
10
100
AcDbMaterial
  1
ByLayer
 72
     0
 43
0.0208333333333333
 43
0.0
 43
0.0
 43
0.0
 43
0.0
 43
0.0208333333333333
 43
0.0
 43
0.0
 43
0.0
 43
0.0
 43
1.0
 43
0.0
 43
0.0
 43
0.0
 43
0.0
 43
1.0
 77
     0
 47
0.0208333333333333
 47
0.0
 47
0.0
 47
0.0
 47
0.0
 47
0.0208333333333333
 47
0.0
 47
0.0
 47
0.0
 47
0.0
 47
1.0
 47
0.0
 47
0.0
 47
0.0
 47
0.0
 47
1.0
171
     0
 49
0.0208333333333333
 49
0.0
 49
0.0
 49
0.0
 49
0.0
 49
0.0208333333333333
 49
0.0
 49
0.0
 49
0.0
 49
0.0
 49
1.0
 49
0.0
 49
0.0
 49
0.0
 49
0.0
 49
1.0
175
     0
142
0.0208333333333333
142
0.0
142
0.0
142
0.0
142
0.0
142
0.0208333333333333
142
0.0
142
0.0
142
0.0
142
0.0
142
1.0
142
0.0
142
0.0
142
0.0
142
0.0
142
1.0
179
     0
144
0.0208333333333333
144
0.0
144
0.0
144
0.0
144
0.0
144
0.0208333333333333
144
0.0
144
0.0
144
0.0
144
0.0
144
1.0
144
0.0
144
0.0
144
0.0
144
0.0
144
1.0
147
0.0208333333333333
147
0.0
147
0.0
147
0.0
147
0.0
147
0.0208333333333333
147
0.0
147
0.0
147
0.0
147
0.0
147
1.0
147
0.0
147
0.0
147
0.0
147
0.0
147
1.0
 94
      127
  0
MATERIAL
  5
21
102
{ACAD_REACTORS
330
10
102
}
330
10
100
AcDbMaterial
  1
Global
 72
     0
 43
0.0208333333333333
 43
0.0
 43
0.0
 43
0.0
 43
0.0
 43
0.0208333333333333
 43
0.0
 43
0.0
 43
0.0
 43
0.0
 43
1.0
 43
0.0
 43
0.0
 43
0.0
 43
0.0
 43
1.0
 77
     0
 47
0.0208333333333333
 47
0.0
 47
0.0
 47
0.0
 47
0.0
 47
0.0208333333333333
 47
0.0
 47
0.0
 47
0.0
 47
0.0
 47
1.0
 47
0.0
 47
0.0
 47
0.0
 47
0.0
 47
1.0
171
     0
 49
0.0208333333333333
 49
0.0
 49
0.0
 49
0.0
 49
0.0
 49
0.0208333333333333
 49
0.0
 49
0.0
 49
0.0
 49
0.0
 49
1.0
 49
0.0
 49
0.0
 49
0.0
 49
0.0
 49
1.0
175
     0
142
0.0208333333333333
142
0.0
142
0.0
142
0.0
142
0.0
142
0.0208333333333333
142
0.0
142
0.0
142
0.0
142
0.0
142
1.0
142
0.0
142
0.0
142
0.0
142
0.0
142
1.0
179
     0
144
0.0208333333333333
144
0.0
144
0.0
144
0.0
144
0.0
144
0.0208333333333333
144
0.0
144
0.0
144
0.0
144
0.0
144
1.0
144
0.0
144
0.0
144
0.0
144
0.0
144
1.0
147
0.0208333333333333
147
0.0
147
0.0
147
0.0
147
0.0
147
0.0208333333333333
147
0.0
147
0.0
147
0.0
147
0.0
147
1.0
147
0.0
147
0.0
147
0.0
147
0.0
147
1.0
 94
      127
  0
MLEADERSTYLE
  5
66
102
{ACAD_REACTORS
330
65
102
}
330
65
100
AcDbMLeaderStyle
179
     2
170
     2
171
     1
172
     0
 90
        2
 40
0.0
 41
0.0
173
     1
 91
-1056964608
340
5A
 92
       -2
290
     1
 42
0.09
291
     1
 43
0.36
  3
Standard
341
0
 44
0.18
300

342
55
174
     1
178
     6
175
     1
176
     0
 93
-1056964608
 45
0.18
292
     0
297
     0
 46
0.18
343
0
 94
-1056964608
 47
1.0
 49
1.0
140
1.0
293
     1
141
0.0
294
     1
177
     0
142
1.0
295
     0
296
     0
143
0.125
271
     0
272
     9
273
     9
298
     0
1001
ACAD_MLEADERVER
1070
     2
  0
MLINESTYLE
  5
5F
102
{ACAD_REACTORS
330
5E
102
}
330
5E
100
AcDbMlineStyle
  2
STANDARD
 70
     0
  3

 62
   256
 51
90.0
 52
90.0
 71
     2
 49
0.5
 62
   256
  6
BYLAYER
 49
-0.5
 62
   256
  6
BYLAYER
  0
ACDBPLACEHOLDER
  5
F
102
{ACAD_REACTORS
330
E
102
}
330
E
  0
SCALE
  5
43
102
{ACAD_REACTORS
330
42
102
}
330
42
100
AcDbScale
 70
     0
300
1:1
140
1.0
141
1.0
290
     1
  0
SCALE
  5
44
102
{ACAD_REACTORS
330
42
102
}
330
42
100
AcDbScale
 70
     0
300
1/128" = 1'-0"
140
0.0078125
141
12.0
290
     0
  0
SCALE
  5
45
102
{ACAD_REACTORS
330
42
102
}
330
42
100
AcDbScale
 70
     0
300
1/64" = 1'-0"
140
0.015625
141
12.0
290
     0
  0
SCALE
  5
46
102
{ACAD_REACTORS
330
42
102
}
330
42
100
AcDbScale
 70
     0
300
1/32" = 1'-0"
140
0.03125
141
12.0
290
     0
  0
SCALE
  5
47
102
{ACAD_REACTORS
330
42
102
}
330
42
100
AcDbScale
 70
     0
300
1/16" = 1'-0"
140
0.0625
141
12.0
290
     0
  0
SCALE
  5
48
102
{ACAD_REACTORS
330
42
102
}
330
42
100
AcDbScale
 70
     0
300
3/32" = 1'-0"
140
0.09375
141
12.0
290
     0
  0
SCALE
  5
49
102
{ACAD_REACTORS
330
42
102
}
330
42
100
AcDbScale
 70
     0
300
1/8" = 1'-0"
140
0.125
141
12.0
290
     0
  0
SCALE
  5
4A
102
{ACAD_REACTORS
330
42
102
}
330
42
100
AcDbScale
 70
     0
300
3/16" = 1'-0"
140
0.1875
141
12.0
290
     0
  0
SCALE
  5
4B
102
{ACAD_REACTORS
330
42
102
}
330
42
100
AcDbScale
 70
     0
300
1/4" = 1'-0"
140
0.25
141
12.0
290
     0
  0
SCALE
  5
4C
102
{ACAD_REACTORS
330
42
102
}
330
42
100
AcDbScale
 70
     0
300
3/8" = 1'-0"
140
0.375
141
12.0
290
     0
  0
SCALE
  5
4D
102
{ACAD_REACTORS
330
42
102
}
330
42
100
AcDbScale
 70
     0
300
1/2" = 1'-0"
140
0.5
141
12.0
290
     0
  0
SCALE
  5
4E
102
{ACAD_REACTORS
330
42
102
}
330
42
100
AcDbScale
 70
     0
300
3/4" = 1'-0"
140
0.75
141
12.0
290
     0
  0
SCALE
  5
4F
102
{ACAD_REACTORS
330
42
102
}
330
42
100
AcDbScale
 70
     0
300
1" = 1'-0"
140
1.0
141
12.0
290
     0
  0
SCALE
  5
50
102
{ACAD_REACTORS
330
42
102
}
330
42
100
AcDbScale
 70
     0
300
1-1/2" = 1'-0"
140
1.5
141
12.0
290
     0
  0
SCALE
  5
51
102
{ACAD_REACTORS
330
42
102
}
330
42
100
AcDbScale
 70
     0
300
3" = 1'-0"
140
3.0
141
12.0
290
     0
  0
SCALE
  5
52
102
{ACAD_REACTORS
330
42
102
}
330
42
100
AcDbScale
 70
     0
300
6" = 1'-0"
140
6.0
141
12.0
290
     0
  0
SCALE
  5
53
102
{ACAD_REACTORS
330
42
102
}
330
42
100
AcDbScale
 70
     0
300
1'-0" = 1'-0"
140
12.0
141
12.0
290
     0
  0
ACDBSECTIONVIEWSTYLE
  5
69
102
{ACAD_REACTORS
330
67
102
}
102
{ACAD_XDICTIONARY
360
3EB
102
}
330
67
100
AcDbModelDocViewStyle
 70
     0
  3
Imperial24
290
     0
100
AcDbSectionViewStyle
 70
     0
 71
     0
 90
       78
 71
     1
340
55
 62
   256
 40
0.24
340
0
340
0
 62
   256
 40
0.24
300
I, O, Q, S, X, Z
 40
0.48
 90
        3
 40
0.18
 90
        1
 71
     2
340
68
 90
       25
 62
   256
340
5C
 90
       50
 62
   256
 40
0.24
 40
0.0
 40
0.24
 71
     3
340
55
 62
   256
 40
0.24
 90
        1
 40
0.75
 90
        1
300
%<\AcVar ViewType \f "%tc1">% %<\AcVar ViewSectionStartId>%-%<\AcVar ViewSectionEndId>%\PSCALE %<\AcVar ViewScale \f "%sn">%
 71
     4
 62
   256
 62
   257
300
ANSI31
 40
1.0
 90
        0
290
     0
290
     0
 90
        6
 40
0.0
 40
1.570796326794896
 40
0.2617993877991494
 40
1.308996938995747
 40
-0.2617993877991494
 40
1.832595714594046
  0
TABLESTYLE
  5
64
102
{ACAD_REACTORS
330
63
102
}
102
{ACAD_XDICTIONARY
360
3F1
102
}
330
63
100
AcDbTableStyle
  3
Standard
 70
     0
 71
     0
 40
0.06
 41
0.06
280
     0
281
     0
  7
STANDARD
140
0.18
170
     2
 62
     0
 63
   257
283
     0
 90
      512
 91
        0
  1

274
    -2
284
     1
 64
     0
275
    -2
285
     1
 65
     0
276
    -2
286
     1
 66
     0
277
    -2
287
     1
 67
     0
278
    -2
288
     1
 68
     0
279
    -2
289
     1
 69
     0
  7
STANDARD
140
0.25
170
     5
 62
     0
 63
   257
283
     0
 90
      512
 91
        0
  1

274
    -2
284
     1
 64
     0
275
    -2
285
     1
 65
     0
276
    -2
286
     1
 66
     0
277
    -2
287
     1
 67
     0
278
    -2
288
     1
 68
     0
279
    -2
289
     1
 69
     0
  7
STANDARD
140
0.18
170
     5
 62
     0
 63
   257
283
     0
 90
      512
 91
        0
  1

274
    -2
284
     1
 64
     0
275
    -2
285
     1
 65
     0
276
    -2
286
     1
 66
     0
277
    -2
287
     1
 67
     0
278
    -2
288
     1
 68
     0
279
    -2
289
     1
 69
     0
  0
VISUALSTYLE
  5
2F
102
{ACAD_REACTORS
330
29
102
}
330
29
100
AcDbVisualStyle
  2
2dWireframe
 70
     4
177
     3
291
     0
 70
    58
 90
        0
176
     1
 90
        2
176
     1
 90
        0
176
     1
 90
        0
176
     1
 40
-0.6
176
     1
 40
-30.0
176
     1
 62
     7
420
 16777215
176
     1
 90
        1
176
     1
 90
        4
176
     1
 62
     7
176
     1
 62
   257
176
     1
 90
        1
176
     1
 90
        1
176
     1
 40
1.0
176
     1
 90
        0
176
     1
 62
   257
176
     1
 40
1.0
176
     1
 90
        1
176
     1
 90
        6
176
     1
 90
        2
176
     1
 62
     7
176
     1
 90
        5
176
     1
 90
        0
176
     1
 90
        0
176
     1
290
     0
176
     1
 90
        1
176
     1
 40
0.0
176
     1
 90
        0
176
     1
290
     1
176
     1
290
     1
176
     1
290
     0
176
     1
290
     0
176
     1
290
     0
176
     1
290
     0
176
     1
290
     0
176
     1
290
     0
176
     1
290
     0
176
     1
 90
       50
176
     1
 40
0.0
176
     1
 40
1.0
176
     1
 90
        0
176
     1
 62
    18
420
        0
176
     1
 90
       50
176
     1
 90
        3
176
     1
 62
     5
420
      255
176
     1
290
     0
176
     1
 90
       50
176
     1
 90
       50
176
     1
 90
       50
176
     1
290
     0
176
     1
 90
       50
176
     1
 62
   256
176
     0
 40
1.0
176
     0
 90
        2
176
     1
  1
strokes_ogs.tif
176
     1
290
     0
176
     1
 40
1.0
176
     1
 40
1.0
176
     1
  0
VISUALSTYLE
  5
2E
102
{ACAD_REACTORS
330
29
102
}
330
29
100
AcDbVisualStyle
  2
Basic
 70
     7
177
     3
291
     1
 70
    58
 90
        1
176
     1
 90
        0
176
     1
 90
        1
176
     1
 90
        0
176
     1
 40
-0.6
176
     1
 40
-30.0
176
     1
 62
     7
420
 16777215
176
     1
 90
        0
176
     1
 90
        4
176
     1
 62
     7
176
     1
 62
   257
176
     1
 90
        1
176
     1
 90
        1
176
     1
 40
1.0
176
     1
 90
        8
176
     1
 62
     7
176
     1
 40
1.0
176
     1
 90
        1
176
     1
 90
        6
176
     1
 90
        2
176
     1
 62
     7
176
     1
 90
        5
176
     1
 90
        0
176
     1
 90
        0
176
     1
290
     0
176
     1
 90
        1
176
     1
 40
0.0
176
     1
 90
        0
176
     1
290
     0
176
     1
290
     1
176
     1
290
     1
176
     1
290
     0
176
     1
290
     0
176
     1
290
     0
176
     1
290
     0
176
     1
290
     0
176
     1
290
     0
176
     1
 90
       50
176
     1
 40
0.0
176
     1
 40
1.0
176
     1
 90
        0
176
     1
 62
    18
420
        0
176
     1
 90
       50
176
     1
 90
        3
176
     1
 62
     5
420
      255
176
     1
290
     0
176
     1
 90
       50
176
     1
 90
       50
176
     1
 90
       50
176
     1
290
     0
176
     1
 90
       50
176
     1
 62
   256
176
     0
 40
1.0
176
     0
 90
        2
176
     1
  1
strokes_ogs.tif
176
     1
290
     0
176
     1
 40
1.0
176
     1
 40
1.0
176
     1
  0
VISUALSTYLE
  5
35
102
{ACAD_REACTORS
330
29
102
}
330
29
100
AcDbVisualStyle
  2
Brighten
 70
    12
177
     3
291
     1
 70
    58
 90
        2
176
     1
 90
        2
176
     1
 90
        0
176
     1
 90
        0
176
     1
 40
-0.6
176
     1
 40
-30.0
176
     1
 62
     7
420
 16777215
176
     1
 90
        1
176
     1
 90
        4
176
     1
 62
     7
176
     1
 62
   257
176
     1
 90
        1
176
     1
 90
        1
176
     1
 40
1.0
176
     1
 90
        8
176
     1
 62
     7
176
     1
 40
1.0
176
     1
 90
        1
176
     1
 90
        6
176
     1
 90
        2
176
     1
 62
     7
176
     1
 90
        5
176
     1
 90
        0
176
     1
 90
        0
176
     1
290
     0
176
     1
 90
        1
176
     1
 40
50.0
176
     1
 90
        0
176
     1
290
     0
176
     1
290
     1
176
     1
290
     1
176
     1
290
     0
176
     1
290
     0
176
     1
290
     0
176
     1
290
     0
176
     1
290
     0
176
     1
290
     0
176
     1
 90
       50
176
     1
 40
0.0
176
     1
 40
1.0
176
     1
 90
        0
176
     1
 62
    18
420
        0
176
     1
 90
       50
176
     1
 90
        3
176
     1
 62
     5
420
      255
176
     1
290
     0
176
     1
 90
       50
176
     1
 90
       50
176
     1
 90
       50
176
     1
290
     0
176
     1
 90
       50
176
     1
 62
   256
176
     0
 40
1.0
176
     0
 90
        2
176
     1
  1
strokes_ogs.tif
176
     1
290
     0
176
     1
 40
1.0
176
     1
 40
1.0
176
     1
  0
VISUALSTYLE
  5
39
102
{ACAD_REACTORS
330
29
102
}
330
29
100
AcDbVisualStyle
  2
ColorChange
 70
    16
177
     3
291
     1
 70
    58
 90
        2
176
     1
 90
        2
176
     1
 90
        3
176
     1
 90
        0
176
     1
 40
-0.6
176
     1
 40
-30.0
176
     1
 62
     8
420
  8421504
176
     1
 90
        1
176
     1
 90
        4
176
     1
 62
     7
176
     1
 62
   257
176
     1
 90
        1
176
     1
 90
        1
176
     1
 40
1.0
176
     1
 90
        8
176
     1
 62
     8
420
  8421504
176
     1
 40
1.0
176
     1
 90
        1
176
     1
 90
        6
176
     1
 90
        2
176
     1
 62
     7
176
     1
 90
        5
176
     1
 90
        0
176
     1
 90
        0
176
     1
290
     0
176
     1
 90
        1
176
     1
 40
0.0
176
     1
 90
        0
176
     1
290
     0
176
     1
290
     1
176
     1
290
     1
176
     1
290
     0
176
     1
290
     0
176
     1
290
     0
176
     1
290
     0
176
     1
290
     0
176
     1
290
     0
176
     1
 90
       50
176
     1
 40
0.0
176
     1
 40
1.0
176
     1
 90
        0
176
     1
 62
    18
420
        0
176
     1
 90
       50
176
     1
 90
        3
176
     1
 62
     5
420
      255
176
     1
290
     0
176
     1
 90
       50
176
     1
 90
       50
176
     1
 90
       50
176
     1
290
     0
176
     1
 90
       50
176
     1
 62
   256
176
     0
 40
1.0
176
     0
 90
        2
176
     1
  1
strokes_ogs.tif
176
     1
290
     0
176
     1
 40
1.0
176
     1
 40
1.0
176
     1
  0
VISUALSTYLE
  5
32
102
{ACAD_REACTORS
330
29
102
}
330
29
100
AcDbVisualStyle
  2
Conceptual
 70
     9
177
     3
291
     0
 70
    58
 90
        3
176
     1
 90
        2
176
     1
 90
        0
176
     1
 90
        0
176
     1
 40
-0.6
176
     1
 40
-30.0
176
     1
 62
     7
420
 16777215
176
     1
 90
        2
176
     1
 90
        2
176
     1
 62
     7
176
     1
 62
   257
176
     1
 90
        1
176
     1
 90
        1
176
     1
 40
179.0
176
     1
 90
        8
176
     1
 62
     7
176
     1
 40
1.0
176
     1
 90
        1
176
     1
 90
        6
176
     1
 90
        2
176
     1
 62
     7
176
     1
 90
        3
176
     1
 90
        0
176
     1
 90
        0
176
     1
290
     0
176
     1
 90
        1
176
     1
 40
0.0
176
     1
 90
        0
176
     1
290
     0
176
     1
290
     1
176
     1
290
     1
176
     1
290
     0
176
     1
290
     0
176
     1
290
     0
176
     1
290
     0
176
     1
290
     0
176
     1
290
     0
176
     1
 90
       50
176
     1
 40
0.0
176
     1
 40
1.0
176
     1
 90
        0
176
     1
 62
    18
420
        0
176
     1
 90
       50
176
     1
 90
        3
176
     1
 62
     5
420
      255
176
     1
290
     0
176
     1
 90
       50
176
     1
 90
       50
176
     1
 90
       50
176
     1
290
     0
176
     1
 90
       50
176
     1
 62
   256
176
     0
 40
1.0
176
     0
 90
        2
176
     1
  1
strokes_ogs.tif
176
     1
290
     0
176
     1
 40
1.0
176
     1
 40
1.0
176
     1
  0
VISUALSTYLE
  5
34
102
{ACAD_REACTORS
330
29
102
}
330
29
100
AcDbVisualStyle
  2
Dim
 70
    11
177
     3
291
     1
 70
    58
 90
        2
176
     1
 90
        2
176
     1
 90
        0
176
     1
 90
        0
176
     1
 40
-0.6
176
     1
 40
-30.0
176
     1
 62
     7
420
 16777215
176
     1
 90
        1
176
     1
 90
        4
176
     1
 62
     7
176
     1
 62
   257
176
     1
 90
        1
176
     1
 90
        1
176
     1
 40
1.0
176
     1
 90
        8
176
     1
 62
     7
176
     1
 40
1.0
176
     1
 90
        1
176
     1
 90
        6
176
     1
 90
        2
176
     1
 62
     7
176
     1
 90
        5
176
     1
 90
        0
176
     1
 90
        0
176
     1
290
     0
176
     1
 90
        1
176
     1
 40
-50.0
176
     1
 90
        0
176
     1
290
     0
176
     1
290
     1
176
     1
290
     1
176
     1
290
     0
176
     1
290
     0
176
     1
290
     0
176
     1
290
     0
176
     1
290
     0
176
     1
290
     0
176
     1
 90
       50
176
     1
 40
0.0
176
     1
 40
1.0
176
     1
 90
        0
176
     1
 62
    18
420
        0
176
     1
 90
       50
176
     1
 90
        3
176
     1
 62
     5
420
      255
176
     1
290
     0
176
     1
 90
       50
176
     1
 90
       50
176
     1
 90
       50
176
     1
290
     0
176
     1
 90
       50
176
     1
 62
   256
176
     0
 40
1.0
176
     0
 90
        2
176
     1
  1
strokes_ogs.tif
176
     1
290
     0
176
     1
 40
1.0
176
     1
 40
1.0
176
     1
  0
VISUALSTYLE
  5
41
102
{ACAD_REACTORS
330
29
102
}
330
29
100
AcDbVisualStyle
  2
EdgeColorOff
 70
    22
177
     3
291
     1
 70
    58
 90
        2
176
     0
 90
        2
176
     0
 90
        0
176
     0
 90
        0
176
     0
 40
-0.6
176
     0
 40
-30.0
176
     0
 62
     7
420
 16777215
176
     0
 90
        1
176
     0
 90
        4
176
     0
 62
     7
176
     0
 62
   257
176
     0
 90
        1
176
     0
 90
        1
176
     0
 40
1.0
176
     0
 90
        8
176
     2
 62
     7
176
     0
 40
1.0
176
     0
 90
        1
176
     0
 90
        6
176
     0
 90
        2
176
     0
 62
     7
176
     0
 90
        5
176
     0
 90
        0
176
     0
 90
        0
176
     0
290
     0
176
     0
 90
        1
176
     0
 40
0.0
176
     0
 90
        0
176
     0
290
     0
176
     1
290
     1
176
     1
290
     1
176
     1
290
     0
176
     1
290
     0
176
     1
290
     0
176
     1
290
     0
176
     1
290
     0
176
     1
290
     0
176
     1
 90
       50
176
     0
 40
0.0
176
     0
 40
1.0
176
     0
 90
        0
176
     0
 62
    18
420
        0
176
     0
 90
       50
176
     0
 90
        3
176
     0
 62
     5
420
      255
176
     0
290
     0
176
     1
 90
       50
176
     0
 90
       50
176
     0
 90
       50
176
     0
290
     0
176
     1
 90
       50
176
     0
 62
   256
176
     0
 40
1.0
176
     0
 90
        2
176
     0
  1
strokes_ogs.tif
176
     0
290
     0
176
     1
 40
1.0
176
     0
 40
1.0
176
     0
  0
VISUALSTYLE
  5
38
102
{ACAD_REACTORS
330
29
102
}
330
29
100
AcDbVisualStyle
  2
Facepattern
 70
    15
177
     3
291
     1
 70
    58
 90
        2
176
     1
 90
        2
176
     1
 90
        0
176
     1
 90
        0
176
     1
 40
-0.6
176
     1
 40
-30.0
176
     1
 62
     7
420
 16777215
176
     1
 90
        1
176
     1
 90
        4
176
     1
 62
     7
176
     1
 62
   257
176
     1
 90
        1
176
     1
 90
        1
176
     1
 40
1.0
176
     1
 90
        8
176
     1
 62
     7
176
     1
 40
1.0
176
     1
 90
        1
176
     1
 90
        6
176
     1
 90
        2
176
     1
 62
     7
176
     1
 90
        5
176
     1
 90
        0
176
     1
 90
        0
176
     1
290
     0
176
     1
 90
        1
176
     1
 40
0.0
176
     1
 90
        0
176
     1
290
     0
176
     1
290
     1
176
     1
290
     1
176
     1
290
     0
176
     1
290
     0
176
     1
290
     0
176
     1
290
     0
176
     1
290
     0
176
     1
290
     0
176
     1
 90
       50
176
     1
 40
0.0
176
     1
 40
1.0
176
     1
 90
        0
176
     1
 62
    18
420
        0
176
     1
 90
       50
176
     1
 90
        3
176
     1
 62
     5
420
      255
176
     1
290
     0
176
     1
 90
       50
176
     1
 90
       50
176
     1
 90
       50
176
     1
290
     0
176
     1
 90
       50
176
     1
 62
   256
176
     0
 40
1.0
176
     0
 90
        2
176
     1
  1
strokes_ogs.tif
176
     1
290
     0
176
     1
 40
1.0
176
     1
 40
1.0
176
     1
  0
VISUALSTYLE
  5
2A
102
{ACAD_REACTORS
330
29
102
}
330
29
100
AcDbVisualStyle
  2
Flat
 70
     0
177
     3
291
     1
 70
    58
 90
        2
176
     1
 90
        1
176
     1
 90
        1
176
     1
 90
        2
176
     1
 40
-0.6
176
     1
 40
30.0
176
     1
 62
     7
420
 16777215
176
     1
 90
        0
176
     1
 90
        0
176
     1
 62
     7
176
     1
 62
   257
176
     1
 90
        1
176
     1
 90
        1
176
     1
 40
1.0
176
     1
 90
        8
176
     1
 62
     7
176
     1
 40
1.0
176
     1
 90
        1
176
     1
 90
        6
176
     1
 90
        2
176
     1
 62
     7
176
     1
 90
        5
176
     1
 90
        0
176
     1
 90
        0
176
     1
290
     0
176
     1
 90
       13
176
     1
 40
0.0
176
     1
 90
        0
176
     1
290
     0
176
     1
290
     1
176
     1
290
     1
176
     1
290
     0
176
     1
290
     0
176
     1
290
     0
176
     1
290
     0
176
     1
290
     0
176
     1
290
     0
176
     1
 90
       50
176
     1
 40
0.0
176
     1
 40
1.0
176
     1
 90
        0
176
     1
 62
    18
420
        0
176
     1
 90
       50
176
     1
 90
        3
176
     1
 62
     5
420
      255
176
     1
290
     0
176
     1
 90
       50
176
     1
 90
       50
176
     1
 90
       50
176
     1
290
     0
176
     1
 90
       50
176
     1
 62
   256
176
     0
 40
1.0
176
     0
 90
        2
176
     1
  1
strokes_ogs.tif
176
     1
290
     0
176
     1
 40
1.0
176
     1
 40
1.0
176
     1
  0
VISUALSTYLE
  5
2B
102
{ACAD_REACTORS
330
29
102
}
330
29
100
AcDbVisualStyle
  2
FlatWithEdges
 70
     1
177
     3
291
     1
 70
    58
 90
        2
176
     1
 90
        1
176
     1
 90
        1
176
     1
 90
        2
176
     1
 40
-0.6
176
     1
 40
30.0
176
     1
 62
     7
420
 16777215
176
     1
 90
        1
176
     1
 90
        0
176
     1
 62
     7
176
     1
 62
   257
176
     1
 90
        1
176
     1
 90
        1
176
     1
 40
1.0
176
     1
 90
        0
176
     1
 62
   257
176
     1
 40
1.0
176
     1
 90
        1
176
     1
 90
        6
176
     1
 90
        2
176
     1
 62
     7
176
     1
 90
        5
176
     1
 90
        0
176
     1
 90
        0
176
     1
290
     0
176
     1
 90
       13
176
     1
 40
0.0
176
     1
 90
        0
176
     1
290
     0
176
     1
290
     1
176
     1
290
     1
176
     1
290
     0
176
     1
290
     0
176
     1
290
     0
176
     1
290
     0
176
     1
290
     0
176
     1
290
     0
176
     1
 90
       50
176
     1
 40
0.0
176
     1
 40
1.0
176
     1
 90
        0
176
     1
 62
    18
420
        0
176
     1
 90
       50
176
     1
 90
        3
176
     1
 62
     5
420
      255
176
     1
290
     0
176
     1
 90
       50
176
     1
 90
       50
176
     1
 90
       50
176
     1
290
     0
176
     1
 90
       50
176
     1
 62
   256
176
     0
 40
1.0
176
     0
 90
        2
176
     1
  1
strokes_ogs.tif
176
     1
290
     0
176
     1
 40
1.0
176
     1
 40
1.0
176
     1
  0
VISUALSTYLE
  5
2C
102
{ACAD_REACTORS
330
29
102
}
330
29
100
AcDbVisualStyle
  2
Gouraud
 70
     2
177
     3
291
     1
 70
    58
 90
        2
176
     1
 90
        2
176
     1
 90
        1
176
     1
 90
        2
176
     1
 40
-0.6
176
     1
 40
30.0
176
     1
 62
     7
420
 16777215
176
     1
 90
        0
176
     1
 90
        0
176
     1
 62
     7
176
     1
 62
   257
176
     1
 90
        1
176
     1
 90
        1
176
     1
 40
1.0
176
     1
 90
        0
176
     1
 62
     7
176
     1
 40
1.0
176
     1
 90
        1
176
     1
 90
        6
176
     1
 90
        2
176
     1
 62
     7
176
     1
 90
        5
176
     1
 90
        0
176
     1
 90
        0
176
     1
290
     0
176
     1
 90
       13
176
     1
 40
0.0
176
     1
 90
        0
176
     1
290
     0
176
     1
290
     1
176
     1
290
     1
176
     1
290
     0
176
     1
290
     0
176
     1
290
     0
176
     1
290
     0
176
     1
290
     0
176
     1
290
     0
176
     1
 90
       50
176
     1
 40
0.0
176
     1
 40
1.0
176
     1
 90
        0
176
     1
 62
    18
420
        0
176
     1
 90
       50
176
     1
 90
        3
176
     1
 62
     5
420
      255
176
     1
290
     0
176
     1
 90
       50
176
     1
 90
       50
176
     1
 90
       50
176
     1
290
     0
176
     1
 90
       50
176
     1
 62
   256
176
     0
 40
1.0
176
     0
 90
        2
176
     1
  1
strokes_ogs.tif
176
     1
290
     0
176
     1
 40
1.0
176
     1
 40
1.0
176
     1
  0
VISUALSTYLE
  5
2D
102
{ACAD_REACTORS
330
29
102
}
330
29
100
AcDbVisualStyle
  2
GouraudWithEdges
 70
     3
177
     3
291
     1
 70
    58
 90
        2
176
     1
 90
        2
176
     1
 90
        1
176
     1
 90
        2
176
     1
 40
-0.6
176
     1
 40
30.0
176
     1
 62
     7
420
 16777215
176
     1
 90
        1
176
     1
 90
        0
176
     1
 62
     7
176
     1
 62
   257
176
     1
 90
        1
176
     1
 90
        1
176
     1
 40
1.0
176
     1
 90
        0
176
     1
 62
   257
176
     1
 40
1.0
176
     1
 90
        1
176
     1
 90
        6
176
     1
 90
        2
176
     1
 62
     7
176
     1
 90
        5
176
     1
 90
        0
176
     1
 90
        0
176
     1
290
     0
176
     1
 90
       13
176
     1
 40
0.0
176
     1
 90
        0
176
     1
290
     0
176
     1
290
     1
176
     1
290
     1
176
     1
290
     0
176
     1
290
     0
176
     1
290
     0
176
     1
290
     0
176
     1
290
     0
176
     1
290
     0
176
     1
 90
       50
176
     1
 40
0.0
176
     1
 40
1.0
176
     1
 90
        0
176
     1
 62
    18
420
        0
176
     1
 90
       50
176
     1
 90
        3
176
     1
 62
     5
420
      255
176
     1
290
     0
176
     1
 90
       50
176
     1
 90
       50
176
     1
 90
       50
176
     1
290
     0
176
     1
 90
       50
176
     1
 62
   256
176
     0
 40
1.0
176
     0
 90
        2
176
     1
  1
strokes_ogs.tif
176
     1
290
     0
176
     1
 40
1.0
176
     1
 40
1.0
176
     1
  0
VISUALSTYLE
  5
31
102
{ACAD_REACTORS
330
29
102
}
330
29
100
AcDbVisualStyle
  2
Hidden
 70
     6
177
     3
291
     0
 70
    58
 90
        1
176
     1
 90
        2
176
     1
 90
        2
176
     1
 90
        0
176
     1
 40
-0.6
176
     1
 40
-30.0
176
     1
 62
     7
420
 16777215
176
     1
 90
        2
176
     1
 90
        2
176
     1
 62
     7
176
     1
 62
   257
176
     1
 90
        2
176
     1
 90
        1
176
     1
 40
40.0
176
     1
 90
        0
176
     1
 62
   257
176
     1
 40
1.0
176
     1
 90
        1
176
     1
 90
        6
176
     1
 90
        2
176
     1
 62
     7
176
     1
 90
        3
176
     1
 90
        0
176
     1
 90
        0
176
     1
290
     0
176
     1
 90
        1
176
     1
 40
0.0
176
     1
 90
        0
176
     1
290
     0
176
     1
290
     1
176
     1
290
     1
176
     1
290
     0
176
     1
290
     0
176
     1
290
     0
176
     1
290
     0
176
     1
290
     0
176
     1
290
     0
176
     1
 90
       50
176
     1
 40
0.0
176
     1
 40
1.0
176
     1
 90
        0
176
     1
 62
    18
420
        0
176
     1
 90
       50
176
     1
 90
        3
176
     1
 62
     5
420
      255
176
     1
290
     0
176
     1
 90
       50
176
     1
 90
       50
176
     1
 90
       50
176
     1
290
     0
176
     1
 90
       50
176
     1
 62
   256
176
     0
 40
1.0
176
     0
 90
        2
176
     1
  1
strokes_ogs.tif
176
     1
290
     0
176
     1
 40
1.0
176
     1
 40
1.0
176
     1
  0
VISUALSTYLE
  5
3F
102
{ACAD_REACTORS
330
29
102
}
330
29
100
AcDbVisualStyle
  2
JitterOff
 70
    20
177
     3
291
     1
 70
    58
 90
        2
176
     0
 90
        2
176
     0
 90
        0
176
     0
 90
        0
176
     0
 40
-0.6
176
     0
 40
-30.0
176
     0
 62
     7
420
 16777215
176
     0
 90
        1
176
     0
 90
        4
176
     0
 62
     7
176
     0
 62
   257
176
     0
 90
        1
176
     0
 90
        1
176
     0
 40
1.0
176
     0
 90
       10
176
     2
 62
     7
176
     0
 40
1.0
176
     0
 90
        1
176
     0
 90
        6
176
     0
 90
        2
176
     0
 62
     7
176
     0
 90
        5
176
     0
 90
        0
176
     0
 90
        0
176
     0
290
     0
176
     0
 90
        1
176
     0
 40
0.0
176
     0
 90
        0
176
     0
290
     0
176
     1
290
     1
176
     1
290
     1
176
     1
290
     0
176
     1
290
     0
176
     1
290
     0
176
     1
290
     0
176
     1
290
     0
176
     1
290
     0
176
     1
 90
       50
176
     0
 40
0.0
176
     0
 40
1.0
176
     0
 90
        0
176
     0
 62
    18
420
        0
176
     0
 90
       50
176
     0
 90
        3
176
     0
 62
     5
420
      255
176
     0
290
     0
176
     1
 90
       50
176
     0
 90
       50
176
     0
 90
       50
176
     0
290
     0
176
     1
 90
       50
176
     0
 62
   256
176
     0
 40
1.0
176
     0
 90
        2
176
     0
  1
strokes_ogs.tif
176
     0
290
     0
176
     1
 40
1.0
176
     0
 40
1.0
176
     0
  0
VISUALSTYLE
  5
37
102
{ACAD_REACTORS
330
29
102
}
330
29
100
AcDbVisualStyle
  2
Linepattern
 70
    14
177
     3
291
     1
 70
    58
 90
        2
176
     1
 90
        2
176
     1
 90
        0
176
     1
 90
        0
176
     1
 40
-0.6
176
     1
 40
-30.0
176
     1
 62
     7
420
 16777215
176
     1
 90
        1
176
     1
 90
        4
176
     1
 62
     7
176
     1
 62
   257
176
     1
 90
        7
176
     1
 90
        7
176
     1
 40
1.0
176
     1
 90
        8
176
     1
 62
     7
176
     1
 40
1.0
176
     1
 90
        1
176
     1
 90
        6
176
     1
 90
        2
176
     1
 62
     7
176
     1
 90
        5
176
     1
 90
        0
176
     1
 90
        0
176
     1
290
     0
176
     1
 90
        1
176
     1
 40
0.0
176
     1
 90
        0
176
     1
290
     0
176
     1
290
     1
176
     1
290
     1
176
     1
290
     0
176
     1
290
     0
176
     1
290
     0
176
     1
290
     0
176
     1
290
     0
176
     1
290
     0
176
     1
 90
       50
176
     1
 40
0.0
176
     1
 40
1.0
176
     1
 90
        0
176
     1
 62
    18
420
        0
176
     1
 90
       50
176
     1
 90
        3
176
     1
 62
     5
420
      255
176
     1
290
     0
176
     1
 90
       50
176
     1
 90
       50
176
     1
 90
       50
176
     1
290
     0
176
     1
 90
       50
176
     1
 62
   256
176
     0
 40
1.0
176
     0
 90
        2
176
     1
  1
strokes_ogs.tif
176
     1
290
     0
176
     1
 40
1.0
176
     1
 40
1.0
176
     1
  0
VISUALSTYLE
  5
40
102
{ACAD_REACTORS
330
29
102
}
330
29
100
AcDbVisualStyle
  2
OverhangOff
 70
    21
177
     3
291
     1
 70
    58
 90
        2
176
     0
 90
        2
176
     0
 90
        0
176
     0
 90
        0
176
     0
 40
-0.6
176
     0
 40
-30.0
176
     0
 62
     7
420
 16777215
176
     0
 90
        1
176
     0
 90
        4
176
     0
 62
     7
176
     0
 62
   257
176
     0
 90
        1
176
     0
 90
        1
176
     0
 40
1.0
176
     0
 90
        9
176
     2
 62
     7
176
     0
 40
1.0
176
     0
 90
        1
176
     0
 90
        6
176
     0
 90
        2
176
     0
 62
     7
176
     0
 90
        5
176
     0
 90
        0
176
     0
 90
        0
176
     0
290
     0
176
     0
 90
        1
176
     0
 40
0.0
176
     0
 90
        0
176
     0
290
     0
176
     1
290
     1
176
     1
290
     1
176
     1
290
     0
176
     1
290
     0
176
     1
290
     0
176
     1
290
     0
176
     1
290
     0
176
     1
290
     0
176
     1
 90
       50
176
     0
 40
0.0
176
     0
 40
1.0
176
     0
 90
        0
176
     0
 62
    18
420
        0
176
     0
 90
       50
176
     0
 90
        3
176
     0
 62
     5
420
      255
176
     0
290
     0
176
     1
 90
       50
176
     0
 90
       50
176
     0
 90
       50
176
     0
290
     0
176
     1
 90
       50
176
     0
 62
   256
176
     0
 40
1.0
176
     0
 90
        2
176
     0
  1
strokes_ogs.tif
176
     0
290
     0
176
     1
 40
1.0
176
     0
 40
1.0
176
     0
  0
VISUALSTYLE
  5
33
102
{ACAD_REACTORS
330
29
102
}
330
29
100
AcDbVisualStyle
  2
Realistic
 70
     8
177
     3
291
     0
 70
    58
 90
        2
176
     1
 90
        3
176
     1
 90
        0
176
     1
 90
        2
176
     1
 40
-0.6
176
     1
 40
30.0
176
     1
 62
     7
420
 16777215
176
     1
 90
        0
176
     1
 90
        0
176
     1
 62
     7
176
     1
 62
   257
176
     1
 90
        1
176
     1
 90
        1
176
     1
 40
1.0
176
     1
 90
        8
176
     1
 62
   257
176
     1
 40
1.0
176
     1
 90
        1
176
     1
 90
        6
176
     1
 90
        2
176
     1
 62
     7
176
     1
 90
        3
176
     1
 90
        0
176
     1
 90
        0
176
     1
290
     0
176
     1
 90
       13
176
     1
 40
0.0
176
     1
 90
        0
176
     1
290
     0
176
     1
290
     1
176
     1
290
     1
176
     1
290
     0
176
     1
290
     0
176
     1
290
     0
176
     1
290
     0
176
     1
290
     0
176
     1
290
     0
176
     1
 90
       50
176
     1
 40
0.0
176
     1
 40
1.0
176
     1
 90
        0
176
     1
 62
    18
420
        0
176
     1
 90
       50
176
     1
 90
        3
176
     1
 62
     5
420
      255
176
     1
290
     0
176
     1
 90
       50
176
     1
 90
       50
176
     1
 90
       50
176
     1
290
     0
176
     1
 90
       50
176
     1
 62
   256
176
     0
 40
1.0
176
     0
 90
        2
176
     1
  1
strokes_ogs.tif
176
     1
290
     0
176
     1
 40
1.0
176
     1
 40
1.0
176
     1
  0
VISUALSTYLE
  5
3E
102
{ACAD_REACTORS
330
29
102
}
330
29
100
AcDbVisualStyle
  2
Shaded
 70
    27
177
     3
291
     0
 70
    58
 90
        2
176
     1
 90
        2
176
     1
 90
        1
176
     1
 90
        2
176
     1
 40
-0.6
176
     1
 40
30.0
176
     1
 62
     7
420
 16777215
176
     1
 90
        0
176
     1
 90
        4
176
     1
 62
     7
176
     1
 62
   257
176
     1
 90
        1
176
     1
 90
        1
176
     1
 40
1.0
176
     1
 90
        8
176
     1
 62
   257
176
     1
 40
1.0
176
     1
 90
        1
176
     1
 90
        6
176
     1
 90
        2
176
     1
 62
     8
420
  7895160
176
     1
 90
        3
176
     1
 90
        0
176
     1
 90
        0
176
     1
290
     0
176
     1
 90
        5
176
     1
 40
0.0
176
     1
 90
        0
176
     1
290
     0
176
     1
290
     1
176
     1
290
     1
176
     1
290
     0
176
     1
290
     0
176
     1
290
     0
176
     1
290
     0
176
     1
290
     0
176
     1
290
     0
176
     1
 90
       50
176
     1
 40
0.0
176
     1
 40
1.0
176
     1
 90
        0
176
     1
 62
    18
420
        0
176
     1
 90
       50
176
     1
 90
        3
176
     1
 62
     5
420
      255
176
     1
290
     0
176
     1
 90
       50
176
     1
 90
       50
176
     1
 90
       50
176
     1
290
     0
176
     1
 90
       50
176
     1
 62
   256
176
     0
 40
1.0
176
     0
 90
        2
176
     1
  1
strokes_ogs.tif
176
     1
290
     0
176
     1
 40
1.0
176
     1
 40
1.0
176
     1
  0
VISUALSTYLE
  5
3D
102
{ACAD_REACTORS
330
29
102
}
330
29
100
AcDbVisualStyle
  2
Shaded with edges
 70
    26
177
     3
291
     0
 70
    58
 90
        2
176
     1
 90
        2
176
     1
 90
        1
176
     1
 90
        2
176
     1
 40
-0.6
176
     1
 40
30.0
176
     1
 62
     7
420
 16777215
176
     1
 90
        1
176
     1
 90
       10
176
     1
 62
     7
176
     1
 62
   257
176
     1
 90
        2
176
     1
 90
        1
176
     1
 40
1.0
176
     1
 90
        8
176
     1
 62
   257
176
     1
 40
1.0
176
     1
 90
        1
176
     1
 90
        6
176
     1
 90
        2
176
     1
 62
     7
176
     1
 90
        3
176
     1
 90
        0
176
     1
 90
        0
176
     1
290
     0
176
     1
 90
        5
176
     1
 40
0.0
176
     1
 90
        0
176
     1
290
     0
176
     1
290
     1
176
     1
290
     1
176
     1
290
     0
176
     1
290
     0
176
     1
290
     0
176
     1
290
     0
176
     1
290
     0
176
     1
290
     0
176
     1
 90
       50
176
     1
 40
0.0
176
     1
 40
1.0
176
     1
 90
        0
176
     1
 62
    18
420
        0
176
     1
 90
       50
176
     1
 90
        3
176
     1
 62
     5
420
      255
176
     1
290
     0
176
     1
 90
       50
176
     1
 90
       50
176
     1
 90
       50
176
     1
290
     0
176
     1
 90
       50
176
     1
 62
   256
176
     0
 40
1.0
176
     0
 90
        2
176
     1
  1
strokes_ogs.tif
176
     1
290
     0
176
     1
 40
1.0
176
     1
 40
1.0
176
     1
  0
VISUALSTYLE
  5
3A
102
{ACAD_REACTORS
330
29
102
}
330
29
100
AcDbVisualStyle
  2
Shades of Gray
 70
    23
177
     3
291
     0
 70
    58
 90
        2
176
     1
 90
        2
176
     1
 90
        3
176
     1
 90
        0
176
     1
 40
-0.6
176
     1
 40
-30.0
176
     1
 62
     7
420
 16777215
176
     1
 90
        2
176
     1
 90
        2
176
     1
 62
     7
176
     1
 62
     7
176
     1
 90
        1
176
     1
 90
        1
176
     1
 40
40.0
176
     1
 90
        8
176
     1
 62
     7
176
     1
 40
1.0
176
     1
 90
        1
176
     1
 90
        6
176
     1
 90
        2
176
     1
 62
     7
176
     1
 90
        3
176
     1
 90
        0
176
     1
 90
        0
176
     1
290
     0
176
     1
 90
        1
176
     1
 40
0.0
176
     1
 90
        0
176
     1
290
     0
176
     1
290
     1
176
     1
290
     1
176
     1
290
     0
176
     1
290
     0
176
     1
290
     0
176
     1
290
     0
176
     1
290
     0
176
     1
290
     0
176
     1
 90
       50
176
     1
 40
0.0
176
     1
 40
1.0
176
     1
 90
        0
176
     1
 62
    18
420
        0
176
     1
 90
       50
176
     1
 90
        3
176
     1
 62
     5
420
      255
176
     1
290
     0
176
     1
 90
       50
176
     1
 90
       50
176
     1
 90
       50
176
     1
290
     0
176
     1
 90
       50
176
     1
 62
   256
176
     0
 40
1.0
176
     0
 90
        2
176
     1
  1
strokes_ogs.tif
176
     1
290
     0
176
     1
 40
1.0
176
     1
 40
1.0
176
     1
  0
VISUALSTYLE
  5
3B
102
{ACAD_REACTORS
330
29
102
}
330
29
100
AcDbVisualStyle
  2
Sketchy
 70
    24
177
     3
291
     0
 70
    58
 90
        1
176
     1
 90
        2
176
     1
 90
        2
176
     1
 90
        0
176
     1
 40
-0.6
176
     1
 40
-30.0
176
     1
 62
     7
420
 16777215
176
     1
 90
        2
176
     1
 90
        2
176
     1
 62
     7
176
     1
 62
     7
176
     1
 90
        1
176
     1
 90
        1
176
     1
 40
40.0
176
     1
 90
       11
176
     1
 62
     7
176
     1
 40
1.0
176
     1
 90
        1
176
     1
 90
        6
176
     1
 90
        2
176
     1
 62
     7
176
     1
 90
        6
176
     1
 90
        0
176
     1
 90
        0
176
     1
290
     0
176
     1
 90
        1
176
     1
 40
0.0
176
     1
 90
        0
176
     1
290
     0
176
     1
290
     1
176
     1
290
     1
176
     1
290
     0
176
     1
290
     0
176
     1
290
     0
176
     1
290
     0
176
     1
290
     0
176
     1
290
     0
176
     1
 90
       50
176
     1
 40
0.0
176
     1
 40
1.0
176
     1
 90
        0
176
     1
 62
    18
420
        0
176
     1
 90
       50
176
     1
 90
        3
176
     1
 62
     5
420
      255
176
     1
290
     0
176
     1
 90
       50
176
     1
 90
       50
176
     1
 90
       50
176
     1
290
     0
176
     1
 90
       50
176
     1
 62
   256
176
     0
 40
1.0
176
     0
 90
        2
176
     1
  1
strokes_ogs.tif
176
     1
290
     0
176
     1
 40
1.0
176
     1
 40
1.0
176
     1
  0
VISUALSTYLE
  5
36
102
{ACAD_REACTORS
330
29
102
}
330
29
100
AcDbVisualStyle
  2
Thicken
 70
    13
177
     3
291
     1
 70
    58
 90
        2
176
     1
 90
        2
176
     1
 90
        0
176
     1
 90
        0
176
     1
 40
-0.6
176
     1
 40
-30.0
176
     1
 62
     7
420
 16777215
176
     1
 90
        1
176
     1
 90
        4
176
     1
 62
     7
176
     1
 62
   257
176
     1
 90
        1
176
     1
 90
        1
176
     1
 40
1.0
176
     1
 90
       12
176
     1
 62
     7
176
     1
 40
1.0
176
     1
 90
        1
176
     1
 90
        6
176
     1
 90
        2
176
     1
 62
     7
176
     1
 90
        5
176
     1
 90
        0
176
     1
 90
        0
176
     1
290
     0
176
     1
 90
        1
176
     1
 40
0.0
176
     1
 90
        0
176
     1
290
     0
176
     1
290
     1
176
     1
290
     1
176
     1
290
     0
176
     1
290
     0
176
     1
290
     0
176
     1
290
     0
176
     1
290
     0
176
     1
290
     0
176
     1
 90
       50
176
     1
 40
0.0
176
     1
 40
1.0
176
     1
 90
        0
176
     1
 62
    18
420
        0
176
     1
 90
       50
176
     1
 90
        3
176
     1
 62
     5
420
      255
176
     1
290
     0
176
     1
 90
       50
176
     1
 90
       50
176
     1
 90
       50
176
     1
290
     0
176
     1
 90
       50
176
     1
 62
   256
176
     0
 40
1.0
176
     0
 90
        2
176
     1
  1
strokes_ogs.tif
176
     1
290
     0
176
     1
 40
1.0
176
     1
 40
1.0
176
     1
  0
VISUALSTYLE
  5
30
102
{ACAD_REACTORS
330
29
102
}
330
29
100
AcDbVisualStyle
  2
Wireframe
 70
     5
177
     3
291
     0
 70
    58
 90
        0
176
     1
 90
        2
176
     1
 90
        0
176
     1
 90
        0
176
     1
 40
-0.6
176
     1
 40
-30.0
176
     1
 62
     7
420
 16777215
176
     1
 90
        1
176
     1
 90
        4
176
     1
 62
     7
176
     1
 62
   257
176
     1
 90
        1
176
     1
 90
        1
176
     1
 40
1.0
176
     1
 90
        0
176
     1
 62
   257
176
     1
 40
1.0
176
     1
 90
        1
176
     1
 90
        6
176
     1
 90
        2
176
     1
 62
     7
176
     1
 90
        3
176
     1
 90
        0
176
     1
 90
        0
176
     1
290
     0
176
     1
 90
        1
176
     1
 40
0.0
176
     1
 90
        0
176
     1
290
     0
176
     1
290
     1
176
     1
290
     1
176
     1
290
     0
176
     1
290
     0
176
     1
290
     0
176
     1
290
     0
176
     1
290
     0
176
     1
290
     0
176
     1
 90
       50
176
     1
 40
0.0
176
     1
 40
1.0
176
     1
 90
        0
176
     1
 62
    18
420
        0
176
     1
 90
       50
176
     1
 90
        3
176
     1
 62
     5
420
      255
176
     1
290
     0
176
     1
 90
       50
176
     1
 90
       50
176
     1
 90
       50
176
     1
290
     0
176
     1
 90
       50
176
     1
 62
   256
176
     0
 40
1.0
176
     0
 90
        2
176
     1
  1
strokes_ogs.tif
176
     1
290
     0
176
     1
 40
1.0
176
     1
 40
1.0
176
     1
  0
VISUALSTYLE
  5
3C
102
{ACAD_REACTORS
330
29
102
}
330
29
100
AcDbVisualStyle
  2
X-Ray
 70
    25
177
     3
291
     0
 70
    58
 90
        2
176
     1
 90
        2
176
     1
 90
        1
176
     1
 90
        1
176
     1
 40
0.5
176
     1
 40
-30.0
176
     1
 62
     7
420
 16777215
176
     1
 90
        1
176
     1
 90
        0
176
     1
 62
     7
176
     1
 62
   257
176
     1
 90
        1
176
     1
 90
        1
176
     1
 40
1.0
176
     1
 90
        8
176
     1
 62
     7
176
     1
 40
1.0
176
     1
 90
        1
176
     1
 90
        6
176
     1
 90
        2
176
     1
 62
     7
176
     1
 90
        3
176
     1
 90
        0
176
     1
 90
        0
176
     1
290
     0
176
     1
 90
       13
176
     1
 40
0.0
176
     1
 90
        0
176
     1
290
     0
176
     1
290
     1
176
     1
290
     1
176
     1
290
     0
176
     1
290
     0
176
     1
290
     0
176
     1
290
     0
176
     1
290
     0
176
     1
290
     0
176
     1
 90
       50
176
     1
 40
0.0
176
     1
 40
1.0
176
     1
 90
        0
176
     1
 62
    18
420
        0
176
     1
 90
       50
176
     1
 90
        3
176
     1
 62
     5
420
      255
176
     1
290
     0
176
     1
 90
       50
176
     1
 90
       50
176
     1
 90
       50
176
     1
290
     0
176
     1
 90
       50
176
     1
 62
   256
176
     0
 40
1.0
176
     0
 90
        2
176
     1
  1
strokes_ogs.tif
176
     1
290
     0
176
     1
 40
1.0
176
     1
 40
1.0
176
     1
  0
DICTIONARYVAR
  5
305
102
{ACAD_REACTORS
330
300
102
}
330
300
100
DictionaryVariables
280
     0
  1
1:1
  0
DICTIONARYVAR
  5
302
102
{ACAD_REACTORS
330
300
102
}
330
300
100
DictionaryVariables
280
     0
  1
Standard
  0
DICTIONARYVAR
  5
301
102
{ACAD_REACTORS
330
300
102
}
330
300
100
DictionaryVariables
280
     0
  1
Standard
  0
DICTIONARYVAR
  5
303
102
{ACAD_REACTORS
330
300
102
}
330
300
100
DictionaryVariables
280
     0
  1
Imperial24
  0
DICTIONARYVAR
  5
304
102
{ACAD_REACTORS
330
300
102
}
330
300
100
DictionaryVariables
280
     0
  1
Imperial24
  0
DICTIONARYVAR
  5
3E6
102
{ACAD_REACTORS
330
300
102
}
330
300
100
DictionaryVariables
280
     0
  1
0
  0
DICTIONARYVAR
  5
306
102
{ACAD_REACTORS
330
300
102
}
330
300
100
DictionaryVariables
280
     0
  1
2
  0
AMDTSYSATTR
  5
3DE
102
{ACAD_REACTORS
330
3DD
102
}
330
3DD
  0
AMDTSYSATTR
  5
3DF
102
{ACAD_REACTORS
330
3DD
102
}
330
3DD
  0
DICTIONARY
  5
3E8
330
6B
100
AcDbDictionary
280
     1
281
     1
  3
ACAD_XREC_ROUNDTRIP
360
3EF
  0
DICTIONARY
  5
3EB
330
69
100
AcDbDictionary
280
     1
281
     1
  3
ACAD_XREC_ROUNDTRIP
360
3F0
  0
DICTIONARY
  5
3F1
330
64
100
AcDbDictionary
280
     1
281
     1
  3
ACAD_ROUNDTRIP_2008_TABLESTYLE_CELLSTYLEMAP
360
3F2
  0
XRECORD
  5
3EF
102
{ACAD_REACTORS
330
3E8
102
}
330
3E8
100
AcDbXrecord
280
     1
102
DISPLAYNAME
  1
Imperial24
102
FLAGS
 90
        0
  0
XRECORD
  5
3F0
102
{ACAD_REACTORS
330
3EB
102
}
330
3EB
100
AcDbXrecord
280
     1
102
DISPLAYNAME
  1
Imperial24
102
FLAGS
 90
        0
  0
CELLSTYLEMAP
  5
3F2
102
{ACAD_REACTORS
330
3F1
102
}
330
3F1
100
AcDbCellStyleMap
 90
        3
300
CELLSTYLE
  1
TABLEFORMAT_BEGIN
 90
        5
170
     1
 91
        0
 92
    32768
 62
   257
 93
        1
300
CONTENTFORMAT
  1
CONTENTFORMAT_BEGIN
 90
        0
 91
        0
 92
      512
 93
        0
300

 40
0.0
140
1.0
 94
        5
 62
     0
340
55
144
0.25
309
CONTENTFORMAT_END
171
     0
 94
        0
309
TABLEFORMAT_END
  1
CELLSTYLE_BEGIN
 90
        1
 91
        1
300
_TITLE
309
CELLSTYLE_END
300
CELLSTYLE
  1
TABLEFORMAT_BEGIN
 90
        5
170
     1
 91
        0
 92
        0
 62
   257
 93
        1
300
CONTENTFORMAT
  1
CONTENTFORMAT_BEGIN
 90
        0
 91
        0
 92
      512
 93
        0
300

 40
0.0
140
1.0
 94
        5
 62
     0
340
55
144
0.18
309
CONTENTFORMAT_END
171
     0
 94
        0
309
TABLEFORMAT_END
  1
CELLSTYLE_BEGIN
 90
        2
 91
        1
300
_HEADER
309
CELLSTYLE_END
300
CELLSTYLE
  1
TABLEFORMAT_BEGIN
 90
        5
170
     1
 91
        0
 92
        0
 62
   257
 93
        1
300
CONTENTFORMAT
  1
CONTENTFORMAT_BEGIN
 90
        0
 91
        0
 92
      512
 93
        0
300

 40
0.0
140
1.0
 94
        2
 62
     0
340
55
144
0.18
309
CONTENTFORMAT_END
171
     0
 94
        0
309
TABLEFORMAT_END
  1
CELLSTYLE_BEGIN
 90
        3
 91
        2
300
_DATA
309
CELLSTYLE_END
  0
ENDSEC
  0
EOF
