  0
SECTION
  2
HEADER
  9
$EXTMAX
 10
879.40851
 20
670.95871
 30
0
  9
$EXTMIN
 10
459.40851
 20
373.95871
 30
0
  9
$LIMMAX
 10
879.40851
 20
670.95871
  9
$LIMMIN
 10
459.40851
 20
373.95871
  9
$PLIMMAX
 10
879.40851
 20
670.95871
  9
$PLIMMIN
 10
459.40851
 20
373.95871
  9
$TEXTSIZE
 40
3.2
  9
$DIMSHO
 70
     0
  9
$DIMASZ
 40
1.0
  9
$DIMTAD
 70
     1
  9
$DIMTIH
 70
     0
  9
$DIMTOH
 70
     0
  9
$DIMEXE
 40
2.54
  9
$DIMEXO
 40
2.54
  9
$DIMTVP
 40
1.0
  9
$DIMSAH
 70
     1
  9
$DIMDLE
 40
0.0
  9
$DIMTXT
 40
3.2
  9
$DIMGAP
 40
1.6
  0
ENDSEC
  0
SECTION
  2
TABLES
  0
TABLE
  2
LTYPE
 70
     6
  0
LTYPE
  2
CONTINUOUS
 70
    64
  3
Solid line
 72
    65
 73
     0
 40
0.0
  0
LTYPE
  2
DASHED
 70
    64
  3
__ __ __ __ __ __ __ __ __ __ __ __ __ __ __
 72
    65
 73
     2
 40
3.5
 49
2.0
 49
-1.5
  0
LTYPE
  2
CENTER
 70
    64
  3
____ _ ____ _ ____ _ ____ _ ____ _ ____ _ ____
 72
    65
 73
     4
 40
17.5
 49
13.0
 49
-1.5
 49
1.5
 49
-1.5
  0
LTYPE
  2
PHANTOM
 70
    64
  3
_____ _ _ _____ _ _ _____ _ _ _____ _ _ ____  
 72
    65
 73
     6
 40
15.5
 49
8.0
 49
-1.5
 49
1.5
 49
-1.5
 49
1.5
 49
-1.5
  0
LTYPE
  2
DOT
 70
    64
  3
. . . . . . . . . . . . . . . . . . . . . . . .
 72
    65
 73
     2
 40
0.25
 49
0.0
 49
-0.25
  0
LTYPE
  2
HIDDEN
 70
    64
  3
__ __ __ __ __ __ __ __ __ __ __ __ __ __ __
 72
    65
 73
     2
 40
3.5
 49
2.0
 49
-1.5
  0
ENDTAB
  0
TABLE
  2
LAYER
 70
     1
  0
LAYER
  2
0
 70
     0
 62
     7
  6
CONTINUOUS
  0
ENDTAB
  0
TABLE
  2
STYLE
 70
     1
  0
STYLE
  2
STANDARD
 70
     0
 40
0.0
 41
1.0
 50
0.0
 71
     0
 42
0.2
  3
txt
  4
BIGFONT
  0
ENDTAB
  0
TABLE
  2
DIMSTYLE
 70
     0
  0
ENDTAB
  0
ENDSEC
  0
SECTION
  2
BLOCKS
  0
BLOCK
  8
0
  2
KOZU0001
 70
    64
 10
0
 20
0
  0
POLYLINE
  8
0
  6
CONTINUOUS
 62
     7
 66
     1
 10
0
 20
0
 70
     1
 40
0.40000001
 41
0.40000001
  0
VERTEX
  8
0
  6
CONTINUOUS
 62
     7
 10
-0.2
 20
0
 42
1
  0
VERTEX
  8
0
  6
CONTINUOUS
 62
     7
 10
0.2
 20
0
 42
1
  0
SEQEND
  8
0
  6
CONTINUOUS
 62
     7
  0
ENDBLK
  8
0
  0
BLOCK
  8
0
  2
KOZU0002
 70
    64
 10
0
 20
0
  0
POLYLINE
  8
0
  6
CONTINUOUS
 62
     7
 66
     1
 10
0
 20
0
 70
     1
 40
0.40000001
 41
0.40000001
  0
VERTEX
  8
0
  6
CONTINUOUS
 62
     7
 10
-0.2
 20
0
 42
1
  0
VERTEX
  8
0
  6
CONTINUOUS
 62
     7
 10
0.2
 20
0
 42
1
  0
SEQEND
  8
0
  6
CONTINUOUS
 62
     7
  0
ENDBLK
  8
0
  0
BLOCK
  8
0
  2
KOZU0003
 70
    64
 10
0
 20
0
  0
POLYLINE
  8
0
  6
CONTINUOUS
 62
     7
 66
     1
 10
0
 20
0
 70
     1
 40
0.40000001
 41
0.40000001
  0
VERTEX
  8
0
  6
CONTINUOUS
 62
     7
 10
-0.2
 20
0
 42
1
  0
VERTEX
  8
0
  6
CONTINUOUS
 62
     7
 10
0.2
 20
0
 42
1
  0
SEQEND
  8
0
  6
CONTINUOUS
 62
     7
  0
ENDBLK
  8
0
  0
BLOCK
  8
0
  2
KOZU0004
 70
    64
 10
0
 20
0
  0
POLYLINE
  8
0
  6
CONTINUOUS
 62
     7
 66
     1
 10
0
 20
0
 70
     1
 40
0.40000001
 41
0.40000001
  0
VERTEX
  8
0
  6
CONTINUOUS
 62
     7
 10
-0.2
 20
0
 42
1
  0
VERTEX
  8
0
  6
CONTINUOUS
 62
     7
 10
0.2
 20
0
 42
1
  0
SEQEND
  8
0
  6
CONTINUOUS
 62
     7
  0
ENDBLK
  8
0
  0
BLOCK
  8
0
  2
KOZU0005
 70
    64
 10
0
 20
0
  0
POLYLINE
  8
0
  6
CONTINUOUS
 62
     7
 66
     1
 10
0
 20
0
 70
     1
 40
0.40000001
 41
0.40000001
  0
VERTEX
  8
0
  6
CONTINUOUS
 62
     7
 10
-0.2
 20
0
 42
1
  0
VERTEX
  8
0
  6
CONTINUOUS
 62
     7
 10
0.2
 20
0
 42
1
  0
SEQEND
  8
0
  6
CONTINUOUS
 62
     7
  0
ENDBLK
  8
0
  0
BLOCK
  8
0
  2
KOZU0006
 70
    64
 10
0
 20
0
  0
POLYLINE
  8
0
  6
CONTINUOUS
 62
     7
 66
     1
 10
0
 20
0
 70
     1
 40
0.40000001
 41
0.40000001
  0
VERTEX
  8
0
  6
CONTINUOUS
 62
     7
 10
-0.2
 20
0
 42
1
  0
VERTEX
  8
0
  6
CONTINUOUS
 62
     7
 10
0.2
 20
0
 42
1
  0
SEQEND
  8
0
  6
CONTINUOUS
 62
     7
  0
ENDBLK
  8
0
  0
BLOCK
  8
0
  2
KOZU0007
 70
    64
 10
0
 20
0
  0
POLYLINE
  8
0
  6
CONTINUOUS
 62
     7
 66
     1
 10
0
 20
0
 70
     1
 40
0.40000001
 41
0.40000001
  0
VERTEX
  8
0
  6
CONTINUOUS
 62
     7
 10
-0.2
 20
0
 42
1
  0
VERTEX
  8
0
  6
CONTINUOUS
 62
     7
 10
0.2
 20
0
 42
1
  0
SEQEND
  8
0
  6
CONTINUOUS
 62
     7
  0
ENDBLK
  8
0
  0
BLOCK
  8
0
  2
KOZU0008
 70
    64
 10
0
 20
0
  0
POLYLINE
  8
0
  6
CONTINUOUS
 62
     7
 66
     1
 10
0
 20
0
 70
     1
 40
0.40000001
 41
0.40000001
  0
VERTEX
  8
0
  6
CONTINUOUS
 62
     7
 10
-0.2
 20
0
 42
1
  0
VERTEX
  8
0
  6
CONTINUOUS
 62
     7
 10
0.2
 20
0
 42
1
  0
SEQEND
  8
0
  6
CONTINUOUS
 62
     7
  0
ENDBLK
  8
0
  0
BLOCK
  8
0
  2
KOZU0009
 70
    64
 10
0
 20
0
  0
POLYLINE
  8
0
  6
CONTINUOUS
 62
     7
 66
     1
 10
0
 20
0
 70
     1
 40
0.40000001
 41
0.40000001
  0
VERTEX
  8
0
  6
CONTINUOUS
 62
     7
 10
-0.2
 20
0
 42
1
  0
VERTEX
  8
0
  6
CONTINUOUS
 62
     7
 10
0.2
 20
0
 42
1
  0
SEQEND
  8
0
  6
CONTINUOUS
 62
     7
  0
ENDBLK
  8
0
  0
BLOCK
  8
0
  2
KOZU0010
 70
    64
 10
0
 20
0
  0
POLYLINE
  8
0
  6
CONTINUOUS
 62
     7
 66
     1
 10
0
 20
0
 70
     1
 40
0.40000001
 41
0.40000001
  0
VERTEX
  8
0
  6
CONTINUOUS
 62
     7
 10
-0.2
 20
0
 42
1
  0
VERTEX
  8
0
  6
CONTINUOUS
 62
     7
 10
0.2
 20
0
 42
1
  0
SEQEND
  8
0
  6
CONTINUOUS
 62
     7
  0
ENDBLK
  8
0
  0
ENDSEC
  0
SECTION
  2
ENTITIES
  0
POINT
  8
0
  6
CONTINUOUS
 62
     3
 10
672.88538
 20
528.90662
  0
POINT
  8
0
  6
CONTINUOUS
 62
     3
 10
672.88538
 20
513.90662
  0
POINT
  8
0
  6
CONTINUOUS
 62
     3
 10
697.88538
 20
513.90662
  0
POINT
  8
0
  6
CONTINUOUS
 62
     3
 10
672.88538
 20
527.40662
  0
POINT
  8
0
  6
CONTINUOUS
 62
     3
 10
672.88538
 20
515.40662
  0
POINT
  8
0
  6
CONTINUOUS
 62
     3
 10
687.88538
 20
515.40662
  0
POINT
  8
0
  6
CONTINUOUS
 62
     7
 10
0
 20
0
  0
POINT
  8
0
  6
CONTINUOUS
 62
     3
 10
760.36688
 20
516.98828
  0
POINT
  8
0
  6
CONTINUOUS
 62
     3
 10
751.95538
 20
525.82495
  0
POINT
  8
0
  6
CONTINUOUS
 62
     3
 10
670.88538
 20
483.90662
  0
POINT
  8
0
  6
CONTINUOUS
 62
     3
 10
672.88538
 20
513.90662
  0
POINT
  8
0
  6
CONTINUOUS
 62
     3
 10
672.88538
 20
473.90662
  0
POINT
  8
0
  6
CONTINUOUS
 62
     3
 10
642.88538
 20
513.90662
  0
POINT
  8
0
  6
CONTINUOUS
 62
     3
 10
640.88538
 20
516.40662
  0
POINT
  8
0
  6
CONTINUOUS
 62
     3
 10
640.88538
 20
473.90662
  0
POINT
  8
0
  6
CONTINUOUS
 62
     3
 10
642.88538
 20
513.90662
  0
POINT
  8
0
  6
CONTINUOUS
 62
     3
 10
670.88538
 20
483.90662
  0
POINT
  8
0
  6
CONTINUOUS
 62
     3
 10
670.88538
 20
473.90662
  0
POINT
  8
0
  6
CONTINUOUS
 62
     7
 10
0
 20
0
  0
LINE
  8
0
  6
CENTER
 62
     4
 10
637.88538
 20
521.40662
 11
675.88538
 21
521.40662
  0
LINE
  8
0
  6
CONTINUOUS
 62
     7
 10
642.88538
 20
527.40662
 11
670.88538
 21
527.40662
  0
LINE
  8
0
  6
CONTINUOUS
 62
     7
 10
670.88538
 20
515.40662
 11
642.88538
 21
515.40662
  0
LINE
  8
0
  6
CONTINUOUS
 62
     7
 10
645.48535
 20
515.40662
 11
645.48535
 21
527.40662
  0
LINE
  8
0
  6
CONTINUOUS
 62
     7
 10
640.88538
 20
526.40662
 11
640.88538
 21
516.40662
  0
LINE
  8
0
  6
CONTINUOUS
 62
     7
 10
640.88531
 20
516.40662
 11
642.28534
 21
513.90662
  0
LINE
  8
0
  6
CONTINUOUS
 62
     7
 10
640.88538
 20
526.40662
 11
642.28534
 21
528.90662
  0
LINE
  8
0
  6
CONTINUOUS
 62
     3
 10
673.88538
 20
528.90662
 11
698.88538
 21
528.90662
  0
LINE
  8
0
  6
CONTINUOUS
 62
     3
 10
673.88538
 20
513.90662
 11
698.88538
 21
513.90662
  0
LINE
  8
0
  6
CONTINUOUS
 62
     3
 10
697.88538
 20
528.10663
 11
697.88538
 21
514.7066
  0
LINE
  8
0
  6
CONTINUOUS
 62
     7
 10
697.88538
 20
528.50659
 11
697.88538
 21
528.10663
  0
LINE
  8
0
  6
CONTINUOUS
 62
     7
 10
697.88538
 20
514.30658
 11
697.88538
 21
514.7066
  0
LINE
  8
0
  6
CONTINUOUS
 62
     3
 10
673.88538
 20
527.40662
 11
688.88538
 21
527.40662
  0
LINE
  8
0
  6
CONTINUOUS
 62
     3
 10
673.88538
 20
515.40662
 11
688.88538
 21
515.40662
  0
LINE
  8
0
  6
CONTINUOUS
 62
     3
 10
687.88538
 20
526.60663
 11
687.88538
 21
516.2066
  0
LINE
  8
0
  6
CONTINUOUS
 62
     7
 10
687.88538
 20
527.00659
 11
687.88538
 21
526.60663
  0
LINE
  8
0
  6
CONTINUOUS
 62
     7
 10
687.88538
 20
515.80658
 11
687.88538
 21
516.2066
  0
LINE
  8
0
  6
CONTINUOUS
 62
     7
 10
459.40854
 20
373.95871
 11
879.40851
 21
373.95871
  0
LINE
  8
0
  6
CONTINUOUS
 62
     7
 10
459.40854
 20
670.95874
 11
459.40854
 21
373.95871
  0
LINE
  8
0
  6
CONTINUOUS
 62
     7
 10
859.90851
 20
385.95871
 11
859.90851
 21
658.95874
  0
LINE
  8
0
  6
CONTINUOUS
 62
     7
 10
478.90854
 20
562.95874
 11
478.90854
 21
386.70871
  0
LINE
  8
0
  6
CONTINUOUS
 62
     7
 10
859.90851
 20
658.95874
 11
588.90851
 21
658.95874
  0
LINE
  8
0
  6
CONTINUOUS
 62
     7
 10
478.90854
 20
385.95871
 11
859.90851
 21
385.95871
  0
LINE
  8
0
  6
CONTINUOUS
 62
     7
 10
879.40851
 20
670.95874
 11
879.40851
 21
373.95871
  0
LINE
  8
0
  6
CONTINUOUS
 62
     7
 10
459.40854
 20
670.95874
 11
879.40851
 21
670.95874
  0
LINE
  8
0
  6
CONTINUOUS
 62
     7
 10
478.90854
 20
658.95874
 11
588.90851
 21
658.95874
  0
LINE
  8
0
  6
CONTINUOUS
 62
     7
 10
478.90854
 20
658.95874
 11
478.90854
 21
562.95874
  0
LINE
  8
0
  6
CONTINUOUS
 62
     7
 10
498.90854
 20
658.95874
 11
498.90854
 21
562.95874
  0
LINE
  8
0
  6
CONTINUOUS
 62
     7
 10
478.90854
 20
650.95874
 11
588.90851
 21
650.95874
  0
LINE
  8
0
  6
CONTINUOUS
 62
     7
 10
478.90854
 20
642.95874
 11
588.90851
 21
642.95874
  0
LINE
  8
0
  6
CONTINUOUS
 62
     7
 10
478.90854
 20
634.95874
 11
588.90851
 21
634.95874
  0
LINE
  8
0
  6
CONTINUOUS
 62
     7
 10
478.90854
 20
626.95874
 11
588.90851
 21
626.95874
  0
LINE
  8
0
  6
CONTINUOUS
 62
     7
 10
498.90854
 20
602.95874
 11
588.90851
 21
602.95874
  0
LINE
  8
0
  6
CONTINUOUS
 62
     7
 10
498.90854
 20
594.95874
 11
588.90851
 21
594.95874
  0
LINE
  8
0
  6
CONTINUOUS
 62
     7
 10
478.90854
 20
586.95874
 11
588.90851
 21
586.95874
  0
LINE
  8
0
  6
CONTINUOUS
 62
     7
 10
498.90854
 20
578.95874
 11
588.90851
 21
578.95874
  0
LINE
  8
0
  6
CONTINUOUS
 62
     7
 10
498.90854
 20
570.95874
 11
588.90851
 21
570.95874
  0
LINE
  8
0
  6
CONTINUOUS
 62
     7
 10
478.90854
 20
562.95874
 11
588.90851
 21
562.95874
  0
LINE
  8
0
  6
CONTINUOUS
 62
     7
 10
478.90854
 20
658.95874
 11
478.90854
 21
562.95874
  0
LINE
  8
0
  6
CONTINUOUS
 62
     7
 10
478.90854
 20
658.95874
 11
588.90851
 21
658.95874
  0
LINE
  8
0
  6
CONTINUOUS
 62
     7
 10
588.90851
 20
658.95874
 11
588.90851
 21
562.95874
  0
LINE
  8
0
  6
CONTINUOUS
 62
     7
 10
478.90854
 20
618.95874
 11
588.90851
 21
618.95874
  0
LINE
  8
0
  6
CONTINUOUS
 62
     7
 10
478.90854
 20
610.95874
 11
588.90851
 21
610.95874
  0
LINE
  8
0
  6
CONTINUOUS
 62
     7
 10
498.90854
 20
602.95874
 11
588.90851
 21
602.95874
  0
LINE
  8
0
  6
PHANTOM
 62
     3
 10
670.88538
 20
558.90662
 11
670.88538
 21
528.90662
  0
LINE
  8
0
  6
PHANTOM
 62
     3
 10
668.88538
 20
527.50659
 11
668.88538
 21
558.90662
  0
LINE
  8
0
  6
PHANTOM
 62
     3
 10
670.88538
 20
513.90662
 11
670.88538
 21
483.90662
  0
LINE
  8
0
  6
PHANTOM
 62
     3
 10
668.88538
 20
515.30658
 11
668.88538
 21
483.90662
  0
LINE
  8
0
  6
PHANTOM
 62
     3
 10
644.88538
 20
527.50659
 11
644.88538
 21
558.90662
  0
LINE
  8
0
  6
PHANTOM
 62
     3
 10
642.88538
 20
528.90662
 11
642.88538
 21
558.90662
  0
LINE
  8
0
  6
PHANTOM
 62
     3
 10
644.88538
 20
515.30658
 11
644.88538
 21
483.90662
  0
LINE
  8
0
  6
PHANTOM
 62
     3
 10
642.88538
 20
513.90662
 11
642.88538
 21
483.90662
  0
LINE
  8
0
  6
CONTINUOUS
 62
     7
 10
757.93927
 20
515.57153
 11
761.99622
 21
519.62848
  0
LINE
  8
0
  6
CONTINUOUS
 62
     7
 10
754.39893
 20
515.56671
 11
762.00104
 21
523.16882
  0
LINE
  8
0
  6
CONTINUOUS
 62
     7
 10
752.12738
 20
516.83069
 11
760.73706
 21
525.44037
  0
LINE
  8
0
  6
CONTINUOUS
 62
     7
 10
750.61908
 20
518.85797
 11
758.70984
 21
526.94867
  0
LINE
  8
0
  6
CONTINUOUS
 62
     7
 10
750.07739
 20
521.85181
 11
755.71594
 21
527.49036
  0
LINE
  8
0
  6
CONTINUOUS
 62
     3
 10
752.50702
 20
525.24548
 11
759.81531
 21
517.56775
  0
LINE
  8
0
  6
CONTINUOUS
 62
     3
 10
760.36688
 20
516.98828
 11
779.22791
 21
497.17377
  0
LINE
  8
0
  6
CONTINUOUS
 62
     3
 10
779.22791
 20
497.17377
 11
789.88007
 21
497.17377
  0
LINE
  8
0
  6
CONTINUOUS
 62
     7
 10
752.2312
 20
525.53522
 11
752.50702
 21
525.24548
  0
LINE
  8
0
  6
CONTINUOUS
 62
     7
 10
760.09113
 20
517.27802
 11
759.81531
 21
517.56775
  0
LINE
  8
0
  6
CONTINUOUS
 62
     3
 10
670.88538
 20
482.90662
 11
670.88538
 21
472.90662
  0
LINE
  8
0
  6
CONTINUOUS
 62
     3
 10
672.88538
 20
512.90662
 11
672.88538
 21
472.90662
  0
LINE
  8
0
  6
CONTINUOUS
 62
     3
 10
670.08533
 20
473.90662
 11
669.28534
 21
473.90662
  0
LINE
  8
0
  6
CONTINUOUS
 62
     3
 10
673.68536
 20
473.90662
 11
679.03882
 21
473.90662
  0
LINE
  8
0
  6
CONTINUOUS
 62
     3
 10
670.88538
 20
473.90662
 11
672.88538
 21
473.90662
  0
LINE
  8
0
  6
CONTINUOUS
 62
     7
 10
670.88538
 20
473.90662
 11
670.08533
 21
473.90662
  0
LINE
  8
0
  6
CONTINUOUS
 62
     7
 10
673.28534
 20
473.90662
 11
673.68536
 21
473.90662
  0
LINE
  8
0
  6
CONTINUOUS
 62
     3
 10
642.88538
 20
512.90662
 11
642.88538
 21
472.90662
  0
LINE
  8
0
  6
CONTINUOUS
 62
     3
 10
640.88538
 20
515.40662
 11
640.88538
 21
472.90662
  0
LINE
  8
0
  6
CONTINUOUS
 62
     3
 10
643.68536
 20
473.90662
 11
644.48535
 21
473.90662
  0
LINE
  8
0
  6
CONTINUOUS
 62
     3
 10
640.08533
 20
473.90662
 11
634.73193
 21
473.90662
  0
LINE
  8
0
  6
CONTINUOUS
 62
     3
 10
642.88538
 20
473.90662
 11
640.88538
 21
473.90662
  0
LINE
  8
0
  6
CONTINUOUS
 62
     7
 10
642.88538
 20
473.90662
 11
643.68536
 21
473.90662
  0
LINE
  8
0
  6
CONTINUOUS
 62
     7
 10
640.48535
 20
473.90662
 11
640.08533
 21
473.90662
  0
LINE
  8
0
  6
CONTINUOUS
 62
     3
 10
642.88538
 20
512.90662
 11
642.88538
 21
472.90662
  0
LINE
  8
0
  6
CONTINUOUS
 62
     3
 10
670.88538
 20
482.90662
 11
670.88538
 21
472.90662
  0
LINE
  8
0
  6
CONTINUOUS
 62
     3
 10
643.68536
 20
473.90662
 11
670.08533
 21
473.90662
  0
LINE
  8
0
  6
CONTINUOUS
 62
     7
 10
643.28534
 20
473.90662
 11
643.68536
 21
473.90662
  0
LINE
  8
0
  6
CONTINUOUS
 62
     7
 10
670.48535
 20
473.90662
 11
670.08533
 21
473.90662
  0
LINE
  8
0
  6
CENTER
 62
     4
 10
756.16113
 20
521.40662
 11
765.26117
 21
521.40662
  0
LINE
  8
0
  6
CENTER
 62
     4
 10
756.16113
 20
521.40662
 11
756.16113
 21
530.50659
  0
LINE
  8
0
  6
CENTER
 62
     4
 10
756.16113
 20
521.40662
 11
747.06116
 21
521.40662
  0
LINE
  8
0
  6
CENTER
 62
     4
 10
756.16113
 20
521.40662
 11
756.16113
 21
512.30658
  0
CIRCLE
  8
0
  6
CONTINUOUS
 62
     7
 10
756.16113
 20
521.40662
 40
6.0999999
  0
POLYLINE
  8
0
  6
CONTINUOUS
 62
     7
 66
     1
 10
0
 20
0
 70
     1
 40
0.25
 41
0.25
  0
VERTEX
  8
0
  6
CONTINUOUS
 62
     7
 10
670.78538
 20
473.90662
 42
1
  0
VERTEX
  8
0
  6
CONTINUOUS
 62
     7
 10
670.98538
 20
473.90662
 42
1
  0
SEQEND
  8
0
  6
CONTINUOUS
 62
     7
  0
POLYLINE
  8
0
  6
CONTINUOUS
 62
     7
 66
     1
 10
0
 20
0
 70
     1
 40
0.25
 41
0.25
  0
VERTEX
  8
0
  6
CONTINUOUS
 62
     7
 10
642.78538
 20
473.90662
 42
1
  0
VERTEX
  8
0
  6
CONTINUOUS
 62
     7
 10
642.98538
 20
473.90662
 42
1
  0
SEQEND
  8
0
  6
CONTINUOUS
 62
     7
  0
POLYLINE
  8
0
  6
CONTINUOUS
 62
     7
 66
     1
 10
0
 20
0
  0
VERTEX
  8
0
  6
CONTINUOUS
 62
     7
 10
670.88538
 20
513.90662
  0
VERTEX
  8
0
  6
CONTINUOUS
 62
     7
 10
672.88538
 20
513.90662
  0
VERTEX
  8
0
  6
CONTINUOUS
 62
     7
 10
672.88538
 20
528.90662
  0
VERTEX
  8
0
  6
CONTINUOUS
 62
     7
 10
670.88538
 20
528.90662
  0
VERTEX
  8
0
  6
CONTINUOUS
 62
     7
 10
670.88538
 20
513.90662
  0
SEQEND
  8
0
  6
CONTINUOUS
 62
     7
  0
POLYLINE
  8
0
  6
CONTINUOUS
 62
     7
 66
     1
 10
0
 20
0
  0
VERTEX
  8
0
  6
CONTINUOUS
 62
     7
 10
642.28534
 20
513.90662
  0
VERTEX
  8
0
  6
CONTINUOUS
 62
     7
 10
642.88538
 20
513.90662
  0
VERTEX
  8
0
  6
CONTINUOUS
 62
     7
 10
642.88538
 20
528.90662
  0
VERTEX
  8
0
  6
CONTINUOUS
 62
     7
 10
642.28534
 20
528.90662
  0
VERTEX
  8
0
  6
CONTINUOUS
 62
     7
 10
642.28534
 20
513.90662
  0
SEQEND
  8
0
  6
CONTINUOUS
 62
     7
  0
TEXT
  8
0
  6
CONTINUOUS
 62
     3
 10
696.38534
 20
516.83595
 40
3.2
 41
0.90021012
  1
%%C１５
 50
90.000003
  0
TEXT
  8
0
  6
CONTINUOUS
 62
     3
 10
686.38503
 20
516.83595
 40
3.2
 41
0.90021012
  1
%%C１２
 50
90.000003
  0
TEXT
  8
0
  6
CONTINUOUS
 62
     2
 10
459.40853
 20
373.95871
 40
2.5
 41
1.09375
  1
!GENTITLE-LL
  0
TEXT
  8
0
  6
CONTINUOUS
 62
     2
 10
859.90853
 20
658.95874
 40
2.5
 41
1.09375
  1
!GENTITLE-RU
  0
TEXT
  8
0
  6
CONTINUOUS
 62
     2
 10
478.90853
 20
658.95874
 40
2.5
 41
1.0930233
  1
!GENTITLE-INSERT
  0
TEXT
  8
0
  6
CONTINUOUS
 62
     2
 10
879.40851
 20
670.95874
 40
2.5
 41
1.0857143
  1
!GENTITLE-MAX
  0
TEXT
  8
0
  6
CONTINUOUS
 62
     7
 10
485.13702
 20
654.95875
 40
3.2
 41
0.60999997
  1
品　名
  0
TEXT
  8
0
  6
CONTINUOUS
 62
     7
 10
485.13702
 20
646.95875
 40
3.2
 41
0.60999997
  1
品　番
  0
TEXT
  8
0
  6
CONTINUOUS
 62
     7
 10
485.13702
 20
638.95875
 40
3.2
 41
0.60999997
  1
材　質
  0
TEXT
  8
0
  6
CONTINUOUS
 62
     7
 10
485.13702
 20
630.95875
 40
3.2
 41
0.60999997
  1
仕上げ
  0
TEXT
  8
0
  6
CONTINUOUS
 62
     7
 10
481.93704
 20
606.95875
 40
3.2
 41
0.60999999
  1
セットビス
  0
TEXT
  8
0
  6
CONTINUOUS
 62
     7
 10
486.73704
 20
582.95875
 40
3.2
 41
0.61
  1
備考
  0
TEXT
  8
0
  6
CONTINUOUS
 62
     7
 10
485.13702
 20
622.95875
 40
3.2
 41
0.60999997
  1
定　尺
  0
TEXT
  8
0
  6
CONTINUOUS
 62
     7
 10
483.53704
 20
614.95875
 40
3.2
 41
0.60999998
  1
左右勝手
  0
TEXT
  8
0
  6
CONTINUOUS
 62
     7
 10
502.33702
 20
653.35872
 40
3.2
 41
0.74999999
  1
ドア－アイ
  0
TEXT
  8
0
  6
CONTINUOUS
 62
     7
 10
502.33703
 20
645.35872
 40
3.2
 41
0.75
  1
ＤＰ－１０３
  0
TEXT
  8
0
  6
CONTINUOUS
 62
     7
 10
502.33703
 20
637.35872
 40
3.2
 41
0.74999999
  1
真鍮
  0
TEXT
  8
0
  6
CONTINUOUS
 62
     7
 10
502.33703
 20
629.35872
 40
3.2
 41
0.75
  1
光沢クローム
  0
TEXT
  8
0
  6
CONTINUOUS
 62
     7
 10
502.33703
 20
613.35872
 40
3.2
 41
0.74999999
  1
無し
  0
TEXT
  8
0
  6
CONTINUOUS
 62
     7
 10
502.33703
 20
581.35872
 40
3.2
 41
0.71495181
  1
適用ドア－厚：２８～４０ｍｍ
  0
TEXT
  8
0
  6
CONTINUOUS
 62
     7
 10
502.33703
 20
573.35872
 40
3.2
 41
0.67815123
  1
視界／１６０%%D
  0
TEXT
  8
0
  6
CONTINUOUS
 62
     3
 10
777.53335
 20
498.67408
 40
3.2
 41
0.87454984
  1
%%C１２．２
  0
TEXT
  8
0
  6
CONTINUOUS
 62
     7
 10
745.64241
 20
538.94312
 40
3.2
 41
0.99999996
  1
切欠推奨寸法
  0
TEXT
  8
0
  6
CONTINUOUS
 62
     3
 10
675.69542
 20
475.40693
 40
3.2
 41
1
  1
2
  0
TEXT
  8
0
  6
CONTINUOUS
 62
     3
 10
635.94194
 20
475.40693
 40
3.2
 41
1
  1
2
  0
TEXT
  8
0
  6
CONTINUOUS
 62
     3
 10
644.01071
 20
475.42887
 40
3.2
 41
0.88198757
  1
Ｄｔ＝２８～４０
  0
INSERT
  8
0
  6
CONTINUOUS
 62
     7
  2
KOZU0001
 10
697.88538
 20
528.90662
  0
INSERT
  8
0
  6
CONTINUOUS
 62
     7
  2
KOZU0002
 10
697.88538
 20
513.90662
  0
INSERT
  8
0
  6
CONTINUOUS
 62
     7
  2
KOZU0003
 10
687.88538
 20
527.40662
  0
INSERT
  8
0
  6
CONTINUOUS
 62
     7
  2
KOZU0004
 10
687.88538
 20
515.40662
  0
INSERT
  8
0
  6
CONTINUOUS
 62
     7
  2
KOZU0005
 10
751.95538
 20
525.82495
  0
INSERT
  8
0
  6
CONTINUOUS
 62
     7
  2
KOZU0006
 10
760.36688
 20
516.98828
  0
INSERT
  8
0
  6
CONTINUOUS
 62
     7
  2
KOZU0007
 10
672.88538
 20
473.90662
  0
INSERT
  8
0
  6
CONTINUOUS
 62
     7
  2
KOZU0008
 10
640.88538
 20
473.90662
  0
INSERT
  8
0
  6
CONTINUOUS
 62
     7
  2
KOZU0009
 10
642.88538
 20
473.90662
  0
INSERT
  8
0
  6
CONTINUOUS
 62
     7
  2
KOZU0010
 10
670.88538
 20
473.90662
  0
ENDSEC
  0
EOF
