  0
SECTION
  2
HEADER
  9
$ACADVER
  1
AC1021
  9
$ACADMAINTVER
 70
    25
  9
$DWGCODEPAGE
  3
ANSI_932
  9
$LASTSAVEDBY
  1
G1043U
  9
$INSBASE
 10
0.0
 20
0.0
 30
0.0
  9
$EXTMIN
 10
134.62636
 20
191.57544
 30
0.0
  9
$EXTMAX
 10
554.6263399999998
 20
488.57544
 30
0.0
  9
$LIMMIN
 10
134.62634
 20
191.57544
  9
$LIMMAX
 10
554.6263399999998
 20
488.57544
  9
$ORTHOMODE
 70
     0
  9
$REGENMODE
 70
     1
  9
$FILLMODE
 70
     1
  9
$QTEXTMODE
 70
     0
  9
$MIRRTEXT
 70
     0
  9
$LTSCALE
 40
1.0
  9
$ATTMODE
 70
     1
  9
$TEXTSIZE
 40
0.2
  9
$TRACEWID
 40
0.05
  9
$TEXTSTYLE
  7
STANDARD
  9
$CLAYER
  8
0
  9
$CELTYPE
  6
CONTINUOUS
  9
$CECOLOR
 62
   256
  9
$CELTSCALE
 40
1.0
  9
$DISPSILH
 70
     0
  9
$DIMSCALE
 40
1.0
  9
$DIMASZ
 40
1.0
  9
$DIMEXO
 40
2.54
  9
$DIMDLI
 40
0.38
  9
$DIMRND
 40
0.0
  9
$DIMDLE
 40
0.0
  9
$DIMEXE
 40
2.54
  9
$DIMTP
 40
0.0
  9
$DIMTM
 40
0.0
  9
$DIMTXT
 40
3.2
  9
$DIMCEN
 40
0.09
  9
$DIMTSZ
 40
0.0
  9
$DIMTOL
 70
     0
  9
$DIMLIM
 70
     0
  9
$DIMTIH
 70
     0
  9
$DIMTOH
 70
     0
  9
$DIMSE1
 70
     0
  9
$DIMSE2
 70
     0
  9
$DIMTAD
 70
     1
  9
$DIMZIN
 70
     0
  9
$DIMBLK
  1

  9
$DIMASO
 70
     1
  9
$DIMSHO
 70
     0
  9
$DIMPOST
  1

  9
$DIMAPOST
  1

  9
$DIMALT
 70
     0
  9
$DIMALTD
 70
     2
  9
$DIMALTF
 40
25.4
  9
$DIMLFAC
 40
1.0
  9
$DIMTOFL
 70
     0
  9
$DIMTVP
 40
1.0
  9
$DIMTIX
 70
     0
  9
$DIMSOXD
 70
     0
  9
$DIMSAH
 70
     1
  9
$DIMBLK1
  1

  9
$DIMBLK2
  1

  9
$DIMSTYLE
  2
Standard
  9
$DIMCLRD
 70
     0
  9
$DIMCLRE
 70
     0
  9
$DIMCLRT
 70
     0
  9
$DIMTFAC
 40
1.0
  9
$DIMGAP
 40
1.6
  9
$DIMJUST
 70
     0
  9
$DIMSD1
 70
     0
  9
$DIMSD2
 70
     0
  9
$DIMTOLJ
 70
     1
  9
$DIMTZIN
 70
     0
  9
$DIMALTZ
 70
     0
  9
$DIMALTTZ
 70
     0
  9
$DIMUPT
 70
     0
  9
$DIMDEC
 70
     4
  9
$DIMTDEC
 70
     4
  9
$DIMALTU
 70
     2
  9
$DIMALTTD
 70
     2
  9
$DIMTXSTY
  7
STANDARD
  9
$DIMAUNIT
 70
     0
  9
$DIMADEC
 70
     0
  9
$DIMALTRND
 40
0.0
  9
$DIMAZIN
 70
     0
  9
$DIMDSEP
 70
    46
  9
$DIMATFIT
 70
     3
  9
$DIMFRAC
 70
     0
  9
$DIMLDRBLK
  1

  9
$DIMLUNIT
 70
     2
  9
$DIMLWD
 70
    -2
  9
$DIMLWE
 70
    -2
  9
$DIMTMOVE
 70
     0
  9
$DIMFXL
 40
1.0
  9
$DIMFXLON
 70
     0
  9
$DIMJOGANG
 40
0.7853981633974483
  9
$DIMTFILL
 70
     0
  9
$DIMTFILLCLR
 70
     0
  9
$DIMARCSYM
 70
     1
  9
$DIMLTYPE
  6

  9
$DIMLTEX1
  6

  9
$DIMLTEX2
  6

  9
$LUNITS
 70
     2
  9
$LUPREC
 70
     4
  9
$SKETCHINC
 40
0.1
  9
$FILLETRAD
 40
0.0
  9
$AUNITS
 70
     0
  9
$AUPREC
 70
     0
  9
$MENU
  1
.
  9
$ELEVATION
 40
0.0
  9
$PELEVATION
 40
0.0
  9
$THICKNESS
 40
0.0
  9
$LIMCHECK
 70
     0
  9
$CHAMFERA
 40
0.0
  9
$CHAMFERB
 40
0.0
  9
$CHAMFERC
 40
0.0
  9
$CHAMFERD
 40
0.0
  9
$SKPOLY
 70
     0
  9
$TDCREATE
 40
2454489.415133808
  9
$TDUCREATE
 40
2454489.040133808
  9
$TDUPDATE
 40
2459942.384125521
  9
$TDUUPDATE
 40
2459942.009125521
  9
$TDINDWG
 40
0.0089269907
  9
$TDUSRTIMER
 40
0.008926956
  9
$USRTIMER
 70
     1
  9
$ANGBASE
 50
0.0
  9
$ANGDIR
 70
     0
  9
$PDMODE
 70
     0
  9
$PDSIZE
 40
0.0
  9
$PLINEWID
 40
0.0
  9
$SPLFRAME
 70
     0
  9
$SPLINETYPE
 70
     6
  9
$SPLINESEGS
 70
     8
  9
$HANDSEED
  5
6F7
  9
$SURFTAB1
 70
     6
  9
$SURFTAB2
 70
     6
  9
$SURFTYPE
 70
     6
  9
$SURFU
 70
     6
  9
$SURFV
 70
     6
  9
$UCSBASE
  2

  9
$UCSNAME
  2

  9
$UCSORG
 10
0.0
 20
0.0
 30
0.0
  9
$UCSXDIR
 10
1.0
 20
0.0
 30
0.0
  9
$UCSYDIR
 10
0.0
 20
1.0
 30
0.0
  9
$UCSORTHOREF
  2

  9
$UCSORTHOVIEW
 70
     0
  9
$UCSORGTOP
 10
0.0
 20
0.0
 30
0.0
  9
$UCSORGBOTTOM
 10
0.0
 20
0.0
 30
0.0
  9
$UCSORGLEFT
 10
0.0
 20
0.0
 30
0.0
  9
$UCSORGRIGHT
 10
0.0
 20
0.0
 30
0.0
  9
$UCSORGFRONT
 10
0.0
 20
0.0
 30
0.0
  9
$UCSORGBACK
 10
0.0
 20
0.0
 30
0.0
  9
$PUCSBASE
  2

  9
$PUCSNAME
  2

  9
$PUCSORG
 10
0.0
 20
0.0
 30
0.0
  9
$PUCSXDIR
 10
1.0
 20
0.0
 30
0.0
  9
$PUCSYDIR
 10
0.0
 20
1.0
 30
0.0
  9
$PUCSORTHOREF
  2

  9
$PUCSORTHOVIEW
 70
     0
  9
$PUCSORGTOP
 10
0.0
 20
0.0
 30
0.0
  9
$PUCSORGBOTTOM
 10
0.0
 20
0.0
 30
0.0
  9
$PUCSORGLEFT
 10
0.0
 20
0.0
 30
0.0
  9
$PUCSORGRIGHT
 10
0.0
 20
0.0
 30
0.0
  9
$PUCSORGFRONT
 10
0.0
 20
0.0
 30
0.0
  9
$PUCSORGBACK
 10
0.0
 20
0.0
 30
0.0
  9
$USERI1
 70
     0
  9
$USERI2
 70
     0
  9
$USERI3
 70
     0
  9
$USERI4
 70
     0
  9
$USERI5
 70
     0
  9
$USERR1
 40
0.0
  9
$USERR2
 40
0.0
  9
$USERR3
 40
0.0
  9
$USERR4
 40
0.0
  9
$USERR5
 40
0.0
  9
$WORLDVIEW
 70
     1
  9
$SHADEDGE
 70
     3
  9
$SHADEDIF
 70
    70
  9
$TILEMODE
 70
     1
  9
$MAXACTVP
 70
    64
  9
$PINSBASE
 10
0.0
 20
0.0
 30
0.0
  9
$PLIMCHECK
 70
     0
  9
$PEXTMIN
 10
1.000000000000000E+20
 20
1.000000000000000E+20
 30
1.000000000000000E+20
  9
$PEXTMAX
 10
-1.000000000000000E+20
 20
-1.000000000000000E+20
 30
-1.000000000000000E+20
  9
$PLIMMIN
 10
134.62634
 20
191.57544
  9
$PLIMMAX
 10
554.6263399999998
 20
488.57544
  9
$UNITMODE
 70
     0
  9
$VISRETAIN
 70
     1
  9
$PLINEGEN
 70
     0
  9
$PSLTSCALE
 70
     1
  9
$TREEDEPTH
 70
  3020
  9
$CMLSTYLE
  2
Standard
  9
$CMLJUST
 70
     0
  9
$CMLSCALE
 40
1.0
  9
$PROXYGRAPHICS
 70
     1
  9
$MEASUREMENT
 70
     0
  9
$CELWEIGHT
370
    -1
  9
$ENDCAPS
280
     0
  9
$JOINSTYLE
280
     0
  9
$LWDISPLAY
290
     0
  9
$INSUNITS
 70
     0
  9
$HYPERLINKBASE
  1

  9
$STYLESHEET
  1

  9
$XEDIT
290
     1
  9
$CEPSNTYPE
380
     0
  9
$PSTYLEMODE
290
     1
  9
$FINGERPRINTGUID
  2
{64987568-E741-4F50-B565-FD1CF346A26C}
  9
$VERSIONGUID
  2
{6303BF0A-4F1B-48C6-B56F-6B2C8652D948}
  9
$EXTNAMES
290
     1
  9
$PSVPSCALE
 40
0.0
  9
$OLESTARTUP
290
     0
  9
$SORTENTS
280
   127
  9
$INDEXCTL
280
     0
  9
$HIDETEXT
280
     0
  9
$XCLIPFRAME
290
     0
  9
$HALOGAP
280
     0
  9
$OBSCOLOR
 70
   257
  9
$OBSLTYPE
280
     0
  9
$INTERSECTIONDISPLAY
280
     0
  9
$INTERSECTIONCOLOR
 70
   257
  9
$DIMASSOC
280
     1
  9
$PROJECTNAME
  1

  9
$CAMERADISPLAY
290
     0
  9
$LENSLENGTH
 40
50.0
  9
$CAMERAHEIGHT
 40
0.0
  9
$STEPSPERSEC
 40
2.0
  9
$STEPSIZE
 40
6.0
  9
$3DDWFPREC
 40
2.0
  9
$PSOLWIDTH
 40
0.25
  9
$PSOLHEIGHT
 40
4.0
  9
$LOFTANG1
 40
1.570796326794896
  9
$LOFTANG2
 40
1.570796326794896
  9
$LOFTMAG1
 40
0.0
  9
$LOFTMAG2
 40
0.0
  9
$LOFTPARAM
 70
     7
  9
$LOFTNORMALS
280
     1
  9
$LATITUDE
 40
37.795
  9
$LONGITUDE
 40
-122.394
  9
$NORTHDIRECTION
 40
0.0
  9
$TIMEZONE
 70
 -8000
  9
$LIGHTGLYPHDISPLAY
280
     1
  9
$TILEMODELIGHTSYNCH
280
     1
  9
$CMATERIAL
347
11
  9
$SOLIDHIST
280
     0
  9
$SHOWHIST
280
     1
  9
$DWFFRAME
280
     2
  9
$DGNFRAME
280
     0
  9
$REALWORLDSCALE
290
     1
  9
$INTERFERECOLOR
 62
     1
  9
$INTERFEREOBJVS
345
1E
  9
$INTERFEREVPVS
346
563
  9
$CSHADOW
280
     0
  9
$SHADOWPLANELOCATION
 40
0.0
  0
ENDSEC
  0
SECTION
  2
CLASSES
  0
CLASS
  1
ACDBDICTIONARYWDFLT
  2
AcDbDictionaryWithDefault
  3
ObjectDBX Classes
 90
        0
 91
        8
280
     0
281
     0
  0
CLASS
  1
MATERIAL
  2
AcDbMaterial
  3
ObjectDBX Classes
 90
     1153
 91
        8
280
     0
281
     0
  0
CLASS
  1
VISUALSTYLE
  2
AcDbVisualStyle
  3
ObjectDBX Classes
 90
     4095
 91
        8
280
     0
281
     0
  0
CLASS
  1
TABLESTYLE
  2
AcDbTableStyle
  3
ObjectDBX Classes
 90
     4095
 91
        8
280
     0
281
     0
  0
CLASS
  1
AMGSETTINGSOBJ
  2
AmgSettingsObj
  3
AmgSettingsObj|...|...
 90
        0
 91
        8
280
     0
281
     0
  0
CLASS
  1
ACME_DOCUMENT
  2
AcMeDbDoc
  3
AcMeServices
 90
     1024
 91
        1
280
     1
281
     0
  0
CLASS
  1
ACMESCOPE
  2
AcMeScope
  3
AcMeScope|...|...
 90
        0
 91
        8
280
     0
281
     0
  0
CLASS
  1
ACMECOMMANDHISTORY
  2
AcMeCommandHistory
  3
AcMeServices
 90
     1024
 91
        1
280
     1
281
     0
  0
CLASS
  1
ACIMSYSVARMAN
  2
AcImSysVarManager
  3
AcImSysVarManager|...|...
 90
        0
 91
        8
280
     0
281
     0
  0
CLASS
  1
ACIMINTSYSVAR
  2
AcImIntSysVar
  3
AcImIntSysVar|...|...
 90
        0
 91
        8
280
     0
281
     0
  0
CLASS
  1
ACMEDRAWINGMAN
  2
AcMeDrawingMan
  3
AcMeServices
 90
     1024
 91
        1
280
     1
281
     0
  0
CLASS
  1
ACMEVIEW
  2
AcMeView
  3
AcMeServices
 90
     1024
 91
        1
280
     1
281
     0
  0
CLASS
  1
ACDBENTITYCACHE
  2
AcMeEntityCache
  3
AcMeServices
 90
     1024
 91
        1
280
     1
281
     0
  0
CLASS
  1
GSMANAGER
  2
AcMeGSManager
  3
AcMeServices
 90
        0
 91
        1
280
     1
281
     0
  0
CLASS
  1
AMDTINTERNALREACTOR
  2
AmdtInternalReactor
  3
AcMeServices
 90
     1024
 91
        1
280
     1
281
     0
  0
CLASS
  1
ACMESTATEMGR
  2
AcMeStateMgr
  3
AcMeStateMgr|...|...
 90
        0
 91
        8
280
     0
281
     0
  0
CLASS
  1
ACGREFMASTER
  2
AcGrefMaster
  3
AcAttribServices
 90
     1024
 91
        1
280
     1
281
     0
  0
CLASS
  1
AM_DRAWING_MGR
  2
AcDmDwgMgr
  3
AcMechDwgViewMgmt
 90
     1024
 91
        1
280
     1
281
     0
  0
CLASS
  1
AM_DWG_DOCUMENT
  2
AcDmDwgDocument
  3
AcMechDwgViewMgmt
 90
     1024
 91
        1
280
     1
281
     0
  0
CLASS
  1
AM_DWG_SHEET
  2
AcDmSheet
  3
AcMechDwgViewMgmt
 90
     1024
 91
        1
280
     1
281
     0
  0
CLASS
  1
AM_VIEWDIMPARMAP
  2
AcDmViewDimParMap
  3
AcMechDwgViewMgmt
 90
     1024
 91
        1
280
     1
281
     0
  0
CLASS
  1
ACIMREALSYSVAR
  2
AcImRealSysVar
  3
AcMeServices
 90
     1024
 91
        1
280
     1
281
     0
  0
CLASS
  1
AM_DWGMGR_NAME
  2
AcDmDwgMgrName
  3
AcMechDwgViewMgmt
 90
     1024
 91
        1
280
     1
281
     0
  0
CLASS
  1
ACME_DATABASE
  2
AcMeDbDatabase
  3
AcMeServices
 90
     1024
 91
        1
280
     1
281
     0
  0
CLASS
  1
ACRFINSADJUSTERMGR
  2
AcRfInsAdjusterMgr
  3
AcMeServices
 90
     1024
 91
        1
280
     1
281
     0
  0
CLASS
  1
ACGREFACADMASTER
  2
AcGrefacadMaster
  3
AcGrefServices
 90
     1024
 91
        1
280
     1
281
     0
  0
CLASS
  1
AMDTMENUSTATEMGR
  2
AmdtMenuStateMgr
  3
McadcomServices
 90
     1024
 91
        1
280
     1
281
     0
  0
CLASS
  1
AMDTMCOMMENUSTATE
  2
AmdtMcomMenuState
  3
McadcomServices
 90
     1024
 91
        1
280
     1
281
     0
  0
CLASS
  1
AMIMASTER
  2
AmiMaster
  3
AmiServices
 90
     1024
 91
        1
280
     1
281
     0
  0
CLASS
  1
MAPIAMMOUDLE
  2
MApiAmModule
  3
MApiAmServices
 90
     1024
 91
        1
280
     1
281
     0
  0
CLASS
  1
ACIMSTRSYSVAR
  2
AcImStrSysVar
  3
AcImStrSysVar|...|...
 90
        0
 91
        8
280
     0
281
     0
  0
CLASS
  1
AMDTADMENUSTATE
  2
AmdtAdMenuState
  3
DesignerServices
 90
        0
 91
        1
280
     1
281
     0
  0
CLASS
  1
ADAPPL
  2
AcAdAppl
  3
DesignerAssemblies
 90
     1024
 91
        1
280
     1
281
     0
  0
CLASS
  1
DEPMGR
  2
AcAdDepMgr
  3
DesignerAssemblies
 90
     1024
 91
        1
280
     1
281
     0
  0
CLASS
  1
PARAMMGR
  2
AcAdParamMgr
  3
DesignerAssemblies
 90
     1024
 91
        1
280
     1
281
     0
  0
CLASS
  1
PARAMSCOPE
  2
AcAdParamScope
  3
DesignerAssemblies
 90
     1024
 91
        1
280
     1
281
     0
  0
CLASS
  1
NAMEDAPPL
  2
AcAdNamedAppl
  3
DesignerAssemblies
 90
     1024
 91
        1
280
     1
281
     0
  0
CLASS
  1
AMDTDMMENUSTATE
  2
AmdtDmMenuState
  3
AcMechDwgViewMgmt
 90
        0
 91
        1
280
     1
281
     0
  0
CLASS
  1
AMDTAMMENUSTATE
  2
AmdtAmMenuState
  3
DesignerAssemblies
 90
     1024
 91
        1
280
     1
281
     0
  0
CLASS
  1
ACAMPROJECT
  2
AcAmProject
  3
AcAmProject|...|...
 90
        0
 91
        8
280
     0
281
     0
  0
CLASS
  1
ACAMGRCOMPDEF
  2
AcAmGrCompDef
  3
AcAmGrCompDef|...|...
 90
        0
 91
        8
280
     0
281
     0
  0
CLASS
  1
ACCMCONTEXT
  2
AcCmContext
  3
DesignerAssemblies
 90
     1024
 91
        1
280
     1
281
     0
  0
CLASS
  1
ACAMCOMPDEF
  2
AcAmCompDef
  3
AcAmCompDef|...|...
 90
        0
 91
        8
280
     0
281
     0
  0
CLASS
  1
ACAMCOMPDEFMGR
  2
AcAmCompDefMgr
  3
AcAmCompDefMgr|...|...
 90
        0
 91
        8
280
     0
281
     0
  0
CLASS
  1
ACAMCONTEXTMGR
  2
AcAmContextMgr
  3
AcAmContextMgr|...|...
 90
        0
 91
        8
280
     0
281
     0
  0
CLASS
  1
ACAMCONTEXTMODELER
  2
AcAmContextModeler
  3
AcAmContextModeler|...|...
 90
        0
 91
        8
280
     0
281
     0
  0
CLASS
  1
ACMDATADICTIONARY
  2
AcmDataDictionary
  3
AcmDataDictionary|...|...
 90
        0
 91
        8
280
     0
281
     0
  0
CLASS
  1
CATALOGSTATE
  2
AcAmCatalogState
  3
DesignerAssemblies
 90
     1024
 91
        1
280
     1
281
     0
  0
CLASS
  1
ACAMGRCOMPDEFSET
  2
AcAmGrCompDefSet
  3
DesignerAssemblies
 90
     1024
 91
        1
280
     1
281
     0
  0
CLASS
  1
AMDTBROWSERDBTAB
  2
AmdtBrowserDbTab
  3
McadcomServices
 90
     1024
 91
        1
280
     1
281
     0
  0
CLASS
  1
CBROWSERAPPOBJECT
  2
CBrowserAppObject
  3
McadcomServices
 90
     1024
 91
        1
280
     1
281
     0
  0
CLASS
  1
DM_PLACEHOLDER
  2
AcDmSelsetPlaceholder
  3
McadcomServices
 90
     1024
 91
        1
280
     1
281
     0
  0
CLASS
  1
ACMSTANDARDANSI
  2
AcmStandardANSI
  3
AcmStandardANSI|...|...
 90
        0
 91
        8
280
     0
281
     0
  0
CLASS
  1
AMGOBJPROPCFG
  2
AmgObjPropCfg
  3
AmgObjPropCfg|...|...
 90
        0
 91
        8
280
     0
281
     0
  0
CLASS
  1
ACMSURFSTANDARDANSI
  2
AcmSurfTextStdANSI
  3
AcmSurfTextStdANSI|...|...
 90
        0
 91
        8
280
     0
281
     0
  0
CLASS
  1
ACMFCFSTANDARDANSI
  2
AcmFCFStdANSI
  3
AcmFCFStdANSI|...|...
 90
        0
 91
        9
280
     0
281
     0
  0
CLASS
  1
ACMWELDSTANDARDANSI
  2
AcmWeldingStdANSI
  3
AcmWeldingStdANSI|...|...
 90
        0
 91
        8
280
     0
281
     0
  0
CLASS
  1
ACMIDSTANDARDANSI
  2
AcmIdStdANSI
  3
AcmIdStdANSI|...|...
 90
        0
 91
        9
280
     0
281
     0
  0
CLASS
  1
ACMDATUMSTANDARDANSI
  2
AcmDatumStdANSI
  3
AcmDatumStdANSI|...|...
 90
        0
 91
        8
280
     0
281
     0
  0
CLASS
  1
ACMBOMSTANDARDANSI
  2
AcmBOMStdANSI
  3
AcmBOMStdANSI|...|...
 90
        0
 91
        8
280
     0
281
     0
  0
CLASS
  1
ACMDETAILSTANDARDANSI
  2
AmdtDetailSymStdANSI
  3
AmdtDetailSymStdANSI|...|...
 90
        0
 91
        8
280
     0
281
     0
  0
CLASS
  1
ACMSECTIONSTANDARDANSI
  2
AmdtSectionSymStdANSI
  3
AmdtSectionSymStdANSI|...|...
 90
        0
 91
        8
280
     0
281
     0
  0
CLASS
  1
ACMCENTERLINESTANDARDANSI
  2
AmdtCenterLineStdANSI
  3
AmdtCenterLineStdANSI|...|...
 90
        0
 91
        8
280
     0
281
     0
  0
CLASS
  1
ACMTHREADLINESTANDARDANSI
  2
AmdtThreadLineStdANSI
  3
AmdtThreadLineStdANSI|...|...
 90
        0
 91
        8
280
     0
281
     0
  0
CLASS
  1
ACMNOTESTANDARDANSI
  2
AmdtNoteStdANSI
  3
AmdtNoteStdANSI|...|...
 90
        0
 91
        8
280
     0
281
     0
  0
CLASS
  1
ACMTAPERSTANDARDANSI
  2
AcmTaperStdANSI
  3
AcmTaperStdANSI|...|...
 90
        0
 91
        8
280
     0
281
     0
  0
CLASS
  1
AMDTNOTETEMPLATEDB
  2
AmdtNoteTemplateDB
  3
AmdtNoteTemplateDB|...|...
 90
        0
 91
        8
280
     0
281
     0
  0
CLASS
  1
ACAMGLAYSTD
  2
AcAmgLayStd
  3
AcAmgLayStd|...|...
 90
        0
 91
        8
280
     0
281
     0
  0
CLASS
  1
ACAMGDIMSTD
  2
AcAmgDimStd
  3
AcAmgDimStd|...|...
 90
        0
 91
        8
280
     0
281
     0
  0
CLASS
  1
ACAMGHOLECHARTSTDANSI
  2
AcAmgHoleChartStdANSI
  3
AcAmgHoleChartStdANSI|...|...
 90
        0
 91
        6
280
     0
281
     0
  0
CLASS
  1
ACAMGTITLESTD
  2
AcAmgTitleStd
  3
AcAmgTitleStd|...|...
 90
        0
 91
        8
280
     0
281
     0
  0
CLASS
  1
ACAMGFILTERDAT
  2
AcAmgFilterDat
  3
"AcadM|Product Description: AutoCAD Mechanical|Company: Autodesk, Inc."
 90
     1024
 91
        1
280
     1
281
     0
  0
CLASS
  1
CAMSSTRUCTBTNSTATE
  2
StructBtnState
  3
DesignerAssemblies
 90
     1024
 91
        1
280
     1
281
     0
  0
CLASS
  1
DICTIONARYVAR
  2
AcDbDictionaryVar
  3
ObjectDBX Classes
 90
        0
 91
        8
280
     0
281
     0
  0
CLASS
  1
SCALE
  2
AcDbScale
  3
ObjectDBX Classes
 90
     1153
 91
        8
280
     0
281
     0
  0
CLASS
  1
MLEADERSTYLE
  2
AcDbMLeaderStyle
  3
ACDB_MLEADERSTYLE_CLASS
 90
     4095
 91
        8
280
     0
281
     0
  0
CLASS
  1
ACDBSECTIONVIEWSTYLE
  2
AcDbSectionViewStyle
  3
ObjectDBX Classes
 90
     1025
 91
        8
280
     0
281
     0
  0
CLASS
  1
ACDBDETAILVIEWSTYLE
  2
AcDbDetailViewStyle
  3
ObjectDBX Classes
 90
     1025
 91
        8
280
     0
281
     0
  0
CLASS
  1
EXACXREFPANELOBJECT
  2
ExAcXREFPanelObject
  3
EXAC_ESW
 90
     1025
 91
        1
280
     1
281
     0
  0
CLASS
  1
NPOCOLLECTION
  2
AcDbImpNonPersistentObjectsCollection
  3
ObjectDBX Classes
 90
     1153
 91
        1
280
     1
281
     0
  0
CLASS
  1
ACMANOOTATIONVIEWSTANDARDANSI
  2
AmdtAnViewStdANSI
  3
AmdtAnViewStdANSI|...|...
 90
        0
 91
        8
280
     0
281
     0
  0
CLASS
  1
CELLSTYLEMAP
  2
AcDbCellStyleMap
  3
ObjectDBX Classes
 90
     1152
 91
        8
280
     0
281
     0
  0
CLASS
  1
FIELD
  2
AcDbField
  3
ObjectDBX Classes
 90
     1152
 91
        5
280
     0
281
     0
  0
CLASS
  1
ACMDETAILSTANDARDCUSTOM
  2
AmdtDetailSymStdCustom
  3
AmdtDetailSymStdCustom|...|...
 90
        0
 91
        7
280
     0
281
     0
  0
CLASS
  1
ACMSECTIONSTANDARDCUSTOM
  2
AmdtSectionSymStdCustom
  3
AmdtSectionSymStdCustom|...|...
 90
        0
 91
        7
280
     0
281
     0
  0
CLASS
  1
FIELDLIST
  2
AcDbFieldList
  3
ObjectDBX Classes
 90
     1152
 91
        5
280
     0
281
     0
  0
CLASS
  1
AMDTFCFLIBRARY
  2
AmdtFCFLibrary
  3
AmdtFCFLibrary|...|...
 90
        0
 91
        5
280
     0
281
     0
  0
CLASS
  1
AMDTSURFTEXTLIBRARY
  2
AmdtSurfTextLibrary
  3
AmdtSurfTextLibrary|...|...
 90
        0
 91
        5
280
     0
281
     0
  0
CLASS
  1
AMDTWELDINGLIBRARY
  2
AmdtWeldingLibrary
  3
AmdtWeldingLibrary|...|...
 90
        0
 91
        5
280
     0
281
     0
  0
CLASS
  1
AMDTFCFLIBOBJECT
  2
AmdtFCFLibObject
  3
AmdtFCFLibObject|...|...
 90
        0
 91
        5
280
     0
281
     0
  0
CLASS
  1
AMDTSURFTEXTLIBOBJECT
  2
AmdtSurfTextLibObject
  3
AmdtSurfTextLibObject|...|...
 90
        0
 91
        5
280
     0
281
     0
  0
CLASS
  1
AMDTWELDINGLIBOBJECT
  2
AmdtWeldingLibObject
  3
AmdtWeldingLibObject|...|...
 90
        0
 91
        5
280
     0
281
     0
  0
CLASS
  1
ACMDATAENTRYBLOCK
  2
AcmDataEntryBlock
  3
AcmDataEntryBlock|...|...
 90
        0
 91
        8
280
     0
281
     0
  0
CLASS
  1
AMDTSYSATTR
  2
AmdtSystemAttribute
  3
AmdtSystemAttribute|...|...
 90
        0
 91
        8
280
     0
281
     0
  0
ENDSEC
  0
SECTION
  2
TABLES
  0
TABLE
  2
VPORT
  5
8
330
0
100
AcDbSymbolTable
 70
     1
  0
VPORT
  5
41
330
8
100
AcDbSymbolTableRecord
100
AcDbViewportTableRecord
  2
*Active
 70
     0
 10
0.0
 20
0.0
 11
1.0
 21
1.0
 12
349.871687923944
 22
336.6519970029786
 13
0.0
 23
0.0
 14
1.0
 24
1.0
 15
0.0
 25
0.0
 16
0.0
 26
0.0
 36
1.0
 17
0.0
 27
0.0
 37
0.0
 40
331.0588851814076
 41
1.872
 42
50.0
 43
0.0
 44
0.0
 50
0.0
 51
0.0
 71
     0
 72
   100
 73
     1
 74
     1
 75
     0
 76
     0
 77
     0
 78
     0
281
     0
 65
     0
110
0.0
120
0.0
130
0.0
111
1.0
121
0.0
131
0.0
112
0.0
122
1.0
132
0.0
 79
     0
146
0.0
348
1A
 60
     3
 61
     5
292
     1
282
     1
141
0.0
142
0.0
 63
   250
421
  3355443
1001
ACAD_NAV_VCDISPLAY
1070
     3
  0
ENDTAB
  0
TABLE
  2
LTYPE
  5
5
330
0
100
AcDbSymbolTable
 70
    19
  0
LTYPE
  5
28
330
5
100
AcDbSymbolTableRecord
100
AcDbLinetypeTableRecord
  2
ByBlock
 70
     0
  3

 72
    65
 73
     0
 40
0.0
  0
LTYPE
  5
29
330
5
100
AcDbSymbolTableRecord
100
AcDbLinetypeTableRecord
  2
ByLayer
 70
     0
  3

 72
    65
 73
     0
 40
0.0
  0
LTYPE
  5
2A
330
5
100
AcDbSymbolTableRecord
100
AcDbLinetypeTableRecord
  2
CONTINUOUS
 70
     0
  3
Solid line
 72
    65
 73
     0
 40
0.0
  0
LTYPE
  5
3A
330
5
100
AcDbSymbolTableRecord
100
AcDbLinetypeTableRecord
  2
DASHED
 70
     0
  3
__ __ __ __ __ __ __ __ __ __ __ __ __ __ __
 72
    65
 73
     2
 40
3.5
 49
2.0
 74
     0
 49
-1.5
 74
     0
  0
LTYPE
  5
3B
330
5
100
AcDbSymbolTableRecord
100
AcDbLinetypeTableRecord
  2
CENTER
 70
     0
  3
____ _ ____ _ ____ _ ____ _ ____ _ ____ _ ____
 72
    65
 73
     4
 40
17.5
 49
13.0
 74
     0
 49
-1.5
 74
     0
 49
1.5
 74
     0
 49
-1.5
 74
     0
  0
LTYPE
  5
3C
330
5
100
AcDbSymbolTableRecord
100
AcDbLinetypeTableRecord
  2
PHANTOM
 70
     0
  3
_____ _ _ _____ _ _ _____ _ _ _____ _ _ ____  
 72
    65
 73
     6
 40
15.5
 49
8.0
 74
     0
 49
-1.5
 74
     0
 49
1.5
 74
     0
 49
-1.5
 74
     0
 49
1.5
 74
     0
 49
-1.5
 74
     0
  0
LTYPE
  5
4A4
330
5
100
AcDbSymbolTableRecord
100
AcDbLinetypeTableRecord
  2
PHANTOM2
 70
     0
  3
Phantom (.5x) ___ _ _ ___ _ _ ___ _ _ ___ _ _
 72
    65
 73
     6
 40
1.25
 49
0.625
 74
     0
 49
-0.125
 74
     0
 49
0.125
 74
     0
 49
-0.125
 74
     0
 49
0.125
 74
     0
 49
-0.125
 74
     0
  0
LTYPE
  5
4F3
330
5
100
AcDbSymbolTableRecord
100
AcDbLinetypeTableRecord
  2
ACANSTGB
 70
     0
  3
__ . . __ . .
 72
    65
 73
     6
 40
0.35433070866
 49
0.15748031496
 74
     0
 49
-0.03937007874
 74
     0
 49
0.03937007874
 74
     0
 49
-0.03937007874
 74
     0
 49
0.03937007874
 74
     0
 49
-0.03937007874
 74
     0
  0
LTYPE
  5
4F4
330
5
100
AcDbSymbolTableRecord
100
AcDbLinetypeTableRecord
  2
ACANSTGL
 70
     0
  3
_ _ _ _ _
 72
    65
 73
     2
 40
0.11811023622
 49
0.07874015748
 74
     0
 49
-0.03937007874
 74
     0
  0
ENDTAB
  0
TABLE
  2
LAYER
  5
2
330
0
100
AcDbSymbolTable
 70
     1
  0
LAYER
  5
25
102
{ACAD_XDICTIONARY
360
5D8
102
}
330
2
100
AcDbSymbolTableRecord
100
AcDbLayerTableRecord
  2
0
 70
     0
 62
     7
  6
CONTINUOUS
370
    -3
390
F
347
13
  0
ENDTAB
  0
TABLE
  2
STYLE
  5
3
330
0
100
AcDbSymbolTable
 70
     4
  0
STYLE
  5
26
330
3
100
AcDbSymbolTableRecord
100
AcDbTextStyleTableRecord
  2
STANDARD
 70
     0
 40
0.0
 41
1.0
 50
0.0
 71
     0
 42
0.2
  3
txt
  4
BIGFONT
  0
STYLE
  5
4F2
330
3
100
AcDbSymbolTableRecord
100
AcDbTextStyleTableRecord
  2
ACANSGDT
 70
     0
 40
0.0
 41
1.0
 50
0.0
 71
     0
 42
3.2
  3
amgdt.shx
  4

  0
ENDTAB
  0
TABLE
  2
VIEW
  5
6
330
0
100
AcDbSymbolTable
 70
     0
  0
ENDTAB
  0
TABLE
  2
UCS
  5
7
330
0
100
AcDbSymbolTable
 70
     0
  0
ENDTAB
  0
TABLE
  2
APPID
  5
9
330
0
100
AcDbSymbolTable
 70
    53
  0
APPID
  5
27
330
9
100
AcDbSymbolTableRecord
100
AcDbRegAppTableRecord
  2
ACAD
 70
     0
  0
APPID
  5
477
330
9
100
AcDbSymbolTableRecord
100
AcDbRegAppTableRecord
  2
MCAD_NO_VIS
 70
     0
  0
APPID
  5
478
330
9
100
AcDbSymbolTableRecord
100
AcDbRegAppTableRecord
  2
ACAD_TEMP_GRAPHIC
 70
     0
  0
APPID
  5
4A6
330
9
100
AcDbSymbolTableRecord
100
AcDbRegAppTableRecord
  2
AD_DRAW
 70
     0
  0
APPID
  5
4A9
330
9
100
AcDbSymbolTableRecord
100
AcDbRegAppTableRecord
  2
ACATTRIBSERVICES
 70
     0
  0
APPID
  5
4CA
330
9
100
AcDbSymbolTableRecord
100
AcDbRegAppTableRecord
  2
DESIGNERASSEMBLIES
 70
     0
  0
APPID
  5
4D0
330
9
100
AcDbSymbolTableRecord
100
AcDbRegAppTableRecord
  2
ACADM_DIM_EDIT
 70
     0
  0
APPID
  5
4D1
330
9
100
AcDbSymbolTableRecord
100
AcDbRegAppTableRecord
  2
AMDT_DM_ADJ
 70
     0
  0
APPID
  5
55E
330
9
100
AcDbSymbolTableRecord
100
AcDbRegAppTableRecord
  2
ACAD_DSTYLE_DIMARC_LENGTH_SYMBOL
 70
     0
  0
APPID
  5
5C7
330
9
100
AcDbSymbolTableRecord
100
AcDbRegAppTableRecord
  2
ACAD_DSTYLE_DIMBREAK
 70
     0
  0
APPID
  5
5C8
330
9
100
AcDbSymbolTableRecord
100
AcDbRegAppTableRecord
  2
ACAD_DSTYLE_DIMJAG
 70
     0
  0
APPID
  5
5D3
330
9
100
AcDbSymbolTableRecord
100
AcDbRegAppTableRecord
  2
ACAD_NAV_VCDISPLAY
 70
     0
  0
APPID
  5
5D4
330
9
100
AcDbSymbolTableRecord
100
AcDbRegAppTableRecord
  2
ACAD_EXEMPT_FROM_CAD_STANDARDS
 70
     0
  0
APPID
  5
61A
330
9
100
AcDbSymbolTableRecord
100
AcDbRegAppTableRecord
  2
ACAD_MLEADERVER
 70
     0
  0
APPID
  5
61B
330
9
100
AcDbSymbolTableRecord
100
AcDbRegAppTableRecord
  2
HC_SUPERPART
 70
     0
  0
APPID
  5
61C
330
9
100
AcDbSymbolTableRecord
100
AcDbRegAppTableRecord
  2
HC_SP4BLOCK
 70
     0
  0
APPID
  5
61D
330
9
100
AcDbSymbolTableRecord
100
AcDbRegAppTableRecord
  2
HC_XDATA_SPRING
 70
     0
  0
APPID
  5
61E
330
9
100
AcDbSymbolTableRecord
100
AcDbRegAppTableRecord
  2
HCCAD_FRAME
 70
     0
  0
APPID
  5
61F
330
9
100
AcDbSymbolTableRecord
100
AcDbRegAppTableRecord
  2
GENIUS_GENOLIS_13
 70
     0
  0
APPID
  5
620
330
9
100
AcDbSymbolTableRecord
100
AcDbRegAppTableRecord
  2
GENIUS_GENOENT_13
 70
     0
  0
APPID
  5
621
330
9
100
AcDbSymbolTableRecord
100
AcDbRegAppTableRecord
  2
GENIUS_GENODEF_13
 70
     0
  0
APPID
  5
622
330
9
100
AcDbSymbolTableRecord
100
AcDbRegAppTableRecord
  2
GENIUS_GENOREF_13
 70
     0
  0
APPID
  5
623
330
9
100
AcDbSymbolTableRecord
100
AcDbRegAppTableRecord
  2
GENIUS_GENOBJ-N-TIT_13
 70
     0
  0
APPID
  5
624
330
9
100
AcDbSymbolTableRecord
100
AcDbRegAppTableRecord
  2
GENIUS_GENOBJ-N-SDF_13
 70
     0
  0
APPID
  5
625
330
9
100
AcDbSymbolTableRecord
100
AcDbRegAppTableRecord
  2
GENIUS_GENOBJ-N-ZOO_13
 70
     0
  0
APPID
  5
626
330
9
100
AcDbSymbolTableRecord
100
AcDbRegAppTableRecord
  2
GENIUS_GENTITLE_13
 70
     0
  0
APPID
  5
627
330
9
100
AcDbSymbolTableRecord
100
AcDbRegAppTableRecord
  2
GENIUS_GENSCREG_15
 70
     0
  0
APPID
  5
628
330
9
100
AcDbSymbolTableRecord
100
AcDbRegAppTableRecord
  2
GENIUS_GENSYMENT_13
 70
     0
  0
APPID
  5
629
330
9
100
AcDbSymbolTableRecord
100
AcDbRegAppTableRecord
  2
GENIUS_GENSCSYM_13
 70
     0
  0
APPID
  5
62A
330
9
100
AcDbSymbolTableRecord
100
AcDbRegAppTableRecord
  2
GENIUS_GENOBJ-N-REV_13
 70
     0
  0
APPID
  5
62B
330
9
100
AcDbSymbolTableRecord
100
AcDbRegAppTableRecord
  2
GENIUS_GENOBJ-N-RSSYM_13
 70
     0
  0
APPID
  5
62C
330
9
100
AcDbSymbolTableRecord
100
AcDbRegAppTableRecord
  2
GENIUS_GENREV_15
 70
     0
  0
APPID
  5
62D
330
9
100
AcDbSymbolTableRecord
100
AcDbRegAppTableRecord
  2
HRA
 70
     0
  0
APPID
  5
62E
330
9
100
AcDbSymbolTableRecord
100
AcDbRegAppTableRecord
  2
HTIT
 70
     0
  0
APPID
  5
62F
330
9
100
AcDbSymbolTableRecord
100
AcDbRegAppTableRecord
  2
GENIUS_GENZOO_17
 70
     0
  0
APPID
  5
630
330
9
100
AcDbSymbolTableRecord
100
AcDbRegAppTableRecord
  2
GENIUS_GENOBJ-N-CEN_13
 70
     0
  0
APPID
  5
631
330
9
100
AcDbSymbolTableRecord
100
AcDbRegAppTableRecord
  2
GENIUS_GENCEN_19
 70
     0
  0
APPID
  5
632
330
9
100
AcDbSymbolTableRecord
100
AcDbRegAppTableRecord
  2
GENIUS_GENOBJ-N-CRS_13
 70
     0
  0
APPID
  5
633
330
9
100
AcDbSymbolTableRecord
100
AcDbRegAppTableRecord
  2
GENIUS_GENCRS_20
 70
     0
  0
APPID
  5
634
330
9
100
AcDbSymbolTableRecord
100
AcDbRegAppTableRecord
  2
GENIUS_GENOBJ-N-CRC_13
 70
     0
  0
APPID
  5
635
330
9
100
AcDbSymbolTableRecord
100
AcDbRegAppTableRecord
  2
GENIUS_GENCRC_14
 70
     0
  0
APPID
  5
636
330
9
100
AcDbSymbolTableRecord
100
AcDbRegAppTableRecord
  2
GENIUS_GENFIL_13
 70
     0
  0
APPID
  5
637
330
9
100
AcDbSymbolTableRecord
100
AcDbRegAppTableRecord
  2
GENIUS_GENOBJ-N-CHA_13
 70
     0
  0
APPID
  5
638
330
9
100
AcDbSymbolTableRecord
100
AcDbRegAppTableRecord
  2
GENIUS_GENOBJ-N-FIL_13
 70
     0
  0
APPID
  5
639
330
9
100
AcDbSymbolTableRecord
100
AcDbRegAppTableRecord
  2
GENIUS_GENHATCH_13
 70
     0
  0
APPID
  5
63A
330
9
100
AcDbSymbolTableRecord
100
AcDbRegAppTableRecord
  2
GENIUS_GENOBJ-N-HTC_13
 70
     0
  0
APPID
  5
63B
330
9
100
AcDbSymbolTableRecord
100
AcDbRegAppTableRecord
  2
GENIUS_GENDIM_13
 70
     0
  0
APPID
  5
63C
330
9
100
AcDbSymbolTableRecord
100
AcDbRegAppTableRecord
  2
GENIUS_GENOBJ-N-DIM_13
 70
     0
  0
APPID
  5
63D
330
9
100
AcDbSymbolTableRecord
100
AcDbRegAppTableRecord
  2
GENIUS_GENOBJ-N-DIMLI_13
 70
     0
  0
APPID
  5
63E
330
9
100
AcDbSymbolTableRecord
100
AcDbRegAppTableRecord
  2
GENIUS_GENOBJ-N-FITL_13
 70
     0
  0
APPID
  5
63F
330
9
100
AcDbSymbolTableRecord
100
AcDbRegAppTableRecord
  2
GENIUS_GENFITL_13
 70
     0
  0
APPID
  5
640
330
9
100
AcDbSymbolTableRecord
100
AcDbRegAppTableRecord
  2
GENIUS_GENDTOL_13
 70
     0
  0
APPID
  5
641
330
9
100
AcDbSymbolTableRecord
100
AcDbRegAppTableRecord
  2
GENLAYCOLOR
 70
     0
  0
ENDTAB
  0
TABLE
  2
DIMSTYLE
  5
A
330
0
100
AcDbSymbolTable
 70
     7
100
AcDbDimStyleTable
  0
DIMSTYLE
105
470
330
A
100
AcDbSymbolTableRecord
100
AcDbDimStyleTableRecord
  2
Standard
 70
     0
178
     0
340
26
  0
DIMSTYLE
105
500
102
{ACAD_REACTORS
102
}
330
A
100
AcDbSymbolTableRecord
100
AcDbDimStyleTableRecord
  2
AM_ANSI
 70
     0
  4
mm
 41
0.1
 42
0.05
 43
0.5
 44
0.1
 47
0.1
 48
0.1
 90
        1
 78
     7
 79
     2
140
0.12
141
0.0
146
0.71
147
0.06
176
   256
177
   256
178
     2
274
     4
284
     7
340
26
371
    -1
372
    -1
  0
DIMSTYLE
105
501
330
A
100
AcDbSymbolTableRecord
100
AcDbDimStyleTableRecord
  2
AM_ANSI$3
 70
     0
  4
mm
 41
0.1
 42
0.05
 43
0.5
 44
0.1
 47
0.1
 48
0.1
 90
        1
 78
     7
 79
     2
140
0.12
141
0.0
146
0.71
147
0.06
176
   256
177
   256
178
     2
274
     4
284
     7
288
     1
289
     0
340
26
371
    -1
372
    -1
  0
DIMSTYLE
105
502
330
A
100
AcDbSymbolTableRecord
100
AcDbDimStyleTableRecord
  2
AM_ANSI$4
 70
     0
  4
mm
 41
0.1
 42
0.05
 43
0.5
 44
0.1
 47
0.1
 48
0.1
 90
        1
 78
     7
 79
     2
140
0.12
141
0.0
146
0.71
147
0.06
176
   256
177
   256
178
     2
274
     4
284
     7
288
     1
289
     0
340
26
371
    -1
372
    -1
  0
DIMSTYLE
105
503
330
A
100
AcDbSymbolTableRecord
100
AcDbDimStyleTableRecord
  2
AM_ANSI$7
 70
     0
  4
mm
 41
0.1
 42
0.05
 43
0.5
 44
0.1
 47
0.1
 48
0.1
 90
        1
 78
     7
 79
     2
140
0.24
141
0.0
146
0.71
147
0.06
176
   256
177
   256
178
     2
274
     4
284
     7
340
26
371
    -1
372
    -1
  0
DIMSTYLE
105
504
330
A
100
AcDbSymbolTableRecord
100
AcDbDimStyleTableRecord
  2
AM_ANSI$SF
 70
     0
  4
mm
 41
0.1
 42
0.05
 43
0.5
 44
0.1
 47
0.1
 48
0.1
 90
        1
 75
     1
 76
     1
 78
     7
 79
     2
140
0.12
141
0.0
146
0.71
147
0.06
176
   256
177
   256
178
     2
274
     4
284
     7
340
26
371
    -1
372
    -1
  0
DIMSTYLE
105
509
330
A
100
AcDbSymbolTableRecord
100
AcDbDimStyleTableRecord
  2
AM_ANSI$SH
 70
     0
  4
mm
 41
0.1
 42
0.05
 43
0.5
 44
0.1
 47
0.1
 48
0.1
 90
        1
 75
     1
 76
     1
 78
     7
 79
     2
140
0.12
141
0.0
146
0.71
147
0.06
173
     1
176
   256
177
   256
178
     2
274
     4
284
     7
340
26
343
505
371
    -1
372
    -1
  0
ENDTAB
  0
TABLE
  2
BLOCK_RECORD
  5
1
330
0
100
AcDbSymbolTable
 70
    66
  0
BLOCK_RECORD
  5
36
330
1
100
AcDbSymbolTableRecord
100
AcDbBlockTableRecord
  2
*Model_Space
340
39
 70
     0
280
     1
281
     0
  0
BLOCK_RECORD
  5
32
330
1
100
AcDbSymbolTableRecord
100
AcDbBlockTableRecord
  2
*Paper_Space
340
35
 70
     0
280
     1
281
     0
  0
BLOCK_RECORD
  5
42
330
1
100
AcDbSymbolTableRecord
100
AcDbBlockTableRecord
  2
KOZU0001
340
0
102
{BLKREFS
331
430
331
430
102
}
 70
     0
280
     1
281
     0
  0
BLOCK_RECORD
  5
49
330
1
100
AcDbSymbolTableRecord
100
AcDbBlockTableRecord
  2
KOZU0002
340
0
102
{BLKREFS
331
431
331
431
102
}
 70
     0
280
     1
281
     0
  0
BLOCK_RECORD
  5
50
330
1
100
AcDbSymbolTableRecord
100
AcDbBlockTableRecord
  2
KOZU0003
340
0
102
{BLKREFS
331
432
331
432
102
}
 70
     0
280
     1
281
     0
  0
BLOCK_RECORD
  5
57
330
1
100
AcDbSymbolTableRecord
100
AcDbBlockTableRecord
  2
KOZU0004
340
0
102
{BLKREFS
331
433
331
433
102
}
 70
     0
280
     1
281
     0
  0
BLOCK_RECORD
  5
5E
330
1
100
AcDbSymbolTableRecord
100
AcDbBlockTableRecord
  2
KOZU0005
340
0
102
{BLKREFS
331
434
331
434
102
}
 70
     0
280
     1
281
     0
  0
BLOCK_RECORD
  5
65
330
1
100
AcDbSymbolTableRecord
100
AcDbBlockTableRecord
  2
KOZU0006
340
0
102
{BLKREFS
331
435
331
435
102
}
 70
     0
280
     1
281
     0
  0
BLOCK_RECORD
  5
6C
330
1
100
AcDbSymbolTableRecord
100
AcDbBlockTableRecord
  2
KOZU0007
340
0
102
{BLKREFS
331
436
331
436
102
}
 70
     0
280
     1
281
     0
  0
BLOCK_RECORD
  5
73
330
1
100
AcDbSymbolTableRecord
100
AcDbBlockTableRecord
  2
KOZU0008
340
0
102
{BLKREFS
331
437
331
437
102
}
 70
     0
280
     1
281
     0
  0
BLOCK_RECORD
  5
7A
330
1
100
AcDbSymbolTableRecord
100
AcDbBlockTableRecord
  2
KOZU0009
340
0
102
{BLKREFS
331
438
331
438
102
}
 70
     0
280
     1
281
     0
  0
BLOCK_RECORD
  5
81
330
1
100
AcDbSymbolTableRecord
100
AcDbBlockTableRecord
  2
KOZU0010
340
0
102
{BLKREFS
331
439
331
439
102
}
 70
     0
280
     1
281
     0
  0
BLOCK_RECORD
  5
88
330
1
100
AcDbSymbolTableRecord
100
AcDbBlockTableRecord
  2
KOZU0011
340
0
102
{BLKREFS
331
43A
331
43A
102
}
 70
     0
280
     1
281
     0
  0
BLOCK_RECORD
  5
8F
330
1
100
AcDbSymbolTableRecord
100
AcDbBlockTableRecord
  2
KOZU0012
340
0
102
{BLKREFS
331
43B
331
43B
102
}
 70
     0
280
     1
281
     0
  0
BLOCK_RECORD
  5
96
330
1
100
AcDbSymbolTableRecord
100
AcDbBlockTableRecord
  2
KOZU0013
340
0
102
{BLKREFS
331
43C
331
43C
102
}
 70
     0
280
     1
281
     0
  0
BLOCK_RECORD
  5
9D
330
1
100
AcDbSymbolTableRecord
100
AcDbBlockTableRecord
  2
KOZU0014
340
0
102
{BLKREFS
331
43D
331
43D
102
}
 70
     0
280
     1
281
     0
  0
BLOCK_RECORD
  5
A4
330
1
100
AcDbSymbolTableRecord
100
AcDbBlockTableRecord
  2
KOZU0015
340
0
102
{BLKREFS
331
43E
331
43E
102
}
 70
     0
280
     1
281
     0
  0
BLOCK_RECORD
  5
AB
330
1
100
AcDbSymbolTableRecord
100
AcDbBlockTableRecord
  2
KOZU0016
340
0
102
{BLKREFS
331
43F
331
43F
102
}
 70
     0
280
     1
281
     0
  0
BLOCK_RECORD
  5
B2
330
1
100
AcDbSymbolTableRecord
100
AcDbBlockTableRecord
  2
KOZU0017
340
0
102
{BLKREFS
331
440
331
440
102
}
 70
     0
280
     1
281
     0
  0
BLOCK_RECORD
  5
B9
330
1
100
AcDbSymbolTableRecord
100
AcDbBlockTableRecord
  2
KOZU0018
340
0
102
{BLKREFS
331
441
331
441
102
}
 70
     0
280
     1
281
     0
  0
BLOCK_RECORD
  5
C0
330
1
100
AcDbSymbolTableRecord
100
AcDbBlockTableRecord
  2
KOZU0019
340
0
102
{BLKREFS
331
442
331
442
102
}
 70
     0
280
     1
281
     0
  0
BLOCK_RECORD
  5
C7
330
1
100
AcDbSymbolTableRecord
100
AcDbBlockTableRecord
  2
KOZU0020
340
0
102
{BLKREFS
331
443
331
443
102
}
 70
     0
280
     1
281
     0
  0
BLOCK_RECORD
  5
CE
330
1
100
AcDbSymbolTableRecord
100
AcDbBlockTableRecord
  2
KOZU0021
340
0
102
{BLKREFS
331
444
331
444
102
}
 70
     0
280
     1
281
     0
  0
BLOCK_RECORD
  5
D5
330
1
100
AcDbSymbolTableRecord
100
AcDbBlockTableRecord
  2
KOZU0022
340
0
102
{BLKREFS
331
445
331
445
102
}
 70
     0
280
     1
281
     0
  0
BLOCK_RECORD
  5
DC
330
1
100
AcDbSymbolTableRecord
100
AcDbBlockTableRecord
  2
KOZU0023
340
0
102
{BLKREFS
331
446
331
446
102
}
 70
     0
280
     1
281
     0
  0
BLOCK_RECORD
  5
E3
330
1
100
AcDbSymbolTableRecord
100
AcDbBlockTableRecord
  2
KOZU0024
340
0
102
{BLKREFS
331
447
331
447
102
}
 70
     0
280
     1
281
     0
  0
BLOCK_RECORD
  5
EA
330
1
100
AcDbSymbolTableRecord
100
AcDbBlockTableRecord
  2
KOZU0025
340
0
102
{BLKREFS
331
448
331
448
102
}
 70
     0
280
     1
281
     0
  0
BLOCK_RECORD
  5
F1
330
1
100
AcDbSymbolTableRecord
100
AcDbBlockTableRecord
  2
KOZU0026
340
0
102
{BLKREFS
331
449
331
449
102
}
 70
     0
280
     1
281
     0
  0
BLOCK_RECORD
  5
F8
330
1
100
AcDbSymbolTableRecord
100
AcDbBlockTableRecord
  2
KOZU0027
340
0
102
{BLKREFS
331
44A
331
44A
102
}
 70
     0
280
     1
281
     0
  0
BLOCK_RECORD
  5
FF
330
1
100
AcDbSymbolTableRecord
100
AcDbBlockTableRecord
  2
KOZU0028
340
0
102
{BLKREFS
331
44B
331
44B
102
}
 70
     0
280
     1
281
     0
  0
BLOCK_RECORD
  5
106
330
1
100
AcDbSymbolTableRecord
100
AcDbBlockTableRecord
  2
KOZU0029
340
0
102
{BLKREFS
331
44C
331
44C
102
}
 70
     0
280
     1
281
     0
  0
BLOCK_RECORD
  5
10D
330
1
100
AcDbSymbolTableRecord
100
AcDbBlockTableRecord
  2
KOZU0030
340
0
102
{BLKREFS
331
44D
331
44D
102
}
 70
     0
280
     1
281
     0
  0
BLOCK_RECORD
  5
114
330
1
100
AcDbSymbolTableRecord
100
AcDbBlockTableRecord
  2
KOZU0031
340
0
102
{BLKREFS
331
44E
331
44E
102
}
 70
     0
280
     1
281
     0
  0
BLOCK_RECORD
  5
11B
330
1
100
AcDbSymbolTableRecord
100
AcDbBlockTableRecord
  2
KOZU0032
340
0
102
{BLKREFS
331
44F
331
44F
102
}
 70
     0
280
     1
281
     0
  0
BLOCK_RECORD
  5
122
330
1
100
AcDbSymbolTableRecord
100
AcDbBlockTableRecord
  2
KOZU0033
340
0
102
{BLKREFS
331
450
331
450
102
}
 70
     0
280
     1
281
     0
  0
BLOCK_RECORD
  5
129
330
1
100
AcDbSymbolTableRecord
100
AcDbBlockTableRecord
  2
KOZU0034
340
0
102
{BLKREFS
331
451
331
451
102
}
 70
     0
280
     1
281
     0
  0
BLOCK_RECORD
  5
130
330
1
100
AcDbSymbolTableRecord
100
AcDbBlockTableRecord
  2
KOZU0035
340
0
102
{BLKREFS
331
452
331
452
102
}
 70
     0
280
     1
281
     0
  0
BLOCK_RECORD
  5
137
330
1
100
AcDbSymbolTableRecord
100
AcDbBlockTableRecord
  2
KOZU0036
340
0
102
{BLKREFS
331
453
331
453
102
}
 70
     0
280
     1
281
     0
  0
BLOCK_RECORD
  5
13E
330
1
100
AcDbSymbolTableRecord
100
AcDbBlockTableRecord
  2
KOZU0037
340
0
102
{BLKREFS
331
454
331
454
102
}
 70
     0
280
     1
281
     0
  0
BLOCK_RECORD
  5
145
330
1
100
AcDbSymbolTableRecord
100
AcDbBlockTableRecord
  2
KOZU0038
340
0
102
{BLKREFS
331
455
331
455
102
}
 70
     0
280
     1
281
     0
  0
BLOCK_RECORD
  5
14C
330
1
100
AcDbSymbolTableRecord
100
AcDbBlockTableRecord
  2
KOZU0039
340
0
102
{BLKREFS
331
456
331
456
102
}
 70
     0
280
     1
281
     0
  0
BLOCK_RECORD
  5
153
330
1
100
AcDbSymbolTableRecord
100
AcDbBlockTableRecord
  2
KOZU0040
340
0
102
{BLKREFS
331
457
331
457
102
}
 70
     0
280
     1
281
     0
  0
BLOCK_RECORD
  5
15A
330
1
100
AcDbSymbolTableRecord
100
AcDbBlockTableRecord
  2
KOZU0041
340
0
102
{BLKREFS
331
458
331
458
102
}
 70
     0
280
     1
281
     0
  0
BLOCK_RECORD
  5
161
330
1
100
AcDbSymbolTableRecord
100
AcDbBlockTableRecord
  2
KOZU0042
340
0
102
{BLKREFS
331
459
331
459
102
}
 70
     0
280
     1
281
     0
  0
BLOCK_RECORD
  5
168
330
1
100
AcDbSymbolTableRecord
100
AcDbBlockTableRecord
  2
KOZU0043
340
0
102
{BLKREFS
331
45A
331
45A
102
}
 70
     0
280
     1
281
     0
  0
BLOCK_RECORD
  5
16F
330
1
100
AcDbSymbolTableRecord
100
AcDbBlockTableRecord
  2
KOZU0044
340
0
102
{BLKREFS
331
45B
331
45B
102
}
 70
     0
280
     1
281
     0
  0
BLOCK_RECORD
  5
176
330
1
100
AcDbSymbolTableRecord
100
AcDbBlockTableRecord
  2
KOZU0045
340
0
102
{BLKREFS
331
45C
331
45C
102
}
 70
     0
280
     1
281
     0
  0
BLOCK_RECORD
  5
17D
330
1
100
AcDbSymbolTableRecord
100
AcDbBlockTableRecord
  2
KOZU0046
340
0
102
{BLKREFS
331
45D
331
45D
102
}
 70
     0
280
     1
281
     0
  0
BLOCK_RECORD
  5
184
330
1
100
AcDbSymbolTableRecord
100
AcDbBlockTableRecord
  2
KOZU0047
340
0
102
{BLKREFS
331
45E
331
45E
102
}
 70
     0
280
     1
281
     0
  0
BLOCK_RECORD
  5
18B
330
1
100
AcDbSymbolTableRecord
100
AcDbBlockTableRecord
  2
KOZU0048
340
0
102
{BLKREFS
331
45F
331
45F
102
}
 70
     0
280
     1
281
     0
  0
BLOCK_RECORD
  5
192
330
1
100
AcDbSymbolTableRecord
100
AcDbBlockTableRecord
  2
KOZU0049
340
0
102
{BLKREFS
331
460
331
460
102
}
 70
     0
280
     1
281
     0
  0
BLOCK_RECORD
  5
199
330
1
100
AcDbSymbolTableRecord
100
AcDbBlockTableRecord
  2
KOZU0050
340
0
102
{BLKREFS
331
461
331
461
102
}
 70
     0
280
     1
281
     0
  0
BLOCK_RECORD
  5
1A0
330
1
100
AcDbSymbolTableRecord
100
AcDbBlockTableRecord
  2
KOZU0051
340
0
102
{BLKREFS
331
462
331
462
102
}
 70
     0
280
     1
281
     0
  0
BLOCK_RECORD
  5
1A7
330
1
100
AcDbSymbolTableRecord
100
AcDbBlockTableRecord
  2
KOZU0052
340
0
102
{BLKREFS
331
463
331
463
102
}
 70
     0
280
     1
281
     0
  0
BLOCK_RECORD
  5
1AE
330
1
100
AcDbSymbolTableRecord
100
AcDbBlockTableRecord
  2
KOZU0053
340
0
102
{BLKREFS
331
464
331
464
102
}
 70
     0
280
     1
281
     0
  0
BLOCK_RECORD
  5
1B5
330
1
100
AcDbSymbolTableRecord
100
AcDbBlockTableRecord
  2
KOZU0054
340
0
102
{BLKREFS
331
465
331
465
102
}
 70
     0
280
     1
281
     0
  0
BLOCK_RECORD
  5
1BC
330
1
100
AcDbSymbolTableRecord
100
AcDbBlockTableRecord
  2
KOZU0055
340
0
102
{BLKREFS
331
466
331
466
102
}
 70
     0
280
     1
281
     0
  0
BLOCK_RECORD
  5
1C3
330
1
100
AcDbSymbolTableRecord
100
AcDbBlockTableRecord
  2
KOZU0056
340
0
102
{BLKREFS
331
467
331
467
102
}
 70
     0
280
     1
281
     0
  0
BLOCK_RECORD
  5
1CA
330
1
100
AcDbSymbolTableRecord
100
AcDbBlockTableRecord
  2
KOZU0057
340
0
102
{BLKREFS
331
468
331
468
102
}
 70
     0
280
     1
281
     0
  0
BLOCK_RECORD
  5
1D1
330
1
100
AcDbSymbolTableRecord
100
AcDbBlockTableRecord
  2
KOZU0058
340
0
102
{BLKREFS
331
469
331
469
102
}
 70
     0
280
     1
281
     0
  0
BLOCK_RECORD
  5
1D8
330
1
100
AcDbSymbolTableRecord
100
AcDbBlockTableRecord
  2
KOZU0059
340
0
102
{BLKREFS
331
46A
331
46A
102
}
 70
     0
280
     1
281
     0
  0
BLOCK_RECORD
  5
1DF
330
1
100
AcDbSymbolTableRecord
100
AcDbBlockTableRecord
  2
KOZU0060
340
0
102
{BLKREFS
331
46B
331
46B
102
}
 70
     0
280
     1
281
     0
  0
BLOCK_RECORD
  5
1E6
330
1
100
AcDbSymbolTableRecord
100
AcDbBlockTableRecord
  2
KOZU0061
340
0
102
{BLKREFS
331
46C
331
46C
102
}
 70
     0
280
     1
281
     0
  0
BLOCK_RECORD
  5
1ED
330
1
100
AcDbSymbolTableRecord
100
AcDbBlockTableRecord
  2
KOZU0062
340
0
102
{BLKREFS
331
46D
331
46D
102
}
 70
     0
280
     1
281
     0
  0
BLOCK_RECORD
  5
1F4
330
1
100
AcDbSymbolTableRecord
100
AcDbBlockTableRecord
  2
KOZU0063
340
0
102
{BLKREFS
331
46E
331
46E
102
}
 70
     0
280
     1
281
     0
  0
BLOCK_RECORD
  5
1FB
330
1
100
AcDbSymbolTableRecord
100
AcDbBlockTableRecord
  2
KOZU0064
340
0
102
{BLKREFS
331
46F
331
46F
102
}
 70
     0
280
     1
281
     0
  0
BLOCK_RECORD
  5
505
330
1
100
AcDbSymbolTableRecord
100
AcDbBlockTableRecord
  2
GENAXEH
340
0
 70
     0
280
     1
281
     0
  0
BLOCK_RECORD
  5
659
330
1
100
AcDbSymbolTableRecord
100
AcDbBlockTableRecord
  2
_ACMFILLEDHALF
340
0
 70
     0
280
     1
281
     0
  0
ENDTAB
  0
ENDSEC
  0
SECTION
  2
BLOCKS
  0
BLOCK
  5
37
330
36
100
AcDbEntity
  8
0
  6
Continuous
100
AcDbBlockBegin
  2
*Model_Space
 70
     0
 10
0.0
 20
0.0
 30
0.0
  3
*Model_Space
  1

  0
ENDBLK
  5
38
330
36
100
AcDbEntity
  8
0
  6
Continuous
100
AcDbBlockEnd
  0
BLOCK
  5
33
330
32
100
AcDbEntity
 67
     1
  8
0
  6
Continuous
100
AcDbBlockBegin
  2
*Paper_Space
 70
     0
 10
0.0
 20
0.0
 30
0.0
  3
*Paper_Space
  1

  0
ENDBLK
  5
34
330
32
100
AcDbEntity
 67
     1
  8
0
  6
Continuous
100
AcDbBlockEnd
  0
BLOCK
  5
43
330
42
100
AcDbEntity
  8
0
  6
Continuous
100
AcDbBlockBegin
  2
KOZU0001
 70
     0
 10
0.0
 20
0.0
 30
0.0
  3
KOZU0001
  1

  0
LWPOLYLINE
  5
44
330
42
100
AcDbEntity
  8
0
  6
Continuous
 62
     7
100
AcDbPolyline
 90
        2
 70
     1
 43
0.4000000100000002
 10
-0.2
 20
0.0
 42
1.0
 10
0.2
 20
0.0
 42
1.0
  0
ENDBLK
  5
48
330
42
100
AcDbEntity
  8
0
  6
Continuous
100
AcDbBlockEnd
  0
BLOCK
  5
4A
330
49
100
AcDbEntity
  8
0
  6
Continuous
100
AcDbBlockBegin
  2
KOZU0002
 70
     0
 10
0.0
 20
0.0
 30
0.0
  3
KOZU0002
  1

  0
LWPOLYLINE
  5
4B
330
49
100
AcDbEntity
  8
0
  6
Continuous
 62
     7
100
AcDbPolyline
 90
        2
 70
     1
 43
0.4000000100000002
 10
-0.2
 20
0.0
 42
1.0
 10
0.2
 20
0.0
 42
1.0
  0
ENDBLK
  5
4F
330
49
100
AcDbEntity
  8
0
  6
Continuous
100
AcDbBlockEnd
  0
BLOCK
  5
51
330
50
100
AcDbEntity
  8
0
  6
Continuous
100
AcDbBlockBegin
  2
KOZU0003
 70
     0
 10
0.0
 20
0.0
 30
0.0
  3
KOZU0003
  1

  0
LWPOLYLINE
  5
52
330
50
100
AcDbEntity
  8
0
  6
Continuous
 62
     7
100
AcDbPolyline
 90
        2
 70
     1
 43
0.4000000100000002
 10
-0.2
 20
0.0
 42
1.0
 10
0.2
 20
0.0
 42
1.0
  0
ENDBLK
  5
56
330
50
100
AcDbEntity
  8
0
  6
Continuous
100
AcDbBlockEnd
  0
BLOCK
  5
58
330
57
100
AcDbEntity
  8
0
  6
Continuous
100
AcDbBlockBegin
  2
KOZU0004
 70
     0
 10
0.0
 20
0.0
 30
0.0
  3
KOZU0004
  1

  0
LWPOLYLINE
  5
59
330
57
100
AcDbEntity
  8
0
  6
Continuous
 62
     7
100
AcDbPolyline
 90
        2
 70
     1
 43
0.4000000100000002
 10
-0.2
 20
0.0
 42
1.0
 10
0.2
 20
0.0
 42
1.0
  0
ENDBLK
  5
5D
330
57
100
AcDbEntity
  8
0
  6
Continuous
100
AcDbBlockEnd
  0
BLOCK
  5
5F
330
5E
100
AcDbEntity
  8
0
  6
Continuous
100
AcDbBlockBegin
  2
KOZU0005
 70
     0
 10
0.0
 20
0.0
 30
0.0
  3
KOZU0005
  1

  0
LWPOLYLINE
  5
60
330
5E
100
AcDbEntity
  8
0
  6
Continuous
 62
     7
100
AcDbPolyline
 90
        2
 70
     1
 43
0.4000000100000002
 10
-0.2
 20
0.0
 42
1.0
 10
0.2
 20
0.0
 42
1.0
  0
ENDBLK
  5
64
330
5E
100
AcDbEntity
  8
0
  6
Continuous
100
AcDbBlockEnd
  0
BLOCK
  5
66
330
65
100
AcDbEntity
  8
0
  6
Continuous
100
AcDbBlockBegin
  2
KOZU0006
 70
     0
 10
0.0
 20
0.0
 30
0.0
  3
KOZU0006
  1

  0
LWPOLYLINE
  5
67
330
65
100
AcDbEntity
  8
0
  6
Continuous
 62
     7
100
AcDbPolyline
 90
        2
 70
     1
 43
0.4000000100000002
 10
-0.2
 20
0.0
 42
1.0
 10
0.2
 20
0.0
 42
1.0
  0
ENDBLK
  5
6B
330
65
100
AcDbEntity
  8
0
  6
Continuous
100
AcDbBlockEnd
  0
BLOCK
  5
6D
330
6C
100
AcDbEntity
  8
0
  6
Continuous
100
AcDbBlockBegin
  2
KOZU0007
 70
     0
 10
0.0
 20
0.0
 30
0.0
  3
KOZU0007
  1

  0
LWPOLYLINE
  5
6E
330
6C
100
AcDbEntity
  8
0
  6
Continuous
 62
     7
100
AcDbPolyline
 90
        2
 70
     1
 43
0.4000000100000002
 10
-0.2
 20
0.0
 42
1.0
 10
0.2
 20
0.0
 42
1.0
  0
ENDBLK
  5
72
330
6C
100
AcDbEntity
  8
0
  6
Continuous
100
AcDbBlockEnd
  0
BLOCK
  5
74
330
73
100
AcDbEntity
  8
0
  6
Continuous
100
AcDbBlockBegin
  2
KOZU0008
 70
     0
 10
0.0
 20
0.0
 30
0.0
  3
KOZU0008
  1

  0
LWPOLYLINE
  5
75
330
73
100
AcDbEntity
  8
0
  6
Continuous
 62
     7
100
AcDbPolyline
 90
        2
 70
     1
 43
0.4000000100000002
 10
-0.2
 20
0.0
 42
1.0
 10
0.2
 20
0.0
 42
1.0
  0
ENDBLK
  5
79
330
73
100
AcDbEntity
  8
0
  6
Continuous
100
AcDbBlockEnd
  0
BLOCK
  5
7B
330
7A
100
AcDbEntity
  8
0
  6
Continuous
100
AcDbBlockBegin
  2
KOZU0009
 70
     0
 10
0.0
 20
0.0
 30
0.0
  3
KOZU0009
  1

  0
LWPOLYLINE
  5
7C
330
7A
100
AcDbEntity
  8
0
  6
Continuous
 62
     7
100
AcDbPolyline
 90
        2
 70
     1
 43
0.4000000100000002
 10
-0.2
 20
0.0
 42
1.0
 10
0.2
 20
0.0
 42
1.0
  0
ENDBLK
  5
80
330
7A
100
AcDbEntity
  8
0
  6
Continuous
100
AcDbBlockEnd
  0
BLOCK
  5
82
330
81
100
AcDbEntity
  8
0
  6
Continuous
100
AcDbBlockBegin
  2
KOZU0010
 70
     0
 10
0.0
 20
0.0
 30
0.0
  3
KOZU0010
  1

  0
LWPOLYLINE
  5
83
330
81
100
AcDbEntity
  8
0
  6
Continuous
 62
     7
100
AcDbPolyline
 90
        2
 70
     1
 43
0.4000000100000002
 10
-0.2
 20
0.0
 42
1.0
 10
0.2
 20
0.0
 42
1.0
  0
ENDBLK
  5
87
330
81
100
AcDbEntity
  8
0
  6
Continuous
100
AcDbBlockEnd
  0
BLOCK
  5
89
330
88
100
AcDbEntity
  8
0
  6
Continuous
100
AcDbBlockBegin
  2
KOZU0011
 70
     0
 10
0.0
 20
0.0
 30
0.0
  3
KOZU0011
  1

  0
LWPOLYLINE
  5
8A
330
88
100
AcDbEntity
  8
0
  6
Continuous
 62
     7
100
AcDbPolyline
 90
        2
 70
     1
 43
0.4000000100000002
 10
-0.2
 20
0.0
 42
1.0
 10
0.2
 20
0.0
 42
1.0
  0
ENDBLK
  5
8E
330
88
100
AcDbEntity
  8
0
  6
Continuous
100
AcDbBlockEnd
  0
BLOCK
  5
90
330
8F
100
AcDbEntity
  8
0
  6
Continuous
100
AcDbBlockBegin
  2
KOZU0012
 70
     0
 10
0.0
 20
0.0
 30
0.0
  3
KOZU0012
  1

  0
LWPOLYLINE
  5
91
330
8F
100
AcDbEntity
  8
0
  6
Continuous
 62
     7
100
AcDbPolyline
 90
        2
 70
     1
 43
0.4000000100000002
 10
-0.2
 20
0.0
 42
1.0
 10
0.2
 20
0.0
 42
1.0
  0
ENDBLK
  5
95
330
8F
100
AcDbEntity
  8
0
  6
Continuous
100
AcDbBlockEnd
  0
BLOCK
  5
97
330
96
100
AcDbEntity
  8
0
  6
Continuous
100
AcDbBlockBegin
  2
KOZU0013
 70
     0
 10
0.0
 20
0.0
 30
0.0
  3
KOZU0013
  1

  0
LWPOLYLINE
  5
98
330
96
100
AcDbEntity
  8
0
  6
Continuous
 62
     7
100
AcDbPolyline
 90
        2
 70
     1
 43
0.4000000100000002
 10
-0.2
 20
0.0
 42
1.0
 10
0.2
 20
0.0
 42
1.0
  0
ENDBLK
  5
9C
330
96
100
AcDbEntity
  8
0
  6
Continuous
100
AcDbBlockEnd
  0
BLOCK
  5
9E
330
9D
100
AcDbEntity
  8
0
  6
Continuous
100
AcDbBlockBegin
  2
KOZU0014
 70
     0
 10
0.0
 20
0.0
 30
0.0
  3
KOZU0014
  1

  0
LWPOLYLINE
  5
9F
330
9D
100
AcDbEntity
  8
0
  6
Continuous
 62
     7
100
AcDbPolyline
 90
        2
 70
     1
 43
0.4000000100000002
 10
-0.2
 20
0.0
 42
1.0
 10
0.2
 20
0.0
 42
1.0
  0
ENDBLK
  5
A3
330
9D
100
AcDbEntity
  8
0
  6
Continuous
100
AcDbBlockEnd
  0
BLOCK
  5
A5
330
A4
100
AcDbEntity
  8
0
  6
Continuous
100
AcDbBlockBegin
  2
KOZU0015
 70
     0
 10
0.0
 20
0.0
 30
0.0
  3
KOZU0015
  1

  0
LWPOLYLINE
  5
A6
330
A4
100
AcDbEntity
  8
0
  6
Continuous
 62
     7
100
AcDbPolyline
 90
        2
 70
     1
 43
0.4000000100000002
 10
-0.2
 20
0.0
 42
1.0
 10
0.2
 20
0.0
 42
1.0
  0
ENDBLK
  5
AA
330
A4
100
AcDbEntity
  8
0
  6
Continuous
100
AcDbBlockEnd
  0
BLOCK
  5
AC
330
AB
100
AcDbEntity
  8
0
  6
Continuous
100
AcDbBlockBegin
  2
KOZU0016
 70
     0
 10
0.0
 20
0.0
 30
0.0
  3
KOZU0016
  1

  0
LWPOLYLINE
  5
AD
330
AB
100
AcDbEntity
  8
0
  6
Continuous
 62
     7
100
AcDbPolyline
 90
        2
 70
     1
 43
0.4000000100000002
 10
-0.2
 20
0.0
 42
1.0
 10
0.2
 20
0.0
 42
1.0
  0
ENDBLK
  5
B1
330
AB
100
AcDbEntity
  8
0
  6
Continuous
100
AcDbBlockEnd
  0
BLOCK
  5
B3
330
B2
100
AcDbEntity
  8
0
  6
Continuous
100
AcDbBlockBegin
  2
KOZU0017
 70
     0
 10
0.0
 20
0.0
 30
0.0
  3
KOZU0017
  1

  0
LWPOLYLINE
  5
B4
330
B2
100
AcDbEntity
  8
0
  6
Continuous
 62
     7
100
AcDbPolyline
 90
        2
 70
     1
 43
0.4000000100000002
 10
-0.2
 20
0.0
 42
1.0
 10
0.2
 20
0.0
 42
1.0
  0
ENDBLK
  5
B8
330
B2
100
AcDbEntity
  8
0
  6
Continuous
100
AcDbBlockEnd
  0
BLOCK
  5
BA
330
B9
100
AcDbEntity
  8
0
  6
Continuous
100
AcDbBlockBegin
  2
KOZU0018
 70
     0
 10
0.0
 20
0.0
 30
0.0
  3
KOZU0018
  1

  0
LWPOLYLINE
  5
BB
330
B9
100
AcDbEntity
  8
0
  6
Continuous
 62
     7
100
AcDbPolyline
 90
        2
 70
     1
 43
0.4000000100000002
 10
-0.2
 20
0.0
 42
1.0
 10
0.2
 20
0.0
 42
1.0
  0
ENDBLK
  5
BF
330
B9
100
AcDbEntity
  8
0
  6
Continuous
100
AcDbBlockEnd
  0
BLOCK
  5
C1
330
C0
100
AcDbEntity
  8
0
  6
Continuous
100
AcDbBlockBegin
  2
KOZU0019
 70
     0
 10
0.0
 20
0.0
 30
0.0
  3
KOZU0019
  1

  0
LWPOLYLINE
  5
C2
330
C0
100
AcDbEntity
  8
0
  6
Continuous
 62
     7
100
AcDbPolyline
 90
        2
 70
     1
 43
0.4000000100000002
 10
-0.2
 20
0.0
 42
1.0
 10
0.2
 20
0.0
 42
1.0
  0
ENDBLK
  5
C6
330
C0
100
AcDbEntity
  8
0
  6
Continuous
100
AcDbBlockEnd
  0
BLOCK
  5
C8
330
C7
100
AcDbEntity
  8
0
  6
Continuous
100
AcDbBlockBegin
  2
KOZU0020
 70
     0
 10
0.0
 20
0.0
 30
0.0
  3
KOZU0020
  1

  0
LWPOLYLINE
  5
C9
330
C7
100
AcDbEntity
  8
0
  6
Continuous
 62
     7
100
AcDbPolyline
 90
        2
 70
     1
 43
0.4000000100000002
 10
-0.2
 20
0.0
 42
1.0
 10
0.2
 20
0.0
 42
1.0
  0
ENDBLK
  5
CD
330
C7
100
AcDbEntity
  8
0
  6
Continuous
100
AcDbBlockEnd
  0
BLOCK
  5
CF
330
CE
100
AcDbEntity
  8
0
  6
Continuous
100
AcDbBlockBegin
  2
KOZU0021
 70
     0
 10
0.0
 20
0.0
 30
0.0
  3
KOZU0021
  1

  0
LWPOLYLINE
  5
D0
330
CE
100
AcDbEntity
  8
0
  6
Continuous
 62
     7
100
AcDbPolyline
 90
        2
 70
     1
 43
0.4000000100000002
 10
-0.2
 20
0.0
 42
1.0
 10
0.2
 20
0.0
 42
1.0
  0
ENDBLK
  5
D4
330
CE
100
AcDbEntity
  8
0
  6
Continuous
100
AcDbBlockEnd
  0
BLOCK
  5
D6
330
D5
100
AcDbEntity
  8
0
  6
Continuous
100
AcDbBlockBegin
  2
KOZU0022
 70
     0
 10
0.0
 20
0.0
 30
0.0
  3
KOZU0022
  1

  0
LWPOLYLINE
  5
D7
330
D5
100
AcDbEntity
  8
0
  6
Continuous
 62
     7
100
AcDbPolyline
 90
        2
 70
     1
 43
0.4000000100000002
 10
-0.2
 20
0.0
 42
1.0
 10
0.2
 20
0.0
 42
1.0
  0
ENDBLK
  5
DB
330
D5
100
AcDbEntity
  8
0
  6
Continuous
100
AcDbBlockEnd
  0
BLOCK
  5
DD
330
DC
100
AcDbEntity
  8
0
  6
Continuous
100
AcDbBlockBegin
  2
KOZU0023
 70
     0
 10
0.0
 20
0.0
 30
0.0
  3
KOZU0023
  1

  0
LWPOLYLINE
  5
DE
330
DC
100
AcDbEntity
  8
0
  6
Continuous
 62
     7
100
AcDbPolyline
 90
        2
 70
     1
 43
0.4000000100000002
 10
-0.2
 20
0.0
 42
1.0
 10
0.2
 20
0.0
 42
1.0
  0
ENDBLK
  5
E2
330
DC
100
AcDbEntity
  8
0
  6
Continuous
100
AcDbBlockEnd
  0
BLOCK
  5
E4
330
E3
100
AcDbEntity
  8
0
  6
Continuous
100
AcDbBlockBegin
  2
KOZU0024
 70
     0
 10
0.0
 20
0.0
 30
0.0
  3
KOZU0024
  1

  0
LWPOLYLINE
  5
E5
330
E3
100
AcDbEntity
  8
0
  6
Continuous
 62
     7
100
AcDbPolyline
 90
        2
 70
     1
 43
0.4000000100000002
 10
-0.2
 20
0.0
 42
1.0
 10
0.2
 20
0.0
 42
1.0
  0
ENDBLK
  5
E9
330
E3
100
AcDbEntity
  8
0
  6
Continuous
100
AcDbBlockEnd
  0
BLOCK
  5
EB
330
EA
100
AcDbEntity
  8
0
  6
Continuous
100
AcDbBlockBegin
  2
KOZU0025
 70
     0
 10
0.0
 20
0.0
 30
0.0
  3
KOZU0025
  1

  0
LWPOLYLINE
  5
EC
330
EA
100
AcDbEntity
  8
0
  6
Continuous
 62
     7
100
AcDbPolyline
 90
        2
 70
     1
 43
0.4000000100000002
 10
-0.2
 20
0.0
 42
1.0
 10
0.2
 20
0.0
 42
1.0
  0
ENDBLK
  5
F0
330
EA
100
AcDbEntity
  8
0
  6
Continuous
100
AcDbBlockEnd
  0
BLOCK
  5
F2
330
F1
100
AcDbEntity
  8
0
  6
Continuous
100
AcDbBlockBegin
  2
KOZU0026
 70
     0
 10
0.0
 20
0.0
 30
0.0
  3
KOZU0026
  1

  0
LWPOLYLINE
  5
F3
330
F1
100
AcDbEntity
  8
0
  6
Continuous
 62
     7
100
AcDbPolyline
 90
        2
 70
     1
 43
0.4000000100000002
 10
-0.2
 20
0.0
 42
1.0
 10
0.2
 20
0.0
 42
1.0
  0
ENDBLK
  5
F7
330
F1
100
AcDbEntity
  8
0
  6
Continuous
100
AcDbBlockEnd
  0
BLOCK
  5
F9
330
F8
100
AcDbEntity
  8
0
  6
Continuous
100
AcDbBlockBegin
  2
KOZU0027
 70
     0
 10
0.0
 20
0.0
 30
0.0
  3
KOZU0027
  1

  0
LWPOLYLINE
  5
FA
330
F8
100
AcDbEntity
  8
0
  6
Continuous
 62
     7
100
AcDbPolyline
 90
        2
 70
     1
 43
0.4000000100000002
 10
-0.2
 20
0.0
 42
1.0
 10
0.2
 20
0.0
 42
1.0
  0
ENDBLK
  5
FE
330
F8
100
AcDbEntity
  8
0
  6
Continuous
100
AcDbBlockEnd
  0
BLOCK
  5
100
330
FF
100
AcDbEntity
  8
0
  6
Continuous
100
AcDbBlockBegin
  2
KOZU0028
 70
     0
 10
0.0
 20
0.0
 30
0.0
  3
KOZU0028
  1

  0
LWPOLYLINE
  5
101
330
FF
100
AcDbEntity
  8
0
  6
Continuous
 62
     7
100
AcDbPolyline
 90
        2
 70
     1
 43
0.4000000100000002
 10
-0.2
 20
0.0
 42
1.0
 10
0.2
 20
0.0
 42
1.0
  0
ENDBLK
  5
105
330
FF
100
AcDbEntity
  8
0
  6
Continuous
100
AcDbBlockEnd
  0
BLOCK
  5
107
330
106
100
AcDbEntity
  8
0
  6
Continuous
100
AcDbBlockBegin
  2
KOZU0029
 70
     0
 10
0.0
 20
0.0
 30
0.0
  3
KOZU0029
  1

  0
LWPOLYLINE
  5
108
330
106
100
AcDbEntity
  8
0
  6
Continuous
 62
     7
100
AcDbPolyline
 90
        2
 70
     1
 43
0.4000000100000002
 10
-0.2
 20
0.0
 42
1.0
 10
0.2
 20
0.0
 42
1.0
  0
ENDBLK
  5
10C
330
106
100
AcDbEntity
  8
0
  6
Continuous
100
AcDbBlockEnd
  0
BLOCK
  5
10E
330
10D
100
AcDbEntity
  8
0
  6
Continuous
100
AcDbBlockBegin
  2
KOZU0030
 70
     0
 10
0.0
 20
0.0
 30
0.0
  3
KOZU0030
  1

  0
LWPOLYLINE
  5
10F
330
10D
100
AcDbEntity
  8
0
  6
Continuous
 62
     7
100
AcDbPolyline
 90
        2
 70
     1
 43
0.4000000100000002
 10
-0.2
 20
0.0
 42
1.0
 10
0.2
 20
0.0
 42
1.0
  0
ENDBLK
  5
113
330
10D
100
AcDbEntity
  8
0
  6
Continuous
100
AcDbBlockEnd
  0
BLOCK
  5
115
330
114
100
AcDbEntity
  8
0
  6
Continuous
100
AcDbBlockBegin
  2
KOZU0031
 70
     0
 10
0.0
 20
0.0
 30
0.0
  3
KOZU0031
  1

  0
LWPOLYLINE
  5
116
330
114
100
AcDbEntity
  8
0
  6
Continuous
 62
     7
100
AcDbPolyline
 90
        2
 70
     1
 43
0.4000000100000002
 10
-0.2
 20
0.0
 42
1.0
 10
0.2
 20
0.0
 42
1.0
  0
ENDBLK
  5
11A
330
114
100
AcDbEntity
  8
0
  6
Continuous
100
AcDbBlockEnd
  0
BLOCK
  5
11C
330
11B
100
AcDbEntity
  8
0
  6
Continuous
100
AcDbBlockBegin
  2
KOZU0032
 70
     0
 10
0.0
 20
0.0
 30
0.0
  3
KOZU0032
  1

  0
LWPOLYLINE
  5
11D
330
11B
100
AcDbEntity
  8
0
  6
Continuous
 62
     7
100
AcDbPolyline
 90
        2
 70
     1
 43
0.4000000100000002
 10
-0.2
 20
0.0
 42
1.0
 10
0.2
 20
0.0
 42
1.0
  0
ENDBLK
  5
121
330
11B
100
AcDbEntity
  8
0
  6
Continuous
100
AcDbBlockEnd
  0
BLOCK
  5
123
330
122
100
AcDbEntity
  8
0
  6
Continuous
100
AcDbBlockBegin
  2
KOZU0033
 70
     0
 10
0.0
 20
0.0
 30
0.0
  3
KOZU0033
  1

  0
LWPOLYLINE
  5
124
330
122
100
AcDbEntity
  8
0
  6
Continuous
 62
     7
100
AcDbPolyline
 90
        2
 70
     1
 43
0.4000000100000002
 10
-0.2
 20
0.0
 42
1.0
 10
0.2
 20
0.0
 42
1.0
  0
ENDBLK
  5
128
330
122
100
AcDbEntity
  8
0
  6
Continuous
100
AcDbBlockEnd
  0
BLOCK
  5
12A
330
129
100
AcDbEntity
  8
0
  6
Continuous
100
AcDbBlockBegin
  2
KOZU0034
 70
     0
 10
0.0
 20
0.0
 30
0.0
  3
KOZU0034
  1

  0
LWPOLYLINE
  5
12B
330
129
100
AcDbEntity
  8
0
  6
Continuous
 62
     7
100
AcDbPolyline
 90
        2
 70
     1
 43
0.4000000100000002
 10
-0.2
 20
0.0
 42
1.0
 10
0.2
 20
0.0
 42
1.0
  0
ENDBLK
  5
12F
330
129
100
AcDbEntity
  8
0
  6
Continuous
100
AcDbBlockEnd
  0
BLOCK
  5
131
330
130
100
AcDbEntity
  8
0
  6
Continuous
100
AcDbBlockBegin
  2
KOZU0035
 70
     0
 10
0.0
 20
0.0
 30
0.0
  3
KOZU0035
  1

  0
LWPOLYLINE
  5
132
330
130
100
AcDbEntity
  8
0
  6
Continuous
 62
     7
100
AcDbPolyline
 90
        2
 70
     1
 43
0.4000000100000002
 10
-0.2
 20
0.0
 42
1.0
 10
0.2
 20
0.0
 42
1.0
  0
ENDBLK
  5
136
330
130
100
AcDbEntity
  8
0
  6
Continuous
100
AcDbBlockEnd
  0
BLOCK
  5
138
330
137
100
AcDbEntity
  8
0
  6
Continuous
100
AcDbBlockBegin
  2
KOZU0036
 70
     0
 10
0.0
 20
0.0
 30
0.0
  3
KOZU0036
  1

  0
LWPOLYLINE
  5
139
330
137
100
AcDbEntity
  8
0
  6
Continuous
 62
     7
100
AcDbPolyline
 90
        2
 70
     1
 43
0.4000000100000002
 10
-0.2
 20
0.0
 42
1.0
 10
0.2
 20
0.0
 42
1.0
  0
ENDBLK
  5
13D
330
137
100
AcDbEntity
  8
0
  6
Continuous
100
AcDbBlockEnd
  0
BLOCK
  5
13F
330
13E
100
AcDbEntity
  8
0
  6
Continuous
100
AcDbBlockBegin
  2
KOZU0037
 70
     0
 10
0.0
 20
0.0
 30
0.0
  3
KOZU0037
  1

  0
LWPOLYLINE
  5
140
330
13E
100
AcDbEntity
  8
0
  6
Continuous
 62
     7
100
AcDbPolyline
 90
        2
 70
     1
 43
0.4000000100000002
 10
-0.2
 20
0.0
 42
1.0
 10
0.2
 20
0.0
 42
1.0
  0
ENDBLK
  5
144
330
13E
100
AcDbEntity
  8
0
  6
Continuous
100
AcDbBlockEnd
  0
BLOCK
  5
146
330
145
100
AcDbEntity
  8
0
  6
Continuous
100
AcDbBlockBegin
  2
KOZU0038
 70
     0
 10
0.0
 20
0.0
 30
0.0
  3
KOZU0038
  1

  0
LWPOLYLINE
  5
147
330
145
100
AcDbEntity
  8
0
  6
Continuous
 62
     7
100
AcDbPolyline
 90
        2
 70
     1
 43
0.4000000100000002
 10
-0.2
 20
0.0
 42
1.0
 10
0.2
 20
0.0
 42
1.0
  0
ENDBLK
  5
14B
330
145
100
AcDbEntity
  8
0
  6
Continuous
100
AcDbBlockEnd
  0
BLOCK
  5
14D
330
14C
100
AcDbEntity
  8
0
  6
Continuous
100
AcDbBlockBegin
  2
KOZU0039
 70
     0
 10
0.0
 20
0.0
 30
0.0
  3
KOZU0039
  1

  0
LWPOLYLINE
  5
14E
330
14C
100
AcDbEntity
  8
0
  6
Continuous
 62
     7
100
AcDbPolyline
 90
        2
 70
     1
 43
0.4000000100000002
 10
-0.2
 20
0.0
 42
1.0
 10
0.2
 20
0.0
 42
1.0
  0
ENDBLK
  5
152
330
14C
100
AcDbEntity
  8
0
  6
Continuous
100
AcDbBlockEnd
  0
BLOCK
  5
154
330
153
100
AcDbEntity
  8
0
  6
Continuous
100
AcDbBlockBegin
  2
KOZU0040
 70
     0
 10
0.0
 20
0.0
 30
0.0
  3
KOZU0040
  1

  0
LWPOLYLINE
  5
155
330
153
100
AcDbEntity
  8
0
  6
Continuous
 62
     7
100
AcDbPolyline
 90
        2
 70
     1
 43
0.4000000100000002
 10
-0.2
 20
0.0
 42
1.0
 10
0.2
 20
0.0
 42
1.0
  0
ENDBLK
  5
159
330
153
100
AcDbEntity
  8
0
  6
Continuous
100
AcDbBlockEnd
  0
BLOCK
  5
15B
330
15A
100
AcDbEntity
  8
0
  6
Continuous
100
AcDbBlockBegin
  2
KOZU0041
 70
     0
 10
0.0
 20
0.0
 30
0.0
  3
KOZU0041
  1

  0
LWPOLYLINE
  5
15C
330
15A
100
AcDbEntity
  8
0
  6
Continuous
 62
     7
100
AcDbPolyline
 90
        2
 70
     1
 43
0.4000000100000002
 10
-0.2
 20
0.0
 42
1.0
 10
0.2
 20
0.0
 42
1.0
  0
ENDBLK
  5
160
330
15A
100
AcDbEntity
  8
0
  6
Continuous
100
AcDbBlockEnd
  0
BLOCK
  5
162
330
161
100
AcDbEntity
  8
0
  6
Continuous
100
AcDbBlockBegin
  2
KOZU0042
 70
     0
 10
0.0
 20
0.0
 30
0.0
  3
KOZU0042
  1

  0
LWPOLYLINE
  5
163
330
161
100
AcDbEntity
  8
0
  6
Continuous
 62
     7
100
AcDbPolyline
 90
        2
 70
     1
 43
0.4000000100000002
 10
-0.2
 20
0.0
 42
1.0
 10
0.2
 20
0.0
 42
1.0
  0
ENDBLK
  5
167
330
161
100
AcDbEntity
  8
0
  6
Continuous
100
AcDbBlockEnd
  0
BLOCK
  5
169
330
168
100
AcDbEntity
  8
0
  6
Continuous
100
AcDbBlockBegin
  2
KOZU0043
 70
     0
 10
0.0
 20
0.0
 30
0.0
  3
KOZU0043
  1

  0
LWPOLYLINE
  5
16A
330
168
100
AcDbEntity
  8
0
  6
Continuous
 62
     7
100
AcDbPolyline
 90
        2
 70
     1
 43
0.4000000100000002
 10
-0.2
 20
0.0
 42
1.0
 10
0.2
 20
0.0
 42
1.0
  0
ENDBLK
  5
16E
330
168
100
AcDbEntity
  8
0
  6
Continuous
100
AcDbBlockEnd
  0
BLOCK
  5
170
330
16F
100
AcDbEntity
  8
0
  6
Continuous
100
AcDbBlockBegin
  2
KOZU0044
 70
     0
 10
0.0
 20
0.0
 30
0.0
  3
KOZU0044
  1

  0
LWPOLYLINE
  5
171
330
16F
100
AcDbEntity
  8
0
  6
Continuous
 62
     7
100
AcDbPolyline
 90
        2
 70
     1
 43
0.4000000100000002
 10
-0.2
 20
0.0
 42
1.0
 10
0.2
 20
0.0
 42
1.0
  0
ENDBLK
  5
175
330
16F
100
AcDbEntity
  8
0
  6
Continuous
100
AcDbBlockEnd
  0
BLOCK
  5
177
330
176
100
AcDbEntity
  8
0
  6
Continuous
100
AcDbBlockBegin
  2
KOZU0045
 70
     0
 10
0.0
 20
0.0
 30
0.0
  3
KOZU0045
  1

  0
LWPOLYLINE
  5
178
330
176
100
AcDbEntity
  8
0
  6
Continuous
 62
     7
100
AcDbPolyline
 90
        2
 70
     1
 43
0.4000000100000002
 10
-0.2
 20
0.0
 42
1.0
 10
0.2
 20
0.0
 42
1.0
  0
ENDBLK
  5
17C
330
176
100
AcDbEntity
  8
0
  6
Continuous
100
AcDbBlockEnd
  0
BLOCK
  5
17E
330
17D
100
AcDbEntity
  8
0
  6
Continuous
100
AcDbBlockBegin
  2
KOZU0046
 70
     0
 10
0.0
 20
0.0
 30
0.0
  3
KOZU0046
  1

  0
LWPOLYLINE
  5
17F
330
17D
100
AcDbEntity
  8
0
  6
Continuous
 62
     7
100
AcDbPolyline
 90
        2
 70
     1
 43
0.4000000100000002
 10
-0.2
 20
0.0
 42
1.0
 10
0.2
 20
0.0
 42
1.0
  0
ENDBLK
  5
183
330
17D
100
AcDbEntity
  8
0
  6
Continuous
100
AcDbBlockEnd
  0
BLOCK
  5
185
330
184
100
AcDbEntity
  8
0
  6
Continuous
100
AcDbBlockBegin
  2
KOZU0047
 70
     0
 10
0.0
 20
0.0
 30
0.0
  3
KOZU0047
  1

  0
LWPOLYLINE
  5
186
330
184
100
AcDbEntity
  8
0
  6
Continuous
 62
     7
100
AcDbPolyline
 90
        2
 70
     1
 43
0.4000000100000002
 10
-0.2
 20
0.0
 42
1.0
 10
0.2
 20
0.0
 42
1.0
  0
ENDBLK
  5
18A
330
184
100
AcDbEntity
  8
0
  6
Continuous
100
AcDbBlockEnd
  0
BLOCK
  5
18C
330
18B
100
AcDbEntity
  8
0
  6
Continuous
100
AcDbBlockBegin
  2
KOZU0048
 70
     0
 10
0.0
 20
0.0
 30
0.0
  3
KOZU0048
  1

  0
LWPOLYLINE
  5
18D
330
18B
100
AcDbEntity
  8
0
  6
Continuous
 62
     7
100
AcDbPolyline
 90
        2
 70
     1
 43
0.4000000100000002
 10
-0.2
 20
0.0
 42
1.0
 10
0.2
 20
0.0
 42
1.0
  0
ENDBLK
  5
191
330
18B
100
AcDbEntity
  8
0
  6
Continuous
100
AcDbBlockEnd
  0
BLOCK
  5
193
330
192
100
AcDbEntity
  8
0
  6
Continuous
100
AcDbBlockBegin
  2
KOZU0049
 70
     0
 10
0.0
 20
0.0
 30
0.0
  3
KOZU0049
  1

  0
LWPOLYLINE
  5
194
330
192
100
AcDbEntity
  8
0
  6
Continuous
 62
     7
100
AcDbPolyline
 90
        2
 70
     1
 43
0.4000000100000002
 10
-0.2
 20
0.0
 42
1.0
 10
0.2
 20
0.0
 42
1.0
  0
ENDBLK
  5
198
330
192
100
AcDbEntity
  8
0
  6
Continuous
100
AcDbBlockEnd
  0
BLOCK
  5
19A
330
199
100
AcDbEntity
  8
0
  6
Continuous
100
AcDbBlockBegin
  2
KOZU0050
 70
     0
 10
0.0
 20
0.0
 30
0.0
  3
KOZU0050
  1

  0
LWPOLYLINE
  5
19B
330
199
100
AcDbEntity
  8
0
  6
Continuous
 62
     7
100
AcDbPolyline
 90
        2
 70
     1
 43
0.4000000100000002
 10
-0.2
 20
0.0
 42
1.0
 10
0.2
 20
0.0
 42
1.0
  0
ENDBLK
  5
19F
330
199
100
AcDbEntity
  8
0
  6
Continuous
100
AcDbBlockEnd
  0
BLOCK
  5
1A1
330
1A0
100
AcDbEntity
  8
0
  6
Continuous
100
AcDbBlockBegin
  2
KOZU0051
 70
     0
 10
0.0
 20
0.0
 30
0.0
  3
KOZU0051
  1

  0
LWPOLYLINE
  5
1A2
330
1A0
100
AcDbEntity
  8
0
  6
Continuous
 62
     7
100
AcDbPolyline
 90
        2
 70
     1
 43
0.4000000100000002
 10
-0.2
 20
0.0
 42
1.0
 10
0.2
 20
0.0
 42
1.0
  0
ENDBLK
  5
1A6
330
1A0
100
AcDbEntity
  8
0
  6
Continuous
100
AcDbBlockEnd
  0
BLOCK
  5
1A8
330
1A7
100
AcDbEntity
  8
0
  6
Continuous
100
AcDbBlockBegin
  2
KOZU0052
 70
     0
 10
0.0
 20
0.0
 30
0.0
  3
KOZU0052
  1

  0
LWPOLYLINE
  5
1A9
330
1A7
100
AcDbEntity
  8
0
  6
Continuous
 62
     7
100
AcDbPolyline
 90
        2
 70
     1
 43
0.4000000100000002
 10
-0.2
 20
0.0
 42
1.0
 10
0.2
 20
0.0
 42
1.0
  0
ENDBLK
  5
1AD
330
1A7
100
AcDbEntity
  8
0
  6
Continuous
100
AcDbBlockEnd
  0
BLOCK
  5
1AF
330
1AE
100
AcDbEntity
  8
0
  6
Continuous
100
AcDbBlockBegin
  2
KOZU0053
 70
     0
 10
0.0
 20
0.0
 30
0.0
  3
KOZU0053
  1

  0
LWPOLYLINE
  5
1B0
330
1AE
100
AcDbEntity
  8
0
  6
Continuous
 62
     7
100
AcDbPolyline
 90
        2
 70
     1
 43
0.4000000100000002
 10
-0.2
 20
0.0
 42
1.0
 10
0.2
 20
0.0
 42
1.0
  0
ENDBLK
  5
1B4
330
1AE
100
AcDbEntity
  8
0
  6
Continuous
100
AcDbBlockEnd
  0
BLOCK
  5
1B6
330
1B5
100
AcDbEntity
  8
0
  6
Continuous
100
AcDbBlockBegin
  2
KOZU0054
 70
     0
 10
0.0
 20
0.0
 30
0.0
  3
KOZU0054
  1

  0
LWPOLYLINE
  5
1B7
330
1B5
100
AcDbEntity
  8
0
  6
Continuous
 62
     7
100
AcDbPolyline
 90
        2
 70
     1
 43
0.4000000100000002
 10
-0.2
 20
0.0
 42
1.0
 10
0.2
 20
0.0
 42
1.0
  0
ENDBLK
  5
1BB
330
1B5
100
AcDbEntity
  8
0
  6
Continuous
100
AcDbBlockEnd
  0
BLOCK
  5
1BD
330
1BC
100
AcDbEntity
  8
0
  6
Continuous
100
AcDbBlockBegin
  2
KOZU0055
 70
     0
 10
0.0
 20
0.0
 30
0.0
  3
KOZU0055
  1

  0
LWPOLYLINE
  5
1BE
330
1BC
100
AcDbEntity
  8
0
  6
Continuous
 62
     7
100
AcDbPolyline
 90
        2
 70
     1
 43
0.4000000100000002
 10
-0.2
 20
0.0
 42
1.0
 10
0.2
 20
0.0
 42
1.0
  0
ENDBLK
  5
1C2
330
1BC
100
AcDbEntity
  8
0
  6
Continuous
100
AcDbBlockEnd
  0
BLOCK
  5
1C4
330
1C3
100
AcDbEntity
  8
0
  6
Continuous
100
AcDbBlockBegin
  2
KOZU0056
 70
     0
 10
0.0
 20
0.0
 30
0.0
  3
KOZU0056
  1

  0
LWPOLYLINE
  5
1C5
330
1C3
100
AcDbEntity
  8
0
  6
Continuous
 62
     7
100
AcDbPolyline
 90
        2
 70
     1
 43
0.4000000100000002
 10
-0.2
 20
0.0
 42
1.0
 10
0.2
 20
0.0
 42
1.0
  0
ENDBLK
  5
1C9
330
1C3
100
AcDbEntity
  8
0
  6
Continuous
100
AcDbBlockEnd
  0
BLOCK
  5
1CB
330
1CA
100
AcDbEntity
  8
0
  6
Continuous
100
AcDbBlockBegin
  2
KOZU0057
 70
     0
 10
0.0
 20
0.0
 30
0.0
  3
KOZU0057
  1

  0
LWPOLYLINE
  5
1CC
330
1CA
100
AcDbEntity
  8
0
  6
Continuous
 62
     7
100
AcDbPolyline
 90
        2
 70
     1
 43
0.4000000100000002
 10
-0.2
 20
0.0
 42
1.0
 10
0.2
 20
0.0
 42
1.0
  0
ENDBLK
  5
1D0
330
1CA
100
AcDbEntity
  8
0
  6
Continuous
100
AcDbBlockEnd
  0
BLOCK
  5
1D2
330
1D1
100
AcDbEntity
  8
0
  6
Continuous
100
AcDbBlockBegin
  2
KOZU0058
 70
     0
 10
0.0
 20
0.0
 30
0.0
  3
KOZU0058
  1

  0
LWPOLYLINE
  5
1D3
330
1D1
100
AcDbEntity
  8
0
  6
Continuous
 62
     7
100
AcDbPolyline
 90
        2
 70
     1
 43
0.4000000100000002
 10
-0.2
 20
0.0
 42
1.0
 10
0.2
 20
0.0
 42
1.0
  0
ENDBLK
  5
1D7
330
1D1
100
AcDbEntity
  8
0
  6
Continuous
100
AcDbBlockEnd
  0
BLOCK
  5
1D9
330
1D8
100
AcDbEntity
  8
0
  6
Continuous
100
AcDbBlockBegin
  2
KOZU0059
 70
     0
 10
0.0
 20
0.0
 30
0.0
  3
KOZU0059
  1

  0
LWPOLYLINE
  5
1DA
330
1D8
100
AcDbEntity
  8
0
  6
Continuous
 62
     7
100
AcDbPolyline
 90
        2
 70
     1
 43
0.4000000100000002
 10
-0.2
 20
0.0
 42
1.0
 10
0.2
 20
0.0
 42
1.0
  0
ENDBLK
  5
1DE
330
1D8
100
AcDbEntity
  8
0
  6
Continuous
100
AcDbBlockEnd
  0
BLOCK
  5
1E0
330
1DF
100
AcDbEntity
  8
0
  6
Continuous
100
AcDbBlockBegin
  2
KOZU0060
 70
     0
 10
0.0
 20
0.0
 30
0.0
  3
KOZU0060
  1

  0
LWPOLYLINE
  5
1E1
330
1DF
100
AcDbEntity
  8
0
  6
Continuous
 62
     7
100
AcDbPolyline
 90
        2
 70
     1
 43
0.4000000100000002
 10
-0.2
 20
0.0
 42
1.0
 10
0.2
 20
0.0
 42
1.0
  0
ENDBLK
  5
1E5
330
1DF
100
AcDbEntity
  8
0
  6
Continuous
100
AcDbBlockEnd
  0
BLOCK
  5
1E7
330
1E6
100
AcDbEntity
  8
0
  6
Continuous
100
AcDbBlockBegin
  2
KOZU0061
 70
     0
 10
0.0
 20
0.0
 30
0.0
  3
KOZU0061
  1

  0
LWPOLYLINE
  5
1E8
330
1E6
100
AcDbEntity
  8
0
  6
Continuous
 62
     7
100
AcDbPolyline
 90
        2
 70
     1
 43
0.4000000100000002
 10
-0.2
 20
0.0
 42
1.0
 10
0.2
 20
0.0
 42
1.0
  0
ENDBLK
  5
1EC
330
1E6
100
AcDbEntity
  8
0
  6
Continuous
100
AcDbBlockEnd
  0
BLOCK
  5
1EE
330
1ED
100
AcDbEntity
  8
0
  6
Continuous
100
AcDbBlockBegin
  2
KOZU0062
 70
     0
 10
0.0
 20
0.0
 30
0.0
  3
KOZU0062
  1

  0
LWPOLYLINE
  5
1EF
330
1ED
100
AcDbEntity
  8
0
  6
Continuous
 62
     7
100
AcDbPolyline
 90
        2
 70
     1
 43
0.4000000100000002
 10
-0.2
 20
0.0
 42
1.0
 10
0.2
 20
0.0
 42
1.0
  0
ENDBLK
  5
1F3
330
1ED
100
AcDbEntity
  8
0
  6
Continuous
100
AcDbBlockEnd
  0
BLOCK
  5
1F5
330
1F4
100
AcDbEntity
  8
0
  6
Continuous
100
AcDbBlockBegin
  2
KOZU0063
 70
     0
 10
0.0
 20
0.0
 30
0.0
  3
KOZU0063
  1

  0
LWPOLYLINE
  5
1F6
330
1F4
100
AcDbEntity
  8
0
  6
Continuous
 62
     7
100
AcDbPolyline
 90
        2
 70
     1
 43
0.4000000100000002
 10
-0.2
 20
0.0
 42
1.0
 10
0.2
 20
0.0
 42
1.0
  0
ENDBLK
  5
1FA
330
1F4
100
AcDbEntity
  8
0
  6
Continuous
100
AcDbBlockEnd
  0
BLOCK
  5
1FC
330
1FB
100
AcDbEntity
  8
0
  6
Continuous
100
AcDbBlockBegin
  2
KOZU0064
 70
     0
 10
0.0
 20
0.0
 30
0.0
  3
KOZU0064
  1

  0
LWPOLYLINE
  5
1FD
330
1FB
100
AcDbEntity
  8
0
  6
Continuous
 62
     7
100
AcDbPolyline
 90
        2
 70
     1
 43
0.4000000100000002
 10
-0.2
 20
0.0
 42
1.0
 10
0.2
 20
0.0
 42
1.0
  0
ENDBLK
  5
201
330
1FB
100
AcDbEntity
  8
0
  6
Continuous
100
AcDbBlockEnd
  0
BLOCK
  5
507
330
505
100
AcDbEntity
  8
0
  6
Continuous
100
AcDbBlockBegin
  2
GENAXEH
 70
     0
 10
0.0
 20
0.0
 30
0.0
  3
GENAXEH
  1

  0
LINE
  5
506
330
505
100
AcDbEntity
  8
0
100
AcDbLine
 10
-1.0
 20
0.0
 30
0.0
 11
1.0
 21
0.0
 31
0.0
  0
ENDBLK
  5
508
330
505
100
AcDbEntity
  8
0
  6
Continuous
100
AcDbBlockEnd
  0
BLOCK
  5
65A
330
659
100
AcDbEntity
  8
0
100
AcDbBlockBegin
  2
_ACMFILLEDHALF
 70
     0
 10
0.0
 20
0.0
 30
0.0
  3
_ACMFILLEDHALF
  1

  0
TRACE
  5
65B
330
659
100
AcDbEntity
  8
0
 62
     0
100
AcDbTrace
 10
-0.8
 20
0.0
 30
0.0
 11
-1.0
 21
0.166666666
 31
0.0
 12
0.0
 22
0.0
 32
0.0
 13
0.0
 23
0.0
 33
0.0
  0
LINE
  5
65C
330
659
100
AcDbEntity
  8
0
 62
     0
100
AcDbLine
 10
-1.0
 20
0.0
 30
0.0
 11
-0.8
 21
0.0
 31
0.0
  0
ENDBLK
  5
65D
330
659
100
AcDbEntity
  8
0
100
AcDbBlockEnd
  0
ENDSEC
  0
SECTION
  2
ENTITIES
  0
POINT
  5
203
330
36
100
AcDbEntity
  8
0
  6
Continuous
 62
     3
100
AcDbPoint
 10
352.71881
 20
232.54909
 30
0.0
  0
POINT
  5
204
330
36
100
AcDbEntity
  8
0
  6
Continuous
 62
     3
100
AcDbPoint
 10
356.34906
 20
240.23486
 30
0.0
  0
POINT
  5
205
330
36
100
AcDbEntity
  8
0
  6
Continuous
 62
     3
100
AcDbPoint
 10
338.53394
 20
286.39197
 30
0.0
  0
POINT
  5
206
330
36
100
AcDbEntity
  8
0
  6
Continuous
 62
     3
100
AcDbPoint
 10
344.53394
 20
267.39197
 30
0.0
  0
POINT
  5
207
330
36
100
AcDbEntity
  8
0
  6
Continuous
 62
     3
100
AcDbPoint
 10
344.53394
 20
307.39197
 30
0.0
  0
POINT
  5
208
330
36
100
AcDbEntity
  8
0
  6
Continuous
 62
     3
100
AcDbPoint
 10
344.53394
 20
267.39197
 30
0.0
  0
POINT
  5
209
330
36
100
AcDbEntity
  8
0
  6
Continuous
 62
     3
100
AcDbPoint
 10
354.53394
 20
293.89197
 30
0.0
  0
POINT
  5
20A
330
36
100
AcDbEntity
  8
0
  6
Continuous
 62
     3
100
AcDbPoint
 10
354.53394
 20
307.39197
 30
0.0
  0
POINT
  5
20B
330
36
100
AcDbEntity
  8
0
  6
Continuous
 62
     3
100
AcDbPoint
 10
354.53394
 20
293.89197
 30
0.0
  0
POINT
  5
20C
330
36
100
AcDbEntity
  8
0
  6
Continuous
 62
     3
100
AcDbPoint
 10
360.53394
 20
286.39197
 30
0.0
  0
POINT
  5
20D
330
36
100
AcDbEntity
  8
0
  6
Continuous
 62
     3
100
AcDbPoint
 10
360.53394
 20
307.39197
 30
0.0
  0
POINT
  5
20E
330
36
100
AcDbEntity
  8
0
  6
Continuous
 62
     3
100
AcDbPoint
 10
338.53394
 20
297.39197
 30
0.0
  0
POINT
  5
20F
330
36
100
AcDbEntity
  8
0
  6
Continuous
 62
     3
100
AcDbPoint
 10
360.53394
 20
297.39197
 30
0.0
  0
POINT
  5
210
330
36
100
AcDbEntity
  8
0
  6
Continuous
 62
     3
100
AcDbPoint
 10
360.53394
 20
317.39197
 30
0.0
  0
POINT
  5
211
330
36
100
AcDbEntity
  8
0
  6
Continuous
 62
     3
100
AcDbPoint
 10
382.03394
 20
286.39197
 30
0.0
  0
POINT
  5
212
330
36
100
AcDbEntity
  8
0
  6
Continuous
 62
     3
100
AcDbPoint
 10
387.53394
 20
294.64197
 30
0.0
  0
POINT
  5
213
330
36
100
AcDbEntity
  8
0
  6
Continuous
 62
     3
100
AcDbPoint
 10
387.53394
 20
307.39197
 30
0.0
  0
POINT
  5
214
330
36
100
AcDbEntity
  8
0
  6
Continuous
 62
     3
100
AcDbPoint
 10
387.53394
 20
294.64197
 30
0.0
  0
POINT
  5
215
330
36
100
AcDbEntity
  8
0
  6
Continuous
 62
     3
100
AcDbPoint
 10
398.53394
 20
282.64197
 30
0.0
  0
POINT
  5
216
330
36
100
AcDbEntity
  8
0
  6
Continuous
 62
     3
100
AcDbPoint
 10
398.53394
 20
307.39197
 30
0.0
  0
POINT
  5
217
330
36
100
AcDbEntity
  8
0
  6
Continuous
 62
     3
100
AcDbPoint
 10
398.53394
 20
282.64197
 30
0.0
  0
POINT
  5
218
330
36
100
AcDbEntity
  8
0
  6
Continuous
 62
     3
100
AcDbPoint
 10
404.0339399999998
 20
286.39197
 30
0.0
  0
POINT
  5
219
330
36
100
AcDbEntity
  8
0
  6
Continuous
 62
     3
100
AcDbPoint
 10
404.0339399999998
 20
307.39197
 30
0.0
  0
POINT
  5
21A
330
36
100
AcDbEntity
  8
0
  6
Continuous
 62
     3
100
AcDbPoint
 10
382.03394
 20
297.39197
 30
0.0
  0
POINT
  5
21B
330
36
100
AcDbEntity
  8
0
  6
Continuous
 62
     3
100
AcDbPoint
 10
404.0339399999998
 20
297.39197
 30
0.0
  0
POINT
  5
21C
330
36
100
AcDbEntity
  8
0
  6
Continuous
 62
     3
100
AcDbPoint
 10
404.0339399999998
 20
317.39197
 30
0.0
  0
POINT
  5
21D
330
36
100
AcDbEntity
  8
0
  6
Continuous
 62
     3
100
AcDbPoint
 10
395.03394
 20
236.39198
 30
0.0
  0
POINT
  5
21E
330
36
100
AcDbEntity
  8
0
  6
Continuous
 62
     3
100
AcDbPoint
 10
395.03394
 20
242.39198
 30
0.0
  0
POINT
  5
21F
330
36
100
AcDbEntity
  8
0
  6
Continuous
 62
     3
100
AcDbPoint
 10
419.03394
 20
242.39198
 30
0.0
  0
POINT
  5
220
330
36
100
AcDbEntity
  8
0
  6
Continuous
 62
     3
100
AcDbPoint
 10
343.44769
 20
297.39197
 30
0.0
  0
POINT
  5
221
330
36
100
AcDbEntity
  8
0
  6
Continuous
 62
     3
100
AcDbPoint
 10
349.03394
 20
288.39197
 30
0.0
  0
POINT
  5
222
330
36
100
AcDbEntity
  8
0
  6
Continuous
 62
     3
100
AcDbPoint
 10
328.53394
 20
288.39197
 30
0.0
  0
POINT
  5
223
330
36
100
AcDbEntity
  8
0
  6
Continuous
 62
     3
100
AcDbPoint
 10
349.03394
 20
288.39197
 30
0.0
  0
POINT
  5
224
330
36
100
AcDbEntity
  8
0
  6
Continuous
 62
     3
100
AcDbPoint
 10
349.03394
 20
236.39198
 30
0.0
  0
POINT
  5
225
330
36
100
AcDbEntity
  8
0
  6
Continuous
 62
     3
100
AcDbPoint
 10
328.53394
 20
236.39198
 30
0.0
  0
POINT
  5
226
330
36
100
AcDbEntity
  8
0
  6
Continuous
 62
     3
100
AcDbPoint
 10
338.53394
 20
297.39197
 30
0.0
  0
POINT
  5
227
330
36
100
AcDbEntity
  8
0
  6
Continuous
 62
     3
100
AcDbPoint
 10
344.48169
 20
227.39198
 30
0.0
  0
POINT
  5
228
330
36
100
AcDbEntity
  8
0
  6
Continuous
 62
     3
100
AcDbPoint
 10
318.53394
 20
227.39198
 30
0.0
  0
POINT
  5
229
330
36
100
AcDbEntity
  8
0
  6
Continuous
 62
     3
100
AcDbPoint
 10
406.03394
 20
273.39197
 30
0.0
  0
POINT
  5
22A
330
36
100
AcDbEntity
  8
0
  6
Continuous
 62
     3
100
AcDbPoint
 10
406.03394
 20
251.39198
 30
0.0
  0
POINT
  5
22B
330
36
100
AcDbEntity
  8
0
  6
Continuous
 62
     3
100
AcDbPoint
 10
482.53394
 20
251.39198
 30
0.0
  0
POINT
  5
22C
330
36
100
AcDbEntity
  8
0
  6
Continuous
 62
     3
100
AcDbPoint
 10
395.03394
 20
285.39197
 30
0.0
  0
POINT
  5
22D
330
36
100
AcDbEntity
  8
0
  6
Continuous
 62
     3
100
AcDbPoint
 10
395.03394
 20
239.39198
 30
0.0
  0
POINT
  5
22E
330
36
100
AcDbEntity
  8
0
  6
Continuous
 62
     3
100
AcDbPoint
 10
492.53394
 20
239.39198
 30
0.0
  0
POINT
  5
22F
330
36
100
AcDbEntity
  8
0
  6
Continuous
 62
     3
100
AcDbPoint
 10
395.03394
 20
285.39197
 30
0.0
  0
POINT
  5
230
330
36
100
AcDbEntity
  8
0
  6
Continuous
 62
     3
100
AcDbPoint
 10
403.9540999999998
 20
297.39197
 30
0.0
  0
POINT
  5
231
330
36
100
AcDbEntity
  8
0
  6
Continuous
 62
     3
100
AcDbPoint
 10
492.53394
 20
297.39197
 30
0.0
  0
POINT
  5
232
330
36
100
AcDbEntity
  8
0
  6
Continuous
 62
     3
100
AcDbPoint
 10
404.2169499999998
 20
227.39198
 30
0.0
  0
POINT
  5
233
330
36
100
AcDbEntity
  8
0
  6
Continuous
 62
     3
100
AcDbPoint
 10
395.03394
 20
239.39198
 30
0.0
  0
POINT
  5
234
330
36
100
AcDbEntity
  8
0
  6
Continuous
 62
     3
100
AcDbPoint
 10
492.53394
 20
239.39198
 30
0.0
  0
POINT
  5
235
330
36
100
AcDbEntity
  8
0
  6
Continuous
 62
     3
100
AcDbPoint
 10
406.03394
 20
273.39197
 30
0.0
  0
POINT
  5
236
330
36
100
AcDbEntity
  8
0
  6
Continuous
 62
     3
100
AcDbPoint
 10
396.4762
 20
297.39197
 30
0.0
  0
POINT
  5
237
330
36
100
AcDbEntity
  8
0
  6
Continuous
 62
     3
100
AcDbPoint
 10
482.53394
 20
297.39197
 30
0.0
  0
POINT
  5
238
330
36
100
AcDbEntity
  8
0
  6
Continuous
 62
     3
100
AcDbPoint
 10
397.22073
 20
227.39198
 30
0.0
  0
POINT
  5
239
330
36
100
AcDbEntity
  8
0
  6
Continuous
 62
     3
100
AcDbPoint
 10
406.03394
 20
251.39198
 30
0.0
  0
POINT
  5
23A
330
36
100
AcDbEntity
  8
0
  6
Continuous
 62
     3
100
AcDbPoint
 10
482.5950599999998
 20
251.39198
 30
0.0
  0
POINT
  5
23B
330
36
100
AcDbEntity
  8
0
  6
Continuous
 62
     3
100
AcDbPoint
 10
338.53394
 20
402.34775
 30
0.0
  0
POINT
  5
23C
330
36
100
AcDbEntity
  8
0
  6
Continuous
 62
     3
100
AcDbPoint
 10
347.53394
 20
382.8316
 30
0.0
  0
POINT
  5
23D
330
36
100
AcDbEntity
  8
0
  6
Continuous
 62
     3
100
AcDbPoint
 10
347.53394
 20
346.01138
 30
0.0
  0
POINT
  5
23E
330
36
100
AcDbEntity
  8
0
  6
Continuous
 62
     3
100
AcDbPoint
 10
465.9800999999998
 20
372.93759
 30
0.0
  0
POINT
  5
23F
330
36
100
AcDbEntity
  8
0
  6
Continuous
 62
     3
100
AcDbPoint
 10
347.53394
 20
382.8316
 30
0.0
  0
POINT
  5
240
330
36
100
AcDbEntity
  8
0
  6
Continuous
 62
     3
100
AcDbPoint
 10
347.53394
 20
346.01138
 30
0.0
  0
POINT
  5
241
330
36
100
AcDbEntity
  8
0
  6
Continuous
 62
     3
100
AcDbPoint
 10
426.54279
 20
391.24948
 30
0.0
  0
POINT
  5
242
330
36
100
AcDbEntity
  8
0
  6
Continuous
 62
     3
100
AcDbPoint
 10
357.2868
 20
393.59122
 30
0.0
  0
POINT
  5
243
330
36
100
AcDbEntity
  8
0
  6
Continuous
 62
     3
100
AcDbPoint
 10
404.0339399999998
 20
411.84772
 30
0.0
  0
POINT
  5
244
330
36
100
AcDbEntity
  8
0
  6
Continuous
 62
     3
100
AcDbPoint
 10
436.35028
 20
411.84772
 30
0.0
  0
POINT
  5
245
330
36
100
AcDbEntity
  8
0
  6
Continuous
 62
     3
100
AcDbPoint
 10
465.57959
 20
373.52036
 30
0.0
  0
POINT
  5
246
330
36
100
AcDbEntity
  8
0
  6
Continuous
 62
     3
100
AcDbPoint
 10
338.53394
 20
392.3477200000002
 30
0.0
  0
POINT
  5
247
330
36
100
AcDbEntity
  8
0
  6
Continuous
 62
     3
100
AcDbPoint
 10
338.53394
 20
408.84772
 30
0.0
  0
POINT
  5
248
330
36
100
AcDbEntity
  8
0
  6
Continuous
 62
     3
100
AcDbPoint
 10
328.53394
 20
408.84772
 30
0.0
  0
POINT
  5
249
330
36
100
AcDbEntity
  8
0
  6
Continuous
 62
     3
100
AcDbPoint
 10
338.53394
 20
385.22852
 30
0.0
  0
POINT
  5
24A
330
36
100
AcDbEntity
  8
0
  6
Continuous
 62
     3
100
AcDbPoint
 10
338.53394
 20
408.84772
 30
0.0
  0
POINT
  5
24B
330
36
100
AcDbEntity
  8
0
  6
Continuous
 62
     3
100
AcDbPoint
 10
318.53394
 20
408.84772
 30
0.0
  0
POINT
  5
24C
330
36
100
AcDbEntity
  8
0
  6
Continuous
 62
     3
100
AcDbPoint
 10
449.72037
 20
378.49374
 30
0.0
  0
POINT
  5
24D
330
36
100
AcDbEntity
  8
0
  6
Continuous
 62
     3
100
AcDbPoint
 10
465.4524499999998
 20
375.57797
 30
0.0
  0
POINT
  5
24E
330
36
100
AcDbEntity
  8
0
  6
Continuous
 62
     3
100
AcDbPoint
 10
467.46967
 20
386.46188
 30
0.0
  0
POINT
  5
24F
330
36
100
AcDbEntity
  8
0
  6
Continuous
 62
     3
100
AcDbPoint
 10
465.9800999999998
 20
372.93759
 30
0.0
  0
POINT
  5
250
330
36
100
AcDbEntity
  8
0
  6
Continuous
 62
     3
100
AcDbPoint
 10
465.6296099999998
 20
376.633
 30
0.0
  0
POINT
  5
251
330
36
100
AcDbEntity
  8
0
  6
Continuous
 62
     3
100
AcDbPoint
 10
467.4519
 20
386.46518
 30
0.0
  0
POINT
  5
252
330
36
100
AcDbEntity
  8
0
  6
Continuous
 62
     3
100
AcDbPoint
 10
465.57959
 20
373.52036
 30
0.0
  0
POINT
  5
253
330
36
100
AcDbEntity
  8
0
  6
Continuous
 62
     3
100
AcDbPoint
 10
463.75723
 20
363.68781
 30
0.0
  0
POINT
  5
254
330
36
100
AcDbEntity
  8
0
  6
Continuous
 62
     3
100
AcDbPoint
 10
478.95419
 20
360.87122
 30
0.0
  0
POINT
  5
255
330
36
100
AcDbEntity
  8
0
  6
Continuous
 62
     3
100
AcDbPoint
 10
447.97009
 20
363.56268
 30
0.0
  0
POINT
  5
256
330
36
100
AcDbEntity
  8
0
  6
Continuous
 62
     3
100
AcDbPoint
 10
447.5249599999998
 20
366.69629
 30
0.0
  0
POINT
  5
257
330
36
100
AcDbEntity
  8
0
  6
Continuous
 62
     3
100
AcDbPoint
 10
437.71912
 20
368.51367
 30
0.0
  0
POINT
  5
258
330
36
100
AcDbEntity
  8
0
  6
Continuous
 62
     3
100
AcDbPoint
 10
337.67032
 20
385.22852
 30
0.0
  0
POINT
  5
259
330
36
100
AcDbEntity
  8
0
  6
Continuous
 62
     3
100
AcDbPoint
 10
338.53394
 20
392.3477200000002
 30
0.0
  0
POINT
  5
25A
330
36
100
AcDbEntity
  8
0
  6
Continuous
 62
     3
100
AcDbPoint
 10
328.53394
 20
392.3477200000002
 30
0.0
  0
POINT
  5
25B
330
36
100
AcDbEntity
  8
0
  6
Continuous
 62
     3
100
AcDbPoint
 10
338.71729
 20
227.39198
 30
0.0
  0
POINT
  5
25C
330
36
100
AcDbEntity
  8
0
  6
Continuous
 62
     3
100
AcDbPoint
 10
338.71729
 20
236.39198
 30
0.0
  0
POINT
  5
25D
330
36
100
AcDbEntity
  8
0
  6
Continuous
 62
     3
100
AcDbPoint
 10
328.53394
 20
236.39198
 30
0.0
  0
POINT
  5
25E
330
36
100
AcDbEntity
  8
0
  6
Continuous
 62
     3
100
AcDbPoint
 10
360.53394
 20
286.39197
 30
0.0
  0
POINT
  5
25F
330
36
100
AcDbEntity
  8
0
  6
Continuous
 62
     3
100
AcDbPoint
 10
382.03394
 20
286.392
 30
0.0
  0
POINT
  5
260
330
36
100
AcDbEntity
  8
0
  6
Continuous
 62
     3
100
AcDbPoint
 10
382.03394
 20
317.39197
 30
0.0
  0
LINE
  5
261
330
36
100
AcDbEntity
  8
0
  6
Continuous
 62
     7
100
AcDbLine
 10
134.62636
 20
191.57544
 30
0.0
 11
554.6263399999998
 21
191.57544
 31
0.0
  0
LINE
  5
262
330
36
100
AcDbEntity
  8
0
  6
Continuous
 62
     7
100
AcDbLine
 10
134.62636
 20
488.57544
 30
0.0
 11
134.62636
 21
191.57544
 31
0.0
  0
LINE
  5
263
330
36
100
AcDbEntity
  8
0
  6
Continuous
 62
     7
100
AcDbLine
 10
535.12634
 20
203.57544
 30
0.0
 11
535.12634
 21
476.57544
 31
0.0
  0
LINE
  5
264
330
36
100
AcDbEntity
  8
0
  6
Continuous
 62
     7
100
AcDbLine
 10
154.12636
 20
389.9462974471825
 30
0.0
 11
154.12636
 21
204.32544
 31
0.0
  0
LINE
  5
265
330
36
100
AcDbEntity
  8
0
  6
Continuous
 62
     7
100
AcDbLine
 10
535.12634
 20
476.57544
 30
0.0
 11
264.12634
 21
476.57544
 31
0.0
  0
LINE
  5
266
330
36
100
AcDbEntity
  8
0
  6
Continuous
 62
     7
100
AcDbLine
 10
154.12636
 20
203.57544
 30
0.0
 11
535.12634
 21
203.57544
 31
0.0
  0
LINE
  5
267
330
36
100
AcDbEntity
  8
0
  6
Continuous
 62
     7
100
AcDbLine
 10
554.6263399999998
 20
488.57544
 30
0.0
 11
554.6263399999998
 21
191.57544
 31
0.0
  0
LINE
  5
268
330
36
100
AcDbEntity
  8
0
  6
Continuous
 62
     7
100
AcDbLine
 10
134.62636
 20
488.57544
 30
0.0
 11
554.6263399999998
 21
488.57544
 31
0.0
  0
LINE
  5
269
330
36
100
AcDbEntity
  8
0
  6
Continuous
 62
     7
100
AcDbLine
 10
357.2868
 20
393.59122
 30
0.0
 11
465.57959
 21
373.52032
 31
0.0
  0
LINE
  5
26A
330
36
100
AcDbEntity
  8
0
  6
Continuous
 62
     7
100
AcDbLine
 10
450.8858599999999
 20
379.29474
 30
0.0
 11
464.6514299999998
 21
376.7434399999999
 31
0.0
  0
LINE
  5
26B
330
36
100
AcDbEntity
  8
0
  6
Continuous
 62
     7
100
AcDbLine
 10
447.97009
 20
363.56268
 30
0.0
 11
461.7356599999998
 21
361.01138
 31
0.0
  0
LINE
  5
26C
330
36
100
AcDbEntity
  8
0
  6
CENTER
 62
     4
100
AcDbLine
 10
341.29327
 20
391.47028
 30
0.0
 11
466.83963
 21
368.20163
 31
0.0
  0
LINE
  5
26D
330
36
100
AcDbEntity
  8
0
  6
Continuous
 62
     7
100
AcDbLine
 10
346.2583
 20
385.46497
 30
0.0
 11
463.7572599999998
 21
363.68781
 31
0.0
  0
LINE
  5
26E
330
36
100
AcDbEntity
  8
0
  6
CENTER
 62
     4
100
AcDbLine
 10
334.03394
 20
262.39197
 30
0.0
 11
474.9941999999998
 21
262.39197
 31
0.0
  0
LINE
  5
26F
330
36
100
AcDbEntity
  8
0
  6
Continuous
 62
     7
100
AcDbLine
 10
338.53394
 20
254.89198
 30
0.0
 11
359.53394
 21
254.89198
 31
0.0
  0
LINE
  5
270
330
36
100
AcDbEntity
  8
0
  6
Continuous
 62
     7
100
AcDbLine
 10
338.53394
 20
269.89197
 30
0.0
 11
359.53394
 21
269.89197
 31
0.0
  0
LINE
  5
271
330
36
100
AcDbEntity
  8
0
  6
Continuous
 62
     7
100
AcDbLine
 10
338.53394
 20
243.39198
 30
0.0
 11
360.53394
 21
243.39198
 31
0.0
  0
LINE
  5
272
330
36
100
AcDbEntity
  8
0
  6
Continuous
 62
     7
100
AcDbLine
 10
338.53394
 20
281.39197
 30
0.0
 11
360.53394
 21
281.39197
 31
0.0
  0
LINE
  5
273
330
36
100
AcDbEntity
  8
0
  6
Continuous
 62
     7
100
AcDbLine
 10
338.53394
 20
286.39197
 30
0.0
 11
338.53394
 21
238.39198
 31
0.0
  0
LINE
  5
274
330
36
100
AcDbEntity
  8
0
  6
Continuous
 62
     7
100
AcDbLine
 10
360.53394
 20
248.69199
 30
0.0
 11
360.53394
 21
238.39198
 31
0.0
  0
LINE
  5
275
330
36
100
AcDbEntity
  8
0
  6
Continuous
 62
     7
100
AcDbLine
 10
404.0339399999998
 20
248.69199
 30
0.0
 11
404.0339399999998
 21
238.39198
 31
0.0
  0
LINE
  5
276
330
36
100
AcDbEntity
  8
0
  6
CENTER
 62
     4
100
AcDbLine
 10
387.53394
 20
248.64198
 30
0.0
 11
387.53394
 21
230.14198
 31
0.0
  0
LINE
  5
277
330
36
100
AcDbEntity
  8
0
  6
Continuous
 62
     7
100
AcDbLine
 10
382.03394
 20
248.69199
 30
0.0
 11
382.03394
 21
238.39198
 31
0.0
  0
LINE
  5
278
330
36
100
AcDbEntity
  8
0
  6
CENTER
 62
     4
100
AcDbLine
 10
398.53394
 20
282.64197
 30
0.0
 11
398.53394
 21
238.39198
 31
0.0
  0
LINE
  5
279
330
36
100
AcDbEntity
  8
0
  6
Continuous
 62
     7
100
AcDbLine
 10
357.03394
 20
248.39198
 30
0.0
 11
357.03394
 21
248.69199
 31
0.0
  0
LINE
  5
27A
330
36
100
AcDbEntity
  8
0
  6
Continuous
 62
     7
100
AcDbLine
 10
341.03394
 20
248.39198
 30
0.0
 11
341.03394
 21
253.89198
 31
0.0
  0
LINE
  5
27B
330
36
100
AcDbEntity
  8
0
  6
Continuous
 62
     7
100
AcDbLine
 10
339.03394
 20
248.39198
 30
0.0
 11
339.03394
 21
254.89198
 31
0.0
  0
LINE
  5
27C
330
36
100
AcDbEntity
  8
0
  6
Continuous
 62
     7
100
AcDbLine
 10
352.63394
 20
248.69199
 30
0.0
 11
352.63394
 21
248.49197
 31
0.0
  0
LINE
  5
27D
330
36
100
AcDbEntity
  8
0
  6
Continuous
 62
     7
100
AcDbLine
 10
342.43393
 20
248.99197
 30
0.0
 11
342.43393
 21
248.49197
 31
0.0
  0
LINE
  5
27E
330
36
100
AcDbEntity
  8
0
  6
CENTER
 62
     4
100
AcDbLine
 10
349.03394
 20
236.39198
 30
0.0
 11
360.03394
 21
236.39198
 31
0.0
  0
LINE
  5
27F
330
36
100
AcDbEntity
  8
0
  6
Continuous
 62
     7
100
AcDbLine
 10
339.03394
 20
248.39198
 30
0.0
 11
357.03394
 21
248.39198
 31
0.0
  0
LINE
  5
280
330
36
100
AcDbEntity
  8
0
  6
CENTER
 62
     4
100
AcDbLine
 10
354.53394
 20
241.89198
 30
0.0
 11
354.53394
 21
230.89198
 31
0.0
  0
LINE
  5
281
330
36
100
AcDbEntity
  8
0
  6
CENTER
 62
     4
100
AcDbLine
 10
381.03394
 20
242.39198
 30
0.0
 11
395.03394
 21
242.39198
 31
0.0
  0
LINE
  5
282
330
36
100
AcDbEntity
  8
0
  6
CENTER
 62
     4
100
AcDbLine
 10
381.03394
 20
236.39198
 30
0.0
 11
395.03394
 21
236.39198
 31
0.0
  0
LINE
  5
283
330
36
100
AcDbEntity
  8
0
  6
CENTER
 62
     4
100
AcDbLine
 10
381.03394
 20
239.39198
 30
0.0
 11
395.03394
 21
239.39198
 31
0.0
  0
LINE
  5
284
330
36
100
AcDbEntity
  8
0
  6
Continuous
 62
     7
100
AcDbLine
 10
383.28394
 20
242.39198
 30
0.0
 11
383.28394
 21
236.39198
 31
0.0
  0
LINE
  5
285
330
36
100
AcDbEntity
  8
0
  6
Continuous
 62
     7
100
AcDbLine
 10
391.78394
 20
242.39198
 30
0.0
 11
391.78394
 21
236.39198
 31
0.0
  0
LINE
  5
286
330
36
100
AcDbEntity
  8
0
  6
Continuous
 62
     7
100
AcDbLine
 10
389.78394
 20
242.39198
 30
0.0
 11
389.78394
 21
236.39198
 31
0.0
  0
LINE
  5
287
330
36
100
AcDbEntity
  8
0
  6
Continuous
 62
     7
100
AcDbLine
 10
385.28394
 20
242.39198
 30
0.0
 11
385.28394
 21
236.39198
 31
0.0
  0
LINE
  5
288
330
36
100
AcDbEntity
  8
0
  6
Continuous
 62
     7
100
AcDbLine
 10
342.73392
 20
272.09198
 30
0.0
 11
450.53394
 21
272.09198
 31
0.0
  0
LINE
  5
289
330
36
100
AcDbEntity
  8
0
  6
Continuous
 62
     7
100
AcDbLine
 10
342.73392
 20
276.09198
 30
0.0
 11
453.83392
 21
276.09198
 31
0.0
  0
LINE
  5
28A
330
36
100
AcDbEntity
  8
0
  6
Continuous
 62
     7
100
AcDbLine
 10
342.73392
 20
248.69199
 30
0.0
 11
453.83392
 21
248.69199
 31
0.0
  0
LINE
  5
28B
330
36
100
AcDbEntity
  8
0
  6
Continuous
 62
     7
100
AcDbLine
 10
342.73392
 20
252.69199
 30
0.0
 11
450.53394
 21
252.69199
 31
0.0
  0
LINE
  5
28C
330
36
100
AcDbEntity
  8
0
  6
Continuous
 62
     7
100
AcDbLine
 10
362.03394
 20
256.89197
 30
0.0
 11
451.17636
 21
256.89197
 31
0.0
  0
LINE
  5
28D
330
36
100
AcDbEntity
  8
0
  6
Continuous
 62
     7
100
AcDbLine
 10
361.58212
 20
260.39255
 30
0.0
 11
403.0580399999998
 21
261.39227
 31
0.0
  0
LINE
  5
28E
330
36
100
AcDbEntity
  8
0
  6
Continuous
 62
     7
100
AcDbLine
 10
361.58212
 20
264.3914200000001
 30
0.0
 11
403.0580399999998
 21
263.39169
 31
0.0
  0
LINE
  5
28F
330
36
100
AcDbEntity
  8
0
  6
Continuous
 62
     7
100
AcDbLine
 10
362.03394
 20
267.89197
 30
0.0
 11
451.17636
 21
267.89197
 31
0.0
  0
LINE
  5
290
330
36
100
AcDbEntity
  8
0
  6
CENTER
 62
     4
100
AcDbLine
 10
392.03394
 20
273.39197
 30
0.0
 11
406.03394
 21
273.39197
 31
0.0
  0
LINE
  5
291
330
36
100
AcDbEntity
  8
0
  6
CENTER
 62
     4
100
AcDbLine
 10
392.03394
 20
251.39198
 30
0.0
 11
406.03394
 21
251.39198
 31
0.0
  0
LINE
  5
292
330
36
100
AcDbEntity
  8
0
  6
CENTER
 62
     4
100
AcDbLine
 10
387.53394
 20
294.64197
 30
0.0
 11
387.53394
 21
276.14197
 31
0.0
  0
LINE
  5
293
330
36
100
AcDbEntity
  8
0
  6
CENTER
 62
     4
100
AcDbLine
 10
354.53394
 20
293.89197
 30
0.0
 11
354.53394
 21
282.89197
 31
0.0
  0
LINE
  5
294
330
36
100
AcDbEntity
  8
0
  6
DASHED
 62
     7
100
AcDbLine
 10
360.53394
 20
272.09198
 30
0.0
 11
360.53394
 21
268.20981
 31
0.0
  0
LINE
  5
295
330
36
100
AcDbEntity
  8
0
  6
Continuous
 62
     7
100
AcDbLine
 10
344.53394
 20
271.29199
 30
0.0
 11
344.53394
 21
269.89197
 31
0.0
  0
LINE
  5
296
330
36
100
AcDbEntity
  8
0
  6
Continuous
 62
     7
100
AcDbLine
 10
350.53394
 20
271.29199
 30
0.0
 11
350.53394
 21
269.89197
 31
0.0
  0
LINE
  5
297
330
36
100
AcDbEntity
  8
0
  6
Continuous
 62
     7
100
AcDbLine
 10
357.03394
 20
272.09198
 30
0.0
 11
357.03394
 21
269.89197
 31
0.0
  0
LINE
  5
298
330
36
100
AcDbEntity
  8
0
  6
Continuous
 62
     7
100
AcDbLine
 10
339.03394
 20
276.39197
 30
0.0
 11
339.03394
 21
269.89197
 31
0.0
  0
LINE
  5
299
330
36
100
AcDbEntity
  8
0
  6
Continuous
 62
     7
100
AcDbLine
 10
350.53394
 20
253.89198
 30
0.0
 11
357.03394
 21
253.89198
 31
0.0
  0
LINE
  5
29A
330
36
100
AcDbEntity
  8
0
  6
Continuous
 62
     7
100
AcDbLine
 10
350.53394
 20
267.29095
 30
0.0
 11
350.53394
 21
257.49301
 31
0.0
  0
LINE
  5
29B
330
36
100
AcDbEntity
  8
0
  6
CENTER
 62
     4
100
AcDbLine
 10
344.53394
 20
267.39197
 30
0.0
 11
344.53394
 21
257.39197
 31
0.0
  0
LINE
  5
29C
330
36
100
AcDbEntity
  8
0
  6
Continuous
 62
     7
100
AcDbLine
 10
343.53394
 20
253.49199
 30
0.0
 11
351.53394
 21
253.49199
 31
0.0
  0
LINE
  5
29D
330
36
100
AcDbEntity
  8
0
  6
Continuous
 62
     7
100
AcDbLine
 10
344.53394
 20
253.49197
 30
0.0
 11
344.53394
 21
254.89198
 31
0.0
  0
LINE
  5
29E
330
36
100
AcDbEntity
  8
0
  6
Continuous
 62
     7
100
AcDbLine
 10
341.03394
 20
253.89198
 30
0.0
 11
344.53394
 21
253.89198
 31
0.0
  0
LINE
  5
29F
330
36
100
AcDbEntity
  8
0
  6
Continuous
 62
     7
100
AcDbLine
 10
342.43393
 20
252.39198
 30
0.0
 11
342.43393
 21
248.99197
 31
0.0
  0
LINE
  5
2A0
330
36
100
AcDbEntity
  8
0
  6
Continuous
 62
     7
100
AcDbLine
 10
343.53394
 20
252.69199
 30
0.0
 11
343.53394
 21
253.49197
 31
0.0
  0
LINE
  5
2A1
330
36
100
AcDbEntity
  8
0
  6
Continuous
 62
     7
100
AcDbLine
 10
350.53394
 20
253.49197
 30
0.0
 11
350.53394
 21
254.89198
 31
0.0
  0
LINE
  5
2A2
330
36
100
AcDbEntity
  8
0
  6
Continuous
 62
     7
100
AcDbLine
 10
351.53394
 20
252.69199
 30
0.0
 11
351.53394
 21
253.49197
 31
0.0
  0
LINE
  5
2A3
330
36
100
AcDbEntity
  8
0
  6
DASHED
 62
     7
100
AcDbLine
 10
360.53394
 20
256.3298
 30
0.0
 11
360.53394
 21
252.69199
 31
0.0
  0
LINE
  5
2A4
330
36
100
AcDbEntity
  8
0
  6
Continuous
 62
     7
100
AcDbLine
 10
357.03394
 20
252.69199
 30
0.0
 11
357.03394
 21
254.89198
 31
0.0
  0
LINE
  5
2A5
330
36
100
AcDbEntity
  8
0
  6
Continuous
 62
     7
100
AcDbLine
 10
359.53394
 20
254.39198
 30
0.0
 11
359.53394
 21
252.69199
 31
0.0
  0
LINE
  5
2A6
330
36
100
AcDbEntity
  8
0
  6
DASHED
 62
     7
100
AcDbLine
 10
359.53394
 20
254.89198
 30
0.0
 11
360.53394
 21
254.89198
 31
0.0
  0
LINE
  5
2A7
330
36
100
AcDbEntity
  8
0
  6
DASHED
 62
     7
100
AcDbLine
 10
359.53394
 20
269.89197
 30
0.0
 11
360.53394
 21
269.89197
 31
0.0
  0
LINE
  5
2A8
330
36
100
AcDbEntity
  8
0
  6
CENTER
 62
     4
100
AcDbLine
 10
349.03394
 20
288.39197
 30
0.0
 11
360.03394
 21
288.39197
 31
0.0
  0
LINE
  5
2A9
330
36
100
AcDbEntity
  8
0
  6
Continuous
 62
     7
100
AcDbLine
 10
350.53394
 20
270.89197
 30
0.0
 11
357.03394
 21
270.89197
 31
0.0
  0
LINE
  5
2AA
330
36
100
AcDbEntity
  8
0
  6
Continuous
 62
     7
100
AcDbLine
 10
339.03394
 20
276.39197
 30
0.0
 11
357.03394
 21
276.39197
 31
0.0
  0
LINE
  5
2AB
330
36
100
AcDbEntity
  8
0
  6
Continuous
 62
     7
100
AcDbLine
 10
343.53394
 20
271.29196
 30
0.0
 11
351.53394
 21
271.29196
 31
0.0
  0
LINE
  5
2AC
330
36
100
AcDbEntity
  8
0
  6
Continuous
 62
     7
100
AcDbLine
 10
341.03394
 20
276.39197
 30
0.0
 11
341.03394
 21
270.89197
 31
0.0
  0
LINE
  5
2AD
330
36
100
AcDbEntity
  8
0
  6
Continuous
 62
     7
100
AcDbLine
 10
342.43393
 20
275.79199
 30
0.0
 11
342.43393
 21
272.39197
 31
0.0
  0
LINE
  5
2AE
330
36
100
AcDbEntity
  8
0
  6
Continuous
 62
     7
100
AcDbLine
 10
341.03394
 20
270.89197
 30
0.0
 11
344.53394
 21
270.89197
 31
0.0
  0
LINE
  5
2AF
330
36
100
AcDbEntity
  8
0
  6
Continuous
 62
     7
100
AcDbLine
 10
343.53394
 20
272.09198
 30
0.0
 11
343.53394
 21
271.29199
 31
0.0
  0
LINE
  5
2B0
330
36
100
AcDbEntity
  8
0
  6
Continuous
 62
     7
100
AcDbLine
 10
351.53394
 20
272.09198
 30
0.0
 11
351.53394
 21
271.29199
 31
0.0
  0
LINE
  5
2B1
330
36
100
AcDbEntity
  8
0
  6
Continuous
 62
     7
100
AcDbLine
 10
360.53394
 20
286.39197
 30
0.0
 11
360.53394
 21
276.09198
 31
0.0
  0
LINE
  5
2B2
330
36
100
AcDbEntity
  8
0
  6
Continuous
 62
     7
100
AcDbLine
 10
359.53394
 20
272.09198
 30
0.0
 11
359.53394
 21
270.39197
 31
0.0
  0
LINE
  5
2B3
330
36
100
AcDbEntity
  8
0
  6
Continuous
 62
     7
100
AcDbLine
 10
357.03394
 20
276.39197
 30
0.0
 11
357.03394
 21
276.09198
 31
0.0
  0
LINE
  5
2B4
330
36
100
AcDbEntity
  8
0
  6
DASHED
 62
     7
100
AcDbLine
 10
382.03394
 20
276.09198
 30
0.0
 11
382.03394
 21
248.69199
 31
0.0
  0
LINE
  5
2B5
330
36
100
AcDbEntity
  8
0
  6
CENTER
 62
     4
100
AcDbLine
 10
381.03394
 20
285.39197
 30
0.0
 11
395.03394
 21
285.39197
 31
0.0
  0
LINE
  5
2B6
330
36
100
AcDbEntity
  8
0
  6
Continuous
 62
     7
100
AcDbLine
 10
382.03394
 20
286.39197
 30
0.0
 11
382.03394
 21
276.09198
 31
0.0
  0
LINE
  5
2B7
330
36
100
AcDbEntity
  8
0
  6
Continuous
 62
     7
100
AcDbLine
 10
383.28394
 20
288.39197
 30
0.0
 11
383.28394
 21
282.39197
 31
0.0
  0
LINE
  5
2B8
330
36
100
AcDbEntity
  8
0
  6
Continuous
 62
     7
100
AcDbLine
 10
385.28394
 20
288.39197
 30
0.0
 11
385.28394
 21
282.39197
 31
0.0
  0
LINE
  5
2B9
330
36
100
AcDbEntity
  8
0
  6
Continuous
 62
     7
100
AcDbLine
 10
389.78394
 20
288.39197
 30
0.0
 11
389.78394
 21
282.39197
 31
0.0
  0
LINE
  5
2BA
330
36
100
AcDbEntity
  8
0
  6
Continuous
 62
     7
100
AcDbLine
 10
391.78394
 20
288.39197
 30
0.0
 11
391.78394
 21
282.39197
 31
0.0
  0
LINE
  5
2BB
330
36
100
AcDbEntity
  8
0
  6
DASHED
 62
     7
100
AcDbLine
 10
404.0339399999998
 20
276.09198
 30
0.0
 11
404.0339399999998
 21
267.89197
 31
0.0
  0
LINE
  5
2BC
330
36
100
AcDbEntity
  8
0
  6
Continuous
 62
     7
100
AcDbLine
 10
404.0339399999998
 20
267.89197
 30
0.0
 11
404.0339399999998
 21
256.89197
 31
0.0
  0
LINE
  5
2BD
330
36
100
AcDbEntity
  8
0
  6
DASHED
 62
     7
100
AcDbLine
 10
404.0339399999998
 20
256.89197
 30
0.0
 11
404.0339399999998
 21
248.69199
 31
0.0
  0
LINE
  5
2BE
330
36
100
AcDbEntity
  8
0
  6
Continuous
 62
     7
100
AcDbLine
 10
404.0339399999998
 20
286.39197
 30
0.0
 11
404.0339399999998
 21
276.09198
 31
0.0
  0
LINE
  5
2BF
330
36
100
AcDbEntity
  8
0
  6
Continuous
 62
     7
100
AcDbLine
 10
450.53394
 20
272.08734
 30
0.0
 11
450.53394
 21
269.36066
 31
0.0
  0
LINE
  5
2C0
330
36
100
AcDbEntity
  8
0
  6
Continuous
 62
     7
100
AcDbLine
 10
450.53394
 20
255.42329
 30
0.0
 11
450.53394
 21
252.69662
 31
0.0
  0
LINE
  5
2C1
330
36
100
AcDbEntity
  8
0
  6
Continuous
 62
     7
100
AcDbLine
 10
338.53391
 20
402.34775
 30
0.0
 11
340.65414
 21
391.05594
 31
0.0
  0
LINE
  5
2C2
330
36
100
AcDbEntity
  8
0
  6
CENTER
 62
     4
100
AcDbLine
 10
338.53394
 20
392.3477200000002
 30
0.0
 11
360.53394
 21
392.3477200000002
 31
0.0
  0
LINE
  5
2C3
330
36
100
AcDbEntity
  8
0
  6
PHANTOM
 62
     3
100
AcDbLine
 10
338.53394
 20
410.34772
 30
0.0
 11
360.53394
 21
410.34772
 31
0.0
  0
LINE
  5
2C4
330
36
100
AcDbEntity
  8
0
  6
Continuous
 62
     7
100
AcDbLine
 10
338.53394
 20
408.84772
 30
0.0
 11
360.53394
 21
408.84772
 31
0.0
  0
LINE
  5
2C5
330
36
100
AcDbEntity
  8
0
  6
Continuous
 62
     7
100
AcDbLine
 10
338.53394
 20
402.34772
 30
0.0
 11
360.53394
 21
402.34772
 31
0.0
  0
LINE
  5
2C6
330
36
100
AcDbEntity
  8
0
  6
PHANTOM
 62
     3
100
AcDbLine
 10
337.03394
 20
423.84772
 30
0.0
 11
337.03394
 21
410.34772
 31
0.0
  0
LINE
  5
2C7
330
36
100
AcDbEntity
  8
0
  6
PHANTOM
 62
     3
100
AcDbLine
 10
338.53394
 20
423.84772
 30
0.0
 11
338.53394
 21
410.34772
 31
0.0
  0
LINE
  5
2C8
330
36
100
AcDbEntity
  8
0
  6
Continuous
 62
     7
100
AcDbLine
 10
338.53394
 20
408.84772
 30
0.0
 11
338.53394
 21
402.34772
 31
0.0
  0
LINE
  5
2C9
330
36
100
AcDbEntity
  8
0
  6
PHANTOM
 62
     3
100
AcDbLine
 10
337.03394
 20
423.84772
 30
0.0
 11
338.53394
 21
423.84772
 31
0.0
  0
LINE
  5
2CA
330
36
100
AcDbEntity
  8
0
  6
PHANTOM
 62
     3
100
AcDbLine
 10
360.53394
 20
463.84772
 30
0.0
 11
360.53394
 21
410.34772
 31
0.0
  0
LINE
  5
2CB
330
36
100
AcDbEntity
  8
0
  6
PHANTOM
 62
     3
100
AcDbLine
 10
362.03394
 20
463.84772
 30
0.0
 11
362.03394
 21
410.34772
 31
0.0
  0
LINE
  5
2CC
330
36
100
AcDbEntity
  8
0
  6
PHANTOM
 62
     3
100
AcDbLine
 10
366.03394
 20
450.34772
 30
0.0
 11
366.03394
 21
413.34772
 31
0.0
  0
LINE
  5
2CD
330
36
100
AcDbEntity
  8
0
  6
Continuous
 62
     7
100
AcDbLine
 10
382.03394
 20
407.34772
 30
0.0
 11
404.0339399999998
 21
407.34772
 31
0.0
  0
LINE
  5
2CE
330
36
100
AcDbEntity
  8
0
  6
Continuous
 62
     7
100
AcDbLine
 10
382.03394
 20
411.84772
 30
0.0
 11
404.0339399999998
 21
411.84772
 31
0.0
  0
LINE
  5
2CF
330
36
100
AcDbEntity
  8
0
  6
Continuous
 62
     7
100
AcDbLine
 10
360.53391
 20
397.84772
 30
0.0
 11
353.0994
 21
388.10208
 31
0.0
  0
LINE
  5
2D0
330
36
100
AcDbEntity
  8
0
  6
CENTER
 62
     4
100
AcDbLine
 10
347.53394
 20
414.2767899999998
 30
0.0
 11
347.53394
 21
382.8316
 31
0.0
  0
LINE
  5
2D1
330
36
100
AcDbEntity
  8
0
  6
PHANTOM
 62
     3
100
AcDbLine
 10
367.53394
 20
411.84772
 30
0.0
 11
382.03394
 21
411.84772
 31
0.0
  0
LINE
  5
2D2
330
36
100
AcDbEntity
  8
0
  6
Continuous
 62
     7
100
AcDbLine
 10
360.53394
 20
408.84772
 30
0.0
 11
360.53394
 21
397.84775
 31
0.0
  0
LINE
  5
2D3
330
36
100
AcDbEntity
  8
0
  6
Continuous
 62
     7
100
AcDbLine
 10
382.03394
 20
411.84772
 30
0.0
 11
382.03394
 21
407.34772
 31
0.0
  0
LINE
  5
2D4
330
36
100
AcDbEntity
  8
0
  6
CENTER
 62
     4
100
AcDbLine
 10
387.53394
 20
413.84772
 30
0.0
 11
387.53394
 21
405.34772
 31
0.0
  0
LINE
  5
2D5
330
36
100
AcDbEntity
  8
0
  6
Continuous
 62
     7
100
AcDbLine
 10
447.53354
 20
366.69467
 30
0.0
 11
447.16907
 21
364.72818
 31
0.0
  0
LINE
  5
2D6
330
36
100
AcDbEntity
  8
0
  6
Continuous
 62
     7
100
AcDbLine
 10
449.72037
 20
378.49374
 30
0.0
 11
449.3559
 21
376.52722
 31
0.0
  0
LINE
  5
2D7
330
36
100
AcDbEntity
  8
0
  6
PHANTOM
 62
     3
100
AcDbLine
 10
404.0339399999998
 20
411.84772
 30
0.0
 11
436.35028
 21
411.84772
 31
0.0
  0
LINE
  5
2D8
330
36
100
AcDbEntity
  8
0
  6
CENTER
 62
     4
100
AcDbLine
 10
398.53394
 20
413.84772
 30
0.0
 11
398.53394
 21
405.34772
 31
0.0
  0
LINE
  5
2D9
330
36
100
AcDbEntity
  8
0
  6
Continuous
 62
     7
100
AcDbLine
 10
404.0339399999998
 20
411.84772
 30
0.0
 11
404.0339399999998
 21
407.34772
 31
0.0
  0
LINE
  5
2DA
330
36
100
AcDbEntity
  8
0
  6
PHANTOM
 62
     3
100
AcDbLine
 10
367.53394
 20
451.84772
 30
0.0
 11
436.35028
 21
451.84772
 31
0.0
  0
LINE
  5
2DB
330
36
100
AcDbEntity
  8
0
  6
PHANTOM
 62
     3
100
AcDbLine
 10
362.03394
 20
463.84772
 30
0.0
 11
373.03394
 21
463.84772
 31
0.0
  0
LINE
  5
2DC
330
36
100
AcDbEntity
  8
0
  6
PHANTOM
 62
     3
100
AcDbLine
 10
362.03394
 20
465.34772
 30
0.0
 11
373.03394
 21
465.34772
 31
0.0
  0
LINE
  5
2DD
330
36
100
AcDbEntity
  8
0
  6
PHANTOM
 62
     3
100
AcDbLine
 10
376.03394
 20
472.34772
 30
0.0
 11
376.03394
 21
456.34772
 31
0.0
  0
LINE
  5
2DE
330
36
100
AcDbEntity
  8
0
  6
PHANTOM
 62
     3
100
AcDbLine
 10
374.53394
 20
472.34772
 30
0.0
 11
374.53394
 21
456.34772
 31
0.0
  0
LINE
  5
2DF
330
36
100
AcDbEntity
  8
0
  6
PHANTOM
 62
     3
100
AcDbLine
 10
373.03394
 20
463.84772
 30
0.0
 11
373.03394
 21
456.34772
 31
0.0
  0
LINE
  5
2E0
330
36
100
AcDbEntity
  8
0
  6
Continuous
 62
     7
100
AcDbLine
 10
465.9800999999998
 20
372.93759
 30
0.0
 11
464.3399999999998
 21
364.08832
 31
0.0
  0
LINE
  5
2E1
330
36
100
AcDbEntity
  8
0
  6
Continuous
 62
     7
100
AcDbLine
 10
463.2656299999998
 20
363.7789
 30
0.0
 11
462.9011499999998
 21
361.81241
 31
0.0
  0
LINE
  5
2E2
330
36
100
AcDbEntity
  8
0
  6
Continuous
 62
     7
100
AcDbLine
 10
465.45242
 20
375.57797
 30
0.0
 11
465.08795
 21
373.61145
 31
0.0
  0
LINE
  5
2E3
330
36
100
AcDbEntity
  8
0
  6
Continuous
 62
     3
100
AcDbLine
 10
356.00739
 20
239.51151
 30
0.0
 11
353.06049
 21
233.27246
 31
0.0
  0
LINE
  5
2E4
330
36
100
AcDbEntity
  8
0
  6
Continuous
 62
     3
100
AcDbLine
 10
352.71881
 20
232.54907
 30
0.0
 11
341.32327
 21
208.42316
 31
0.0
  0
LINE
  5
2E5
330
36
100
AcDbEntity
  8
0
  6
Continuous
 62
     3
100
AcDbLine
 10
341.32327
 20
208.42314
 30
0.0
 11
308.9432700000001
 21
208.42314
 31
0.0
  0
LINE
  5
2E6
330
36
100
AcDbEntity
  8
0
  6
Continuous
 62
     7
100
AcDbLine
 10
356.17822
 20
239.87317
 30
0.0
 11
356.00739
 21
239.51151
 31
0.0
  0
LINE
  5
2E7
330
36
100
AcDbEntity
  8
0
  6
Continuous
 62
     7
100
AcDbLine
 10
352.88965
 20
232.91075
 30
0.0
 11
353.06049
 21
233.27246
 31
0.0
  0
LINE
  5
2E8
330
36
100
AcDbEntity
  8
0
  6
Continuous
 62
     3
100
AcDbLine
 10
338.53394
 20
287.39197
 30
0.0
 11
338.53394
 21
308.39197
 31
0.0
  0
LINE
  5
2E9
330
36
100
AcDbEntity
  8
0
  6
Continuous
 62
     3
100
AcDbLine
 10
344.53394
 20
268.39197
 30
0.0
 11
344.53394
 21
308.39197
 31
0.0
  0
LINE
  5
2EA
330
36
100
AcDbEntity
  8
0
  6
Continuous
 62
     3
100
AcDbLine
 10
339.33392
 20
307.39197
 30
0.0
 11
343.73392
 21
307.39197
 31
0.0
  0
LINE
  5
2EB
330
36
100
AcDbEntity
  8
0
  6
Continuous
 62
     7
100
AcDbLine
 10
338.93393
 20
307.39197
 30
0.0
 11
339.33392
 21
307.39197
 31
0.0
  0
LINE
  5
2EC
330
36
100
AcDbEntity
  8
0
  6
Continuous
 62
     7
100
AcDbLine
 10
344.13394
 20
307.39197
 30
0.0
 11
343.73392
 21
307.39197
 31
0.0
  0
LINE
  5
2ED
330
36
100
AcDbEntity
  8
0
  6
Continuous
 62
     3
100
AcDbLine
 10
344.53394
 20
268.39197
 30
0.0
 11
344.53394
 21
308.39197
 31
0.0
  0
LINE
  5
2EE
330
36
100
AcDbEntity
  8
0
  6
Continuous
 62
     3
100
AcDbLine
 10
354.53394
 20
294.89197
 30
0.0
 11
354.53394
 21
308.39197
 31
0.0
  0
LINE
  5
2EF
330
36
100
AcDbEntity
  8
0
  6
Continuous
 62
     3
100
AcDbLine
 10
345.33392
 20
307.39197
 30
0.0
 11
353.73392
 21
307.39197
 31
0.0
  0
LINE
  5
2F0
330
36
100
AcDbEntity
  8
0
  6
Continuous
 62
     7
100
AcDbLine
 10
344.93393
 20
307.39197
 30
0.0
 11
345.33392
 21
307.39197
 31
0.0
  0
LINE
  5
2F1
330
36
100
AcDbEntity
  8
0
  6
Continuous
 62
     7
100
AcDbLine
 10
354.13394
 20
307.39197
 30
0.0
 11
353.73392
 21
307.39197
 31
0.0
  0
LINE
  5
2F2
330
36
100
AcDbEntity
  8
0
  6
Continuous
 62
     3
100
AcDbLine
 10
354.53394
 20
294.89197
 30
0.0
 11
354.53394
 21
308.39197
 31
0.0
  0
LINE
  5
2F3
330
36
100
AcDbEntity
  8
0
  6
Continuous
 62
     3
100
AcDbLine
 10
360.53394
 20
287.39197
 30
0.0
 11
360.53394
 21
308.39197
 31
0.0
  0
LINE
  5
2F4
330
36
100
AcDbEntity
  8
0
  6
Continuous
 62
     3
100
AcDbLine
 10
355.33392
 20
307.39197
 30
0.0
 11
359.73392
 21
307.39197
 31
0.0
  0
LINE
  5
2F5
330
36
100
AcDbEntity
  8
0
  6
Continuous
 62
     7
100
AcDbLine
 10
354.93393
 20
307.39197
 30
0.0
 11
355.33392
 21
307.39197
 31
0.0
  0
LINE
  5
2F6
330
36
100
AcDbEntity
  8
0
  6
Continuous
 62
     7
100
AcDbLine
 10
360.13394
 20
307.39197
 30
0.0
 11
359.73392
 21
307.39197
 31
0.0
  0
LINE
  5
2F7
330
36
100
AcDbEntity
  8
0
  6
Continuous
 62
     3
100
AcDbLine
 10
338.53394
 20
298.39197
 30
0.0
 11
338.53394
 21
318.39197
 31
0.0
  0
LINE
  5
2F8
330
36
100
AcDbEntity
  8
0
  6
Continuous
 62
     3
100
AcDbLine
 10
360.53394
 20
298.39197
 30
0.0
 11
360.53394
 21
318.39197
 31
0.0
  0
LINE
  5
2F9
330
36
100
AcDbEntity
  8
0
  6
Continuous
 62
     3
100
AcDbLine
 10
339.33392
 20
317.39197
 30
0.0
 11
359.73392
 21
317.39197
 31
0.0
  0
LINE
  5
2FA
330
36
100
AcDbEntity
  8
0
  6
Continuous
 62
     7
100
AcDbLine
 10
338.93393
 20
317.39197
 30
0.0
 11
339.33392
 21
317.39197
 31
0.0
  0
LINE
  5
2FB
330
36
100
AcDbEntity
  8
0
  6
Continuous
 62
     7
100
AcDbLine
 10
360.13394
 20
317.39197
 30
0.0
 11
359.73392
 21
317.39197
 31
0.0
  0
LINE
  5
2FC
330
36
100
AcDbEntity
  8
0
  6
Continuous
 62
     3
100
AcDbLine
 10
382.03394
 20
287.39197
 30
0.0
 11
382.03394
 21
308.39197
 31
0.0
  0
LINE
  5
2FD
330
36
100
AcDbEntity
  8
0
  6
Continuous
 62
     3
100
AcDbLine
 10
387.53394
 20
295.64197
 30
0.0
 11
387.53394
 21
308.39197
 31
0.0
  0
LINE
  5
2FE
330
36
100
AcDbEntity
  8
0
  6
Continuous
 62
     3
100
AcDbLine
 10
386.73392
 20
307.39197
 30
0.0
 11
382.83392
 21
307.39197
 31
0.0
  0
LINE
  5
2FF
330
36
100
AcDbEntity
  8
0
  6
Continuous
 62
     3
100
AcDbLine
 10
382.03394
 20
307.39197
 30
0.0
 11
372.20337
 21
307.39197
 31
0.0
  0
LINE
  5
300
330
36
100
AcDbEntity
  8
0
  6
Continuous
 62
     7
100
AcDbLine
 10
387.13394
 20
307.39197
 30
0.0
 11
386.73392
 21
307.39197
 31
0.0
  0
LINE
  5
301
330
36
100
AcDbEntity
  8
0
  6
Continuous
 62
     7
100
AcDbLine
 10
382.43393
 20
307.39197
 30
0.0
 11
382.83392
 21
307.39197
 31
0.0
  0
LINE
  5
302
330
36
100
AcDbEntity
  8
0
  6
Continuous
 62
     3
100
AcDbLine
 10
387.53394
 20
295.64197
 30
0.0
 11
387.53394
 21
308.39197
 31
0.0
  0
LINE
  5
303
330
36
100
AcDbEntity
  8
0
  6
Continuous
 62
     3
100
AcDbLine
 10
398.53394
 20
283.64197
 30
0.0
 11
398.53394
 21
308.39197
 31
0.0
  0
LINE
  5
304
330
36
100
AcDbEntity
  8
0
  6
Continuous
 62
     3
100
AcDbLine
 10
388.33392
 20
307.39197
 30
0.0
 11
397.73392
 21
307.39197
 31
0.0
  0
LINE
  5
305
330
36
100
AcDbEntity
  8
0
  6
Continuous
 62
     7
100
AcDbLine
 10
387.93393
 20
307.39197
 30
0.0
 11
388.33392
 21
307.39197
 31
0.0
  0
LINE
  5
306
330
36
100
AcDbEntity
  8
0
  6
Continuous
 62
     7
100
AcDbLine
 10
398.13394
 20
307.39197
 30
0.0
 11
397.73392
 21
307.39197
 31
0.0
  0
LINE
  5
307
330
36
100
AcDbEntity
  8
0
  6
Continuous
 62
     3
100
AcDbLine
 10
398.53394
 20
283.64197
 30
0.0
 11
398.53394
 21
308.39197
 31
0.0
  0
LINE
  5
308
330
36
100
AcDbEntity
  8
0
  6
Continuous
 62
     3
100
AcDbLine
 10
404.0339399999998
 20
287.39197
 30
0.0
 11
404.0339399999998
 21
308.39197
 31
0.0
  0
LINE
  5
309
330
36
100
AcDbEntity
  8
0
  6
Continuous
 62
     3
100
AcDbLine
 10
399.33392
 20
307.39197
 30
0.0
 11
403.23392
 21
307.39197
 31
0.0
  0
LINE
  5
30A
330
36
100
AcDbEntity
  8
0
  6
Continuous
 62
     3
100
AcDbLine
 10
404.0339399999998
 20
307.39197
 30
0.0
 11
412.44647
 21
307.39197
 31
0.0
  0
LINE
  5
30B
330
36
100
AcDbEntity
  8
0
  6
Continuous
 62
     7
100
AcDbLine
 10
398.93393
 20
307.39197
 30
0.0
 11
399.33392
 21
307.39197
 31
0.0
  0
LINE
  5
30C
330
36
100
AcDbEntity
  8
0
  6
Continuous
 62
     7
100
AcDbLine
 10
403.63394
 20
307.39197
 30
0.0
 11
403.23392
 21
307.39197
 31
0.0
  0
LINE
  5
30D
330
36
100
AcDbEntity
  8
0
  6
Continuous
 62
     3
100
AcDbLine
 10
382.03394
 20
298.39197
 30
0.0
 11
382.03394
 21
318.39197
 31
0.0
  0
LINE
  5
30E
330
36
100
AcDbEntity
  8
0
  6
Continuous
 62
     3
100
AcDbLine
 10
404.0339399999998
 20
298.39197
 30
0.0
 11
404.0339399999998
 21
318.39197
 31
0.0
  0
LINE
  5
30F
330
36
100
AcDbEntity
  8
0
  6
Continuous
 62
     3
100
AcDbLine
 10
382.83392
 20
317.39197
 30
0.0
 11
403.23392
 21
317.39197
 31
0.0
  0
LINE
  5
310
330
36
100
AcDbEntity
  8
0
  6
Continuous
 62
     7
100
AcDbLine
 10
382.43393
 20
317.39197
 30
0.0
 11
382.83392
 21
317.39197
 31
0.0
  0
LINE
  5
311
330
36
100
AcDbEntity
  8
0
  6
Continuous
 62
     7
100
AcDbLine
 10
403.63394
 20
317.39197
 30
0.0
 11
403.23392
 21
317.39197
 31
0.0
  0
LINE
  5
312
330
36
100
AcDbEntity
  8
0
  6
Continuous
 62
     7
100
AcDbLine
 10
360.93393
 20
317.39197
 30
0.0
 11
361.33392
 21
317.39197
 31
0.0
  0
LINE
  5
313
330
36
100
AcDbEntity
  8
0
  6
Continuous
 62
     7
100
AcDbLine
 10
381.63394
 20
317.39197
 30
0.0
 11
381.23392
 21
317.39197
 31
0.0
  0
LINE
  5
314
330
36
100
AcDbEntity
  8
0
  6
Continuous
 62
     3
100
AcDbLine
 10
436.9890099999998
 20
214.5589
 30
0.0
 11
394.51215
 21
214.5589
 31
0.0
  0
LINE
  5
315
330
36
100
AcDbEntity
  8
0
  6
Continuous
 62
     3
100
AcDbLine
 10
394.51218
 20
214.5589
 30
0.0
 11
388.48077
 21
236.02249
 31
0.0
  0
LINE
  5
316
330
36
100
AcDbEntity
  8
0
  6
Continuous
 62
     3
100
AcDbLine
 10
388.48077
 20
236.02249
 30
0.0
 11
387.53394
 21
239.39198
 31
0.0
  0
LINE
  5
317
330
36
100
AcDbEntity
  8
0
  6
Continuous
 62
     3
100
AcDbLine
 10
389.38364
 20
236.27618
 30
0.0
 11
387.53394
 21
239.39197
 31
0.0
  0
LINE
  5
318
330
36
100
AcDbEntity
  8
0
  6
Continuous
 62
     3
100
AcDbLine
 10
387.53394
 20
239.39198
 30
0.0
 11
387.57791
 21
235.76877
 31
0.0
  0
LINE
  5
319
330
36
100
AcDbEntity
  8
0
  6
Continuous
 62
     3
100
AcDbLine
 10
396.03394
 20
236.39198
 30
0.0
 11
420.03394
 21
236.39198
 31
0.0
  0
LINE
  5
31A
330
36
100
AcDbEntity
  8
0
  6
Continuous
 62
     3
100
AcDbLine
 10
396.03394
 20
242.39198
 30
0.0
 11
420.03394
 21
242.39198
 31
0.0
  0
LINE
  5
31B
330
36
100
AcDbEntity
  8
0
  6
Continuous
 62
     3
100
AcDbLine
 10
419.03394
 20
237.19199
 30
0.0
 11
419.03394
 21
241.59198
 31
0.0
  0
LINE
  5
31C
330
36
100
AcDbEntity
  8
0
  6
Continuous
 62
     3
100
AcDbLine
 10
419.03394
 20
242.39198
 30
0.0
 11
419.03394
 21
247.82222
 31
0.0
  0
LINE
  5
31D
330
36
100
AcDbEntity
  8
0
  6
Continuous
 62
     7
100
AcDbLine
 10
419.03394
 20
236.79198
 30
0.0
 11
419.03394
 21
237.19199
 31
0.0
  0
LINE
  5
31E
330
36
100
AcDbEntity
  8
0
  6
Continuous
 62
     7
100
AcDbLine
 10
419.03394
 20
241.99197
 30
0.0
 11
419.03394
 21
241.59198
 31
0.0
  0
LINE
  5
31F
330
36
100
AcDbEntity
  8
0
  6
Continuous
 62
     3
100
AcDbLine
 10
342.44769
 20
297.39197
 30
0.0
 11
327.53394
 21
297.39197
 31
0.0
  0
LINE
  5
320
330
36
100
AcDbEntity
  8
0
  6
Continuous
 62
     3
100
AcDbLine
 10
348.03394
 20
288.39197
 30
0.0
 11
327.53394
 21
288.39197
 31
0.0
  0
LINE
  5
321
330
36
100
AcDbEntity
  8
0
  6
Continuous
 62
     3
100
AcDbLine
 10
328.53394
 20
296.59198
 30
0.0
 11
328.53394
 21
289.19199
 31
0.0
  0
LINE
  5
322
330
36
100
AcDbEntity
  8
0
  6
Continuous
 62
     7
100
AcDbLine
 10
328.53394
 20
296.9919700000001
 30
0.0
 11
328.53394
 21
296.59198
 31
0.0
  0
LINE
  5
323
330
36
100
AcDbEntity
  8
0
  6
Continuous
 62
     7
100
AcDbLine
 10
328.53394
 20
288.79199
 30
0.0
 11
328.53394
 21
289.19199
 31
0.0
  0
LINE
  5
324
330
36
100
AcDbEntity
  8
0
  6
Continuous
 62
     3
100
AcDbLine
 10
348.03394
 20
288.39197
 30
0.0
 11
327.53394
 21
288.39197
 31
0.0
  0
LINE
  5
325
330
36
100
AcDbEntity
  8
0
  6
Continuous
 62
     3
100
AcDbLine
 10
348.03394
 20
236.39198
 30
0.0
 11
327.53394
 21
236.39198
 31
0.0
  0
LINE
  5
326
330
36
100
AcDbEntity
  8
0
  6
Continuous
 62
     3
100
AcDbLine
 10
328.53394
 20
287.59198
 30
0.0
 11
328.53394
 21
237.19199
 31
0.0
  0
LINE
  5
327
330
36
100
AcDbEntity
  8
0
  6
Continuous
 62
     7
100
AcDbLine
 10
328.53394
 20
287.99197
 30
0.0
 11
328.53394
 21
287.59198
 31
0.0
  0
LINE
  5
328
330
36
100
AcDbEntity
  8
0
  6
Continuous
 62
     7
100
AcDbLine
 10
328.53394
 20
236.79198
 30
0.0
 11
328.53394
 21
237.19199
 31
0.0
  0
LINE
  5
329
330
36
100
AcDbEntity
  8
0
  6
Continuous
 62
     3
100
AcDbLine
 10
337.53394
 20
297.39197
 30
0.0
 11
317.53394
 21
297.39197
 31
0.0
  0
LINE
  5
32A
330
36
100
AcDbEntity
  8
0
  6
Continuous
 62
     3
100
AcDbLine
 10
343.48169
 20
227.39198
 30
0.0
 11
317.53394
 21
227.39198
 31
0.0
  0
LINE
  5
32B
330
36
100
AcDbEntity
  8
0
  6
Continuous
 62
     3
100
AcDbLine
 10
318.53394
 20
296.59198
 30
0.0
 11
318.53394
 21
228.19199
 31
0.0
  0
LINE
  5
32C
330
36
100
AcDbEntity
  8
0
  6
Continuous
 62
     7
100
AcDbLine
 10
318.53394
 20
296.9919700000001
 30
0.0
 11
318.53394
 21
296.59198
 31
0.0
  0
LINE
  5
32D
330
36
100
AcDbEntity
  8
0
  6
Continuous
 62
     7
100
AcDbLine
 10
318.53394
 20
227.79198
 30
0.0
 11
318.53394
 21
228.19199
 31
0.0
  0
LINE
  5
32E
330
36
100
AcDbEntity
  8
0
  6
Continuous
 62
     3
100
AcDbLine
 10
407.0339399999999
 20
273.39197
 30
0.0
 11
483.53394
 21
273.39197
 31
0.0
  0
LINE
  5
32F
330
36
100
AcDbEntity
  8
0
  6
Continuous
 62
     3
100
AcDbLine
 10
407.0339399999999
 20
251.39198
 30
0.0
 11
483.53394
 21
251.39198
 31
0.0
  0
LINE
  5
330
330
36
100
AcDbEntity
  8
0
  6
Continuous
 62
     3
100
AcDbLine
 10
482.53394
 20
272.59198
 30
0.0
 11
482.53394
 21
252.19199
 31
0.0
  0
LINE
  5
331
330
36
100
AcDbEntity
  8
0
  6
Continuous
 62
     7
100
AcDbLine
 10
482.53394
 20
272.99197
 30
0.0
 11
482.53394
 21
272.59198
 31
0.0
  0
LINE
  5
332
330
36
100
AcDbEntity
  8
0
  6
Continuous
 62
     7
100
AcDbLine
 10
482.53394
 20
251.79198
 30
0.0
 11
482.53394
 21
252.19199
 31
0.0
  0
LINE
  5
333
330
36
100
AcDbEntity
  8
0
  6
Continuous
 62
     3
100
AcDbLine
 10
396.03394
 20
285.39197
 30
0.0
 11
493.53394
 21
285.39197
 31
0.0
  0
LINE
  5
334
330
36
100
AcDbEntity
  8
0
  6
Continuous
 62
     3
100
AcDbLine
 10
396.03394
 20
239.39198
 30
0.0
 11
493.53394
 21
239.39198
 31
0.0
  0
LINE
  5
335
330
36
100
AcDbEntity
  8
0
  6
Continuous
 62
     3
100
AcDbLine
 10
492.53394
 20
284.59198
 30
0.0
 11
492.53394
 21
240.19199
 31
0.0
  0
LINE
  5
336
330
36
100
AcDbEntity
  8
0
  6
Continuous
 62
     7
100
AcDbLine
 10
492.53394
 20
284.99197
 30
0.0
 11
492.53394
 21
284.59198
 31
0.0
  0
LINE
  5
337
330
36
100
AcDbEntity
  8
0
  6
Continuous
 62
     7
100
AcDbLine
 10
492.53394
 20
239.79198
 30
0.0
 11
492.53394
 21
240.19199
 31
0.0
  0
LINE
  5
338
330
36
100
AcDbEntity
  8
0
  6
Continuous
 62
     3
100
AcDbLine
 10
396.03394
 20
285.39197
 30
0.0
 11
493.53394
 21
285.39197
 31
0.0
  0
LINE
  5
339
330
36
100
AcDbEntity
  8
0
  6
Continuous
 62
     3
100
AcDbLine
 10
404.9540999999998
 20
297.39197
 30
0.0
 11
493.53394
 21
297.39197
 31
0.0
  0
LINE
  5
33A
330
36
100
AcDbEntity
  8
0
  6
Continuous
 62
     3
100
AcDbLine
 10
492.53394
 20
286.19199
 30
0.0
 11
492.53394
 21
296.59198
 31
0.0
  0
LINE
  5
33B
330
36
100
AcDbEntity
  8
0
  6
Continuous
 62
     7
100
AcDbLine
 10
492.53394
 20
285.79199
 30
0.0
 11
492.53394
 21
286.19199
 31
0.0
  0
LINE
  5
33C
330
36
100
AcDbEntity
  8
0
  6
Continuous
 62
     7
100
AcDbLine
 10
492.53394
 20
296.9919700000001
 30
0.0
 11
492.53394
 21
296.59198
 31
0.0
  0
LINE
  5
33D
330
36
100
AcDbEntity
  8
0
  6
Continuous
 62
     3
100
AcDbLine
 10
405.2169499999997
 20
227.39198
 30
0.0
 11
493.53394
 21
227.39198
 31
0.0
  0
LINE
  5
33E
330
36
100
AcDbEntity
  8
0
  6
Continuous
 62
     3
100
AcDbLine
 10
396.03394
 20
239.39198
 30
0.0
 11
493.53394
 21
239.39198
 31
0.0
  0
LINE
  5
33F
330
36
100
AcDbEntity
  8
0
  6
Continuous
 62
     3
100
AcDbLine
 10
492.53394
 20
228.19199
 30
0.0
 11
492.53394
 21
238.59198
 31
0.0
  0
LINE
  5
340
330
36
100
AcDbEntity
  8
0
  6
Continuous
 62
     7
100
AcDbLine
 10
492.53394
 20
227.79198
 30
0.0
 11
492.53394
 21
228.19199
 31
0.0
  0
LINE
  5
341
330
36
100
AcDbEntity
  8
0
  6
Continuous
 62
     7
100
AcDbLine
 10
492.53394
 20
238.99197
 30
0.0
 11
492.53394
 21
238.59198
 31
0.0
  0
LINE
  5
342
330
36
100
AcDbEntity
  8
0
  6
Continuous
 62
     3
100
AcDbLine
 10
407.0339399999999
 20
273.39197
 30
0.0
 11
483.53394
 21
273.39197
 31
0.0
  0
LINE
  5
343
330
36
100
AcDbEntity
  8
0
  6
Continuous
 62
     3
100
AcDbLine
 10
397.4762
 20
297.39197
 30
0.0
 11
483.53394
 21
297.39197
 31
0.0
  0
LINE
  5
344
330
36
100
AcDbEntity
  8
0
  6
Continuous
 62
     3
100
AcDbLine
 10
482.53394
 20
274.19199
 30
0.0
 11
482.53394
 21
296.59198
 31
0.0
  0
LINE
  5
345
330
36
100
AcDbEntity
  8
0
  6
Continuous
 62
     7
100
AcDbLine
 10
482.53394
 20
273.79199
 30
0.0
 11
482.53394
 21
274.19199
 31
0.0
  0
LINE
  5
346
330
36
100
AcDbEntity
  8
0
  6
Continuous
 62
     7
100
AcDbLine
 10
482.53394
 20
296.9919700000001
 30
0.0
 11
482.53394
 21
296.59198
 31
0.0
  0
LINE
  5
347
330
36
100
AcDbEntity
  8
0
  6
Continuous
 62
     3
100
AcDbLine
 10
398.22073
 20
227.39198
 30
0.0
 11
483.59506
 21
227.39198
 31
0.0
  0
LINE
  5
348
330
36
100
AcDbEntity
  8
0
  6
Continuous
 62
     3
100
AcDbLine
 10
407.0339399999999
 20
251.39198
 30
0.0
 11
483.59506
 21
251.39198
 31
0.0
  0
LINE
  5
349
330
36
100
AcDbEntity
  8
0
  6
Continuous
 62
     3
100
AcDbLine
 10
482.5950599999998
 20
228.19199
 30
0.0
 11
482.5950599999998
 21
250.59198
 31
0.0
  0
LINE
  5
34A
330
36
100
AcDbEntity
  8
0
  6
Continuous
 62
     7
100
AcDbLine
 10
482.5950599999998
 20
227.79198
 30
0.0
 11
482.5950599999998
 21
228.19199
 31
0.0
  0
LINE
  5
34B
330
36
100
AcDbEntity
  8
0
  6
Continuous
 62
     7
100
AcDbLine
 10
482.5950599999998
 20
250.99197
 30
0.0
 11
482.5950599999998
 21
250.59198
 31
0.0
  0
LINE
  5
34C
330
36
100
AcDbEntity
  8
0
  6
Continuous
 62
     3
100
AcDbLine
 10
338.53394
 20
401.34775
 30
0.0
 11
338.53394
 21
345.01138
 31
0.0
  0
LINE
  5
34D
330
36
100
AcDbEntity
  8
0
  6
Continuous
 62
     3
100
AcDbLine
 10
347.53394
 20
381.8316
 30
0.0
 11
347.53394
 21
345.01138
 31
0.0
  0
LINE
  5
34E
330
36
100
AcDbEntity
  8
0
  6
Continuous
 62
     3
100
AcDbLine
 10
339.33392
 20
346.01138
 30
0.0
 11
346.73392
 21
346.01138
 31
0.0
  0
LINE
  5
34F
330
36
100
AcDbEntity
  8
0
  6
Continuous
 62
     7
100
AcDbLine
 10
338.93393
 20
346.01138
 30
0.0
 11
339.33392
 21
346.01138
 31
0.0
  0
LINE
  5
350
330
36
100
AcDbEntity
  8
0
  6
Continuous
 62
     7
100
AcDbLine
 10
347.13394
 20
346.01138
 30
0.0
 11
346.73392
 21
346.01138
 31
0.0
  0
LINE
  5
351
330
36
100
AcDbEntity
  8
0
  6
Continuous
 62
     3
100
AcDbLine
 10
465.9800999999998
 20
371.93759
 30
0.0
 11
465.9800999999998
 21
345.01138
 31
0.0
  0
LINE
  5
352
330
36
100
AcDbEntity
  8
0
  6
Continuous
 62
     3
100
AcDbLine
 10
347.53394
 20
381.8316
 30
0.0
 11
347.53394
 21
345.01138
 31
0.0
  0
LINE
  5
353
330
36
100
AcDbEntity
  8
0
  6
Continuous
 62
     3
100
AcDbLine
 10
465.1801099999998
 20
346.01138
 30
0.0
 11
348.33392
 21
346.01138
 31
0.0
  0
LINE
  5
354
330
36
100
AcDbEntity
  8
0
  6
Continuous
 62
     7
100
AcDbLine
 10
465.5801099999997
 20
346.01138
 30
0.0
 11
465.1801099999998
 21
346.01138
 31
0.0
  0
LINE
  5
355
330
36
100
AcDbEntity
  8
0
  6
Continuous
 62
     7
100
AcDbLine
 10
347.93393
 20
346.01138
 30
0.0
 11
348.33392
 21
346.01138
 31
0.0
  0
LINE
  5
356
330
36
100
AcDbEntity
  8
0
  6
Continuous
 62
     7
100
AcDbLine
 10
425.0443699999998
 20
381.43991
 30
0.0
 11
425.1163299999998
 21
381.83337
 31
0.0
  0
LINE
  5
357
330
36
100
AcDbEntity
  8
0
  6
Continuous
 62
     7
100
AcDbLine
 10
427.80167
 20
411.44772
 30
0.0
 11
427.80072
 21
411.04773
 31
0.0
  0
LINE
  5
358
330
36
100
AcDbEntity
  8
0
  6
Continuous
 62
     3
100
AcDbLine
 10
337.53394
 20
392.3477200000002
 30
0.0
 11
327.53394
 21
392.3477200000002
 31
0.0
  0
LINE
  5
359
330
36
100
AcDbEntity
  8
0
  6
Continuous
 62
     3
100
AcDbLine
 10
337.53394
 20
408.84772
 30
0.0
 11
327.53394
 21
408.84772
 31
0.0
  0
LINE
  5
35A
330
36
100
AcDbEntity
  8
0
  6
Continuous
 62
     3
100
AcDbLine
 10
328.53394
 20
393.14774
 30
0.0
 11
328.53394
 21
408.04773
 31
0.0
  0
LINE
  5
35B
330
36
100
AcDbEntity
  8
0
  6
Continuous
 62
     7
100
AcDbLine
 10
328.53394
 20
392.74771
 30
0.0
 11
328.53394
 21
393.14774
 31
0.0
  0
LINE
  5
35C
330
36
100
AcDbEntity
  8
0
  6
Continuous
 62
     7
100
AcDbLine
 10
328.53394
 20
408.44772
 30
0.0
 11
328.53394
 21
408.04773
 31
0.0
  0
LINE
  5
35D
330
36
100
AcDbEntity
  8
0
  6
Continuous
 62
     3
100
AcDbLine
 10
337.53394
 20
385.22852
 30
0.0
 11
317.53394
 21
385.22852
 31
0.0
  0
LINE
  5
35E
330
36
100
AcDbEntity
  8
0
  6
Continuous
 62
     3
100
AcDbLine
 10
337.53394
 20
408.84772
 30
0.0
 11
317.53394
 21
408.84772
 31
0.0
  0
LINE
  5
35F
330
36
100
AcDbEntity
  8
0
  6
Continuous
 62
     3
100
AcDbLine
 10
318.53394
 20
386.0285
 30
0.0
 11
318.53394
 21
408.04773
 31
0.0
  0
LINE
  5
360
330
36
100
AcDbEntity
  8
0
  6
Continuous
 62
     7
100
AcDbLine
 10
318.53394
 20
385.62851
 30
0.0
 11
318.53394
 21
386.0285
 31
0.0
  0
LINE
  5
361
330
36
100
AcDbEntity
  8
0
  6
Continuous
 62
     7
100
AcDbLine
 10
318.53394
 20
408.44772
 30
0.0
 11
318.53394
 21
408.04773
 31
0.0
  0
LINE
  5
362
330
36
100
AcDbEntity
  8
0
  6
Continuous
 62
     3
100
AcDbLine
 10
449.90262
 20
379.47699
 30
0.0
 11
451.91983
 21
390.3609
 31
0.0
  0
LINE
  5
363
330
36
100
AcDbEntity
  8
0
  6
Continuous
 62
     3
100
AcDbLine
 10
465.63467
 20
376.56122
 30
0.0
 11
467.65192
 21
387.44513
 31
0.0
  0
LINE
  5
364
330
36
100
AcDbEntity
  8
0
  6
Continuous
 62
     3
100
AcDbLine
 10
452.52417
 20
389.23187
 30
0.0
 11
466.6830400000002
 21
386.6076700000002
 31
0.0
  0
LINE
  5
365
330
36
100
AcDbEntity
  8
0
  6
Continuous
 62
     7
100
AcDbLine
 10
452.13089
 20
389.30475
 30
0.0
 11
452.52417
 21
389.23187
 31
0.0
  0
LINE
  5
366
330
36
100
AcDbEntity
  8
0
  6
Continuous
 62
     7
100
AcDbLine
 10
467.07639
 20
386.53479
 30
0.0
 11
466.6830400000002
 21
386.6076700000002
 31
0.0
  0
LINE
  5
367
330
36
100
AcDbEntity
  8
0
  6
Continuous
 62
     3
100
AcDbLine
 10
466.16235
 20
373.92087
 30
0.0
 11
468.63516
 21
387.2629100000001
 31
0.0
  0
LINE
  5
368
330
36
100
AcDbEntity
  8
0
  6
Continuous
 62
     3
100
AcDbLine
 10
465.8118599999998
 20
377.61624
 30
0.0
 11
467.63412
 21
387.44846
 31
0.0
  0
LINE
  5
369
330
36
100
AcDbEntity
  8
0
  6
Continuous
 62
     3
100
AcDbLine
 10
466.6653099999998
 20
386.6109600000001
 30
0.0
 11
465.87869
 21
386.75677
 31
0.0
  0
LINE
  5
36A
330
36
100
AcDbEntity
  8
0
  6
Continuous
 62
     3
100
AcDbLine
 10
469.2395
 20
386.13388
 30
0.0
 11
476.08237
 21
384.86563
 31
0.0
  0
LINE
  5
36B
330
36
100
AcDbEntity
  8
0
  6
Continuous
 62
     3
100
AcDbLine
 10
467.4519
 20
386.46518
 30
0.0
 11
468.4529099999998
 21
386.27966
 31
0.0
  0
LINE
  5
36C
330
36
100
AcDbEntity
  8
0
  6
Continuous
 62
     7
100
AcDbLine
 10
467.05859
 20
386.53809
 30
0.0
 11
466.6653099999998
 21
386.6109600000001
 31
0.0
  0
LINE
  5
36D
330
36
100
AcDbEntity
  8
0
  6
Continuous
 62
     7
100
AcDbLine
 10
468.84622
 20
386.2067600000001
 30
0.0
 11
469.2395
 21
386.13388
 31
0.0
  0
LINE
  5
36E
330
36
100
AcDbEntity
  8
0
  6
Continuous
 62
     3
100
AcDbLine
 10
466.56287
 20
373.3381
 30
0.0
 11
481.7598
 21
370.52155
 31
0.0
  0
LINE
  5
36F
330
36
100
AcDbEntity
  8
0
  6
Continuous
 62
     3
100
AcDbLine
 10
464.7405099999998
 20
363.50555
 30
0.0
 11
479.93744
 21
360.689
 31
0.0
  0
LINE
  5
370
330
36
100
AcDbEntity
  8
0
  6
Continuous
 62
     3
100
AcDbLine
 10
480.63077
 20
369.91714
 30
0.0
 11
479.0999799999998
 21
361.65781
 31
0.0
  0
LINE
  5
371
330
36
100
AcDbEntity
  8
0
  6
Continuous
 62
     7
100
AcDbLine
 10
480.70364
 20
370.31046
 30
0.0
 11
480.63077
 21
369.91714
 31
0.0
  0
LINE
  5
372
330
36
100
AcDbEntity
  8
0
  6
Continuous
 62
     7
100
AcDbLine
 10
479.0271
 20
361.26453
 30
0.0
 11
479.0999799999998
 21
361.65781
 31
0.0
  0
LINE
  5
373
330
36
100
AcDbEntity
  8
0
  6
Continuous
 62
     3
100
AcDbLine
 10
446.98685
 20
363.7449
 30
0.0
 11
436.1891799999998
 21
365.74612
 31
0.0
  0
LINE
  5
374
330
36
100
AcDbEntity
  8
0
  6
Continuous
 62
     3
100
AcDbLine
 10
446.54172
 20
366.87851
 30
0.0
 11
436.73587
 21
368.69589
 31
0.0
  0
LINE
  5
375
330
36
100
AcDbEntity
  8
0
  6
Continuous
 62
     3
100
AcDbLine
 10
437.8649299999998
 20
369.30029
 30
0.0
 11
438.01071
 21
370.08688
 31
0.0
  0
LINE
  5
376
330
36
100
AcDbEntity
  8
0
  6
Continuous
 62
     3
100
AcDbLine
 10
437.02664
 20
364.77731
 30
0.0
 11
436.04813
 21
359.49774
 31
0.0
  0
LINE
  5
377
330
36
100
AcDbEntity
  8
0
  6
Continuous
 62
     3
100
AcDbLine
 10
437.71912
 20
368.51367
 30
0.0
 11
437.17242
 21
365.5639
 31
0.0
  0
LINE
  5
378
330
36
100
AcDbEntity
  8
0
  6
Continuous
 62
     7
100
AcDbLine
 10
437.79202
 20
368.90695
 30
0.0
 11
437.8649299999998
 21
369.30029
 31
0.0
  0
LINE
  5
379
330
36
100
AcDbEntity
  8
0
  6
Continuous
 62
     7
100
AcDbLine
 10
437.09952
 20
365.17059
 30
0.0
 11
437.02664
 21
364.77731
 31
0.0
  0
LINE
  5
37A
330
36
100
AcDbEntity
  8
0
  6
Continuous
 62
     7
100
AcDbLine
 10
154.12636
 20
476.57544
 30
0.0
 11
264.12634
 21
476.57544
 31
0.0
  0
LINE
  5
37B
330
36
100
AcDbEntity
  8
0
  6
Continuous
 62
     7
100
AcDbLine
 10
154.12636
 20
476.57544
 30
0.0
 11
154.12636
 21
389.9462974471825
 31
0.0
  0
LINE
  5
37C
330
36
100
AcDbEntity
  8
0
  6
Continuous
 62
     7
100
AcDbLine
 10
174.12636
 20
476.57544
 30
0.0
 11
174.12636
 21
373.9462974471825
 31
0.0
  0
LINE
  5
37D
330
36
100
AcDbEntity
  8
0
  6
Continuous
 62
     7
100
AcDbLine
 10
154.12636
 20
468.57544
 30
0.0
 11
264.12634
 21
468.57544
 31
0.0
  0
LINE
  5
37E
330
36
100
AcDbEntity
  8
0
  6
Continuous
 62
     7
100
AcDbLine
 10
154.12636
 20
460.57544
 30
0.0
 11
264.12634
 21
460.57544
 31
0.0
  0
LINE
  5
37F
330
36
100
AcDbEntity
  8
0
  6
Continuous
 62
     7
100
AcDbLine
 10
154.12636
 20
452.57544
 30
0.0
 11
264.12634
 21
452.57544
 31
0.0
  0
LINE
  5
380
330
36
100
AcDbEntity
  8
0
  6
Continuous
 62
     7
100
AcDbLine
 10
174.0692106074939
 20
420.5754399999998
 30
0.0
 11
264.0691906074939
 21
420.5754399999998
 31
0.0
  0
LINE
  5
381
330
36
100
AcDbEntity
  8
0
  6
Continuous
 62
     7
100
AcDbLine
 10
154.12636
 20
476.57544
 30
0.0
 11
154.12636
 21
381.9462974471825
 31
0.0
  0
LINE
  5
382
330
36
100
AcDbEntity
  8
0
  6
Continuous
 62
     7
100
AcDbLine
 10
154.12636
 20
476.57544
 30
0.0
 11
264.12634
 21
476.57544
 31
0.0
  0
LINE
  5
383
330
36
100
AcDbEntity
  8
0
  6
Continuous
 62
     7
100
AcDbLine
 10
264.12634
 20
476.57544
 30
0.0
 11
264.12634
 21
373.9462974471825
 31
0.0
  0
LINE
  5
384
330
36
100
AcDbEntity
  8
0
  6
Continuous
 62
     7
100
AcDbLine
 10
154.0692106074939
 20
444.57544
 30
0.0
 11
264.0691906074939
 21
444.57544
 31
0.0
  0
LINE
  5
385
330
36
100
AcDbEntity
  8
0
  6
Continuous
 62
     7
100
AcDbLine
 10
154.0692106074939
 20
436.57544
 30
0.0
 11
264.0691906074939
 21
436.57544
 31
0.0
  0
LINE
  5
386
330
36
100
AcDbEntity
  8
0
  6
Continuous
 62
     7
100
AcDbLine
 10
154.0692106074939
 20
404.57544
 30
0.0
 11
264.0691906074939
 21
404.57544
 31
0.0
  0
LINE
  5
387
330
36
100
AcDbEntity
  8
0
  6
Continuous
 62
     7
100
AcDbLine
 10
154.0692106074939
 20
428.5754399999999
 30
0.0
 11
264.0691906074939
 21
428.5754399999999
 31
0.0
  0
LINE
  5
388
330
36
100
AcDbEntity
  8
0
  6
Continuous
 62
     7
100
AcDbLine
 10
174.0692106074939
 20
412.5754399999998
 30
0.0
 11
264.0691906074939
 21
412.5754399999998
 31
0.0
  0
LINE
  5
389
330
36
100
AcDbEntity
  8
0
  6
Continuous
 62
     3
100
AcDbLine
 10
336.67032
 20
385.22852
 30
0.0
 11
327.53394
 21
385.22852
 31
0.0
  0
LINE
  5
38A
330
36
100
AcDbEntity
  8
0
  6
Continuous
 62
     3
100
AcDbLine
 10
337.53394
 20
392.3477200000002
 30
0.0
 11
327.53394
 21
392.3477200000002
 31
0.0
  0
LINE
  5
38B
330
36
100
AcDbEntity
  8
0
  6
Continuous
 62
     3
100
AcDbLine
 10
328.53394
 20
386.0285
 30
0.0
 11
328.53394
 21
391.54773
 31
0.0
  0
LINE
  5
38C
330
36
100
AcDbEntity
  8
0
  6
Continuous
 62
     7
100
AcDbLine
 10
328.53394
 20
385.62851
 30
0.0
 11
328.53394
 21
386.0285
 31
0.0
  0
LINE
  5
38D
330
36
100
AcDbEntity
  8
0
  6
Continuous
 62
     7
100
AcDbLine
 10
328.53394
 20
391.94772
 30
0.0
 11
328.53394
 21
391.54773
 31
0.0
  0
LINE
  5
38E
330
36
100
AcDbEntity
  8
0
  6
Continuous
 62
     3
100
AcDbLine
 10
337.71729
 20
227.39198
 30
0.0
 11
326.53394
 21
227.39198
 31
0.0
  0
LINE
  5
38F
330
36
100
AcDbEntity
  8
0
  6
Continuous
 62
     3
100
AcDbLine
 10
337.71729
 20
236.39198
 30
0.0
 11
326.53394
 21
236.39198
 31
0.0
  0
LINE
  5
390
330
36
100
AcDbEntity
  8
0
  6
Continuous
 62
     3
100
AcDbLine
 10
328.53394
 20
228.19199
 30
0.0
 11
328.53394
 21
235.59198
 31
0.0
  0
LINE
  5
391
330
36
100
AcDbEntity
  8
0
  6
Continuous
 62
     7
100
AcDbLine
 10
328.53394
 20
227.79198
 30
0.0
 11
328.53394
 21
228.19199
 31
0.0
  0
LINE
  5
392
330
36
100
AcDbEntity
  8
0
  6
Continuous
 62
     7
100
AcDbLine
 10
328.53394
 20
235.99197
 30
0.0
 11
328.53394
 21
235.59198
 31
0.0
  0
LINE
  5
393
330
36
100
AcDbEntity
  8
0
  6
Continuous
 62
     3
100
AcDbLine
 10
360.53394
 20
287.39197
 30
0.0
 11
360.53394
 21
318.39197
 31
0.0
  0
LINE
  5
394
330
36
100
AcDbEntity
  8
0
  6
Continuous
 62
     3
100
AcDbLine
 10
382.03394
 20
287.392
 30
0.0
 11
382.03394
 21
318.39197
 31
0.0
  0
LINE
  5
395
330
36
100
AcDbEntity
  8
0
  6
Continuous
 62
     3
100
AcDbLine
 10
361.33392
 20
317.39197
 30
0.0
 11
381.23392
 21
317.39197
 31
0.0
  0
LINE
  5
396
330
36
100
AcDbEntity
  8
0
  6
Continuous
 62
     7
100
AcDbLine
 10
360.93393
 20
317.39197
 30
0.0
 11
361.33392
 21
317.39197
 31
0.0
  0
LINE
  5
397
330
36
100
AcDbEntity
  8
0
  6
Continuous
 62
     7
100
AcDbLine
 10
381.63394
 20
317.39197
 30
0.0
 11
381.23392
 21
317.39197
 31
0.0
  0
LINE
  5
398
330
36
100
AcDbEntity
  8
0
  6
Continuous
 62
     7
100
AcDbLine
 10
154.12636
 20
373.9462974471825
 30
0.0
 11
264.12634
 21
373.9462974471825
 31
0.0
  0
ARC
  5
399
330
36
100
AcDbEntity
  8
0
  6
Continuous
 62
     7
100
AcDbCircle
 10
453.83392
 20
262.39197
 30
0.0
 40
12.7
100
AcDbArc
 50
268.22765
 51
91.77235200000001
  0
ARC
  5
39A
330
36
100
AcDbEntity
  8
0
  6
Continuous
 62
     7
100
AcDbCircle
 10
453.83392
 20
262.39197
 30
0.0
 40
13.7
100
AcDbArc
 50
270.0
 51
90.0
  0
ARC
  5
39B
330
36
100
AcDbEntity
  8
0
  6
Continuous
 62
     7
100
AcDbCircle
 10
349.53394
 20
238.39198
 30
0.0
 40
11.0
100
AcDbArc
 50
180.0
 51
0.0
  0
ARC
  5
39C
330
36
100
AcDbEntity
  8
0
  6
Continuous
 62
     7
100
AcDbCircle
 10
349.53394
 20
286.39197
 30
0.0
 40
11.0
100
AcDbArc
 50
0.0
 51
180.0
  0
ARC
  5
39D
330
36
100
AcDbEntity
  8
0
  6
Continuous
 62
     7
100
AcDbCircle
 10
398.53394
 20
248.39198
 30
0.0
 40
2.25
100
AcDbArc
 50
172.3377
 51
7.6623017
  0
ARC
  5
39E
330
36
100
AcDbEntity
  8
0
  6
Continuous
 62
     7
100
AcDbCircle
 10
398.53394
 20
248.39198
 30
0.0
 40
4.25
100
AcDbArc
 50
175.9522
 51
4.047804
  0
ARC
  5
39F
330
36
100
AcDbEntity
  8
0
  6
Continuous
 62
     7
100
AcDbCircle
 10
393.03394
 20
238.39198
 30
0.0
 40
11.0
100
AcDbArc
 50
180.0
 51
0.0
  0
CIRCLE
  5
3A0
330
36
100
AcDbEntity
  8
0
  6
Continuous
 62
     7
100
AcDbCircle
 10
354.53394
 20
236.39198
 30
0.0
 40
4.25
  0
CIRCLE
  5
3A1
330
36
100
AcDbEntity
  8
0
  6
Continuous
 62
     7
100
AcDbCircle
 10
354.53394
 20
236.39198
 30
0.0
 40
2.25
  0
ARC
  5
3A2
330
36
100
AcDbEntity
  8
0
  6
Continuous
 62
     7
100
AcDbCircle
 10
387.53394
 20
236.39198
 30
0.0
 40
4.25
100
AcDbArc
 50
180.0
 51
0.0
  0
ARC
  5
3A3
330
36
100
AcDbEntity
  8
0
  6
Continuous
 62
     7
100
AcDbCircle
 10
387.53394
 20
242.39198
 30
0.0
 40
4.25
100
AcDbArc
 50
0.0
 51
180.0
  0
ARC
  5
3A4
330
36
100
AcDbEntity
  8
0
  6
Continuous
 62
     7
100
AcDbCircle
 10
387.53394
 20
236.39198
 30
0.0
 40
2.25
100
AcDbArc
 50
180.0
 51
0.0
  0
ARC
  5
3A5
330
36
100
AcDbEntity
  8
0
  6
Continuous
 62
     7
100
AcDbCircle
 10
387.53394
 20
242.39198
 30
0.0
 40
2.25
100
AcDbArc
 50
0.0
 51
180.0
  0
ARC
  5
3A6
330
36
100
AcDbEntity
  8
0
  6
Continuous
 62
     7
100
AcDbCircle
 10
376.64316
 20
320.69745
 30
0.0
 40
65.0
100
AcDbArc
 50
281.0014
 51
294.35285
  0
ARC
  5
3A7
330
36
100
AcDbEntity
  8
0
  6
Continuous
 62
     7
100
AcDbCircle
 10
376.64316
 20
204.08652
 30
0.0
 40
65.0
100
AcDbArc
 50
65.64709
 51
78.99859700000002
  0
ARC
  5
3A8
330
36
100
AcDbEntity
  8
0
  6
Continuous
 62
     7
100
AcDbCircle
 10
398.53394
 20
254.39198
 30
0.0
 40
4.25
100
AcDbArc
 50
36.031805
 51
143.9682
  0
ARC
  5
3A9
330
36
100
AcDbEntity
  8
0
  6
Continuous
 62
     7
100
AcDbCircle
 10
398.53394
 20
270.39197
 30
0.0
 40
4.25
100
AcDbArc
 50
216.03197
 51
323.96803
  0
ARC
  5
3AA
330
36
100
AcDbEntity
  8
0
  6
Continuous
 62
     7
100
AcDbCircle
 10
398.53394
 20
276.39197
 30
0.0
 40
2.25
100
AcDbArc
 50
352.33808
 51
187.66192
  0
ARC
  5
3AB
330
36
100
AcDbEntity
  8
0
  6
Continuous
 62
     7
100
AcDbCircle
 10
398.53394
 20
276.39197
 30
0.0
 40
4.25
100
AcDbArc
 50
355.95199
 51
184.0476
  0
ARC
  5
3AC
330
36
100
AcDbEntity
  8
0
  6
Continuous
 62
     7
100
AcDbCircle
 10
393.03394
 20
286.39197
 30
0.0
 40
11.0
100
AcDbArc
 50
0.0
 51
180.0
  0
ARC
  5
3AD
330
36
100
AcDbEntity
  8
0
  6
Continuous
 62
     7
100
AcDbCircle
 10
387.53394
 20
288.39197
 30
0.0
 40
4.25
100
AcDbArc
 50
0.0
 51
180.0
  0
CIRCLE
  5
3AE
330
36
100
AcDbEntity
  8
0
  6
Continuous
 62
     7
100
AcDbCircle
 10
354.53394
 20
288.39197
 30
0.0
 40
4.25
  0
ARC
  5
3AF
330
36
100
AcDbEntity
  8
0
  6
Continuous
 62
     7
100
AcDbCircle
 10
362.03394
 20
270.39197
 30
0.0
 40
2.5
100
AcDbArc
 50
180.0
 51
270.0
  0
ARC
  5
3B0
330
36
100
AcDbEntity
  8
0
  6
Continuous
 62
     7
100
AcDbCircle
 10
354.53394
 20
262.39197
 30
0.0
 40
7.0
100
AcDbArc
 50
242.96431
 51
308.59006
  0
ARC
  5
3B1
330
36
100
AcDbEntity
  8
0
  6
Continuous
 62
     7
100
AcDbCircle
 10
354.53394
 20
262.39197
 30
0.0
 40
7.0
100
AcDbArc
 50
51.409943
 51
117.03569
  0
CIRCLE
  5
3B2
330
36
100
AcDbEntity
  8
0
  6
Continuous
 62
     7
100
AcDbCircle
 10
344.53394
 20
262.39197
 30
0.0
 40
4.25
  0
ARC
  5
3B3
330
36
100
AcDbEntity
  8
0
  6
Continuous
 62
     7
100
AcDbCircle
 10
342.73392
 20
252.39198
 30
0.0
 40
0.30000001
100
AcDbArc
 50
90.0
 51
180.0
  0
ARC
  5
3B4
330
36
100
AcDbEntity
  8
0
  6
Continuous
 62
     7
100
AcDbCircle
 10
342.73392
 20
248.99199
 30
0.0
 40
0.30000001
100
AcDbArc
 50
180.0
 51
270.0
  0
ARC
  5
3B5
330
36
100
AcDbEntity
  8
0
  6
Continuous
 62
     7
100
AcDbCircle
 10
352.03394
 20
257.49301
 30
0.0
 40
1.5
100
AcDbArc
 50
180.0
 51
242.9642
  0
CIRCLE
  5
3B6
330
36
100
AcDbEntity
  8
0
  6
Continuous
 62
     7
100
AcDbCircle
 10
344.53394
 20
262.39197
 30
0.0
 40
2.25
  0
ARC
  5
3B7
330
36
100
AcDbEntity
  8
0
  6
Continuous
 62
     7
100
AcDbCircle
 10
352.03394
 20
267.29095
 30
0.0
 40
1.5
100
AcDbArc
 50
117.0358
 51
180.0
  0
ARC
  5
3B8
330
36
100
AcDbEntity
  8
0
  6
Continuous
 62
     7
100
AcDbCircle
 10
360.77136
 20
254.5757
 30
0.0
 40
3.0
100
AcDbArc
 50
76.50213599999998
 51
128.59017
  0
ARC
  5
3B9
330
36
100
AcDbEntity
  8
0
  6
Continuous
 62
     7
100
AcDbCircle
 10
362.03394
 20
254.39198
 30
0.0
 40
2.5
100
AcDbArc
 50
90.0
 51
180.0
  0
ARC
  5
3BA
330
36
100
AcDbEntity
  8
0
  6
Continuous
 62
     7
100
AcDbCircle
 10
376.64316
 20
320.69745
 30
0.0
 40
65.0
100
AcDbArc
 50
256.50213
 51
258.9986
  0
ARC
  5
3BB
330
36
100
AcDbEntity
  8
0
  6
Continuous
 62
     7
100
AcDbCircle
 10
361.53394
 20
262.39197
 30
0.0
 40
2.0
100
AcDbArc
 50
88.61940399999997
 51
271.3806
  0
ARC
  5
3BC
330
36
100
AcDbEntity
  8
0
  6
Continuous
 62
     7
100
AcDbCircle
 10
360.77136
 20
270.20825
 30
0.0
 40
3.0
100
AcDbArc
 50
231.40964
 51
283.4978
  0
ARC
  5
3BD
330
36
100
AcDbEntity
  8
0
  6
Continuous
 62
     7
100
AcDbCircle
 10
376.64316
 20
204.08652
 30
0.0
 40
65.0
100
AcDbArc
 50
101.0014
 51
103.49787
  0
CIRCLE
  5
3BE
330
36
100
AcDbEntity
  8
0
  6
Continuous
 62
     7
100
AcDbCircle
 10
354.53394
 20
288.39197
 30
0.0
 40
2.25
  0
ARC
  5
3BF
330
36
100
AcDbEntity
  8
0
  6
Continuous
 62
     7
100
AcDbCircle
 10
342.73392
 20
272.39197
 30
0.0
 40
0.30000001
100
AcDbArc
 50
180.0
 51
270.0
  0
ARC
  5
3C0
330
36
100
AcDbEntity
  8
0
  6
Continuous
 62
     7
100
AcDbCircle
 10
342.73392
 20
275.79199
 30
0.0
 40
0.30000001
100
AcDbArc
 50
90.0
 51
180.0
  0
ARC
  5
3C1
330
36
100
AcDbEntity
  8
0
  6
Continuous
 62
     7
100
AcDbCircle
 10
387.53394
 20
282.39197
 30
0.0
 40
4.25
100
AcDbArc
 50
180.0
 51
0.0
  0
ARC
  5
3C2
330
36
100
AcDbEntity
  8
0
  6
Continuous
 62
     7
100
AcDbCircle
 10
387.53394
 20
282.39197
 30
0.0
 40
2.25
100
AcDbArc
 50
180.0
 51
0.0
  0
ARC
  5
3C3
330
36
100
AcDbEntity
  8
0
  6
Continuous
 62
     7
100
AcDbCircle
 10
387.53394
 20
288.39197
 30
0.0
 40
2.25
100
AcDbArc
 50
0.0
 51
180.0
  0
ARC
  5
3C4
330
36
100
AcDbEntity
  8
0
  6
Continuous
 62
     7
100
AcDbCircle
 10
403.0339399999999
 20
262.39197
 30
0.0
 40
1.0
100
AcDbArc
 50
294.35308
 51
65.646924
  0
ARC
  5
3C5
330
36
100
AcDbEntity
  8
0
  6
Continuous
 62
     7
100
AcDbCircle
 10
450.53394
 20
262.39197
 30
0.0
 40
5.25
100
AcDbArc
 50
286.01333
 51
73.986668
  0
ARC
  5
3C6
330
36
100
AcDbEntity
  8
0
  6
Continuous
 62
     7
100
AcDbCircle
 10
453.53394
 20
252.69662
 30
0.0
 40
3.0
100
AcDbArc
 50
180.0
 51
268.22788
  0
ARC
  5
3C7
330
36
100
AcDbEntity
  8
0
  6
Continuous
 62
     7
100
AcDbCircle
 10
452.53394
 20
255.42329
 30
0.0
 40
2.0
100
AcDbArc
 50
106.01337
 51
180.0
  0
ARC
  5
3C8
330
36
100
AcDbEntity
  8
0
  6
Continuous
 62
     7
100
AcDbCircle
 10
452.53394
 20
269.36066
 30
0.0
 40
2.0
100
AcDbArc
 50
180.0
 51
253.98651
  0
ARC
  5
3C9
330
36
100
AcDbEntity
  8
0
  6
Continuous
 62
     7
100
AcDbCircle
 10
453.53394
 20
272.08734
 30
0.0
 40
3.0
100
AcDbArc
 50
91.772124
 51
180.0
  0
ARC
  5
3CA
330
36
100
AcDbEntity
  8
0
  6
PHANTOM
 62
     3
100
AcDbCircle
 10
338.53394
 20
410.34772
 30
0.0
 40
1.5
100
AcDbArc
 50
180.0
 51
270.0
  0
ARC
  5
3CB
330
36
100
AcDbEntity
  8
0
  6
Continuous
 62
     7
100
AcDbCircle
 10
356.15536
 20
451.30957
 30
0.0
 40
65.0
100
AcDbArc
 50
289.0491299999999
 51
317.44203
  0
ARC
  5
3CC
330
36
100
AcDbEntity
  8
0
  6
Continuous
 62
     7
100
AcDbCircle
 10
354.03394
 20
392.3477200000002
 30
0.0
 40
7.0
100
AcDbArc
 50
4.531661999999998
 51
37.48929
  0
ARC
  5
3CD
330
36
100
AcDbEntity
  8
0
  6
Continuous
 62
     7
100
AcDbCircle
 10
343.45645
 20
439.15619
 30
0.0
 40
50.0
100
AcDbArc
 50
291.76031
 51
320.49326
  0
CIRCLE
  5
3CE
330
36
100
AcDbEntity
  8
0
  6
Continuous
 62
     7
100
AcDbCircle
 10
347.53394
 20
392.3477200000002
 30
0.0
 40
3.5250001
  0
ARC
  5
3CF
330
36
100
AcDbEntity
  8
0
  6
Continuous
 62
     7
100
AcDbCircle
 10
347.53394
 20
392.3477200000002
 30
0.0
 40
7.0
100
AcDbArc
 50
190.63432
 51
332.8331600000001
  0
ARC
  5
3D0
330
36
100
AcDbEntity
  8
0
  6
Continuous
 62
     7
100
AcDbCircle
 10
352.03299
 20
438.3041999999998
 30
0.0
 40
40.0
100
AcDbArc
 50
282.27024
 51
318.59239
  0
ARC
  5
3D1
330
36
100
AcDbEntity
  8
0
  6
PHANTOM
 62
     3
100
AcDbCircle
 10
360.53394
 20
410.34772
 30
0.0
 40
1.5
100
AcDbArc
 50
270.0
 51
0.0
  0
ARC
  5
3D2
330
36
100
AcDbEntity
  8
0
  6
PHANTOM
 62
     3
100
AcDbCircle
 10
367.53394
 20
413.34772
 30
0.0
 40
1.5
100
AcDbArc
 50
180.0
 51
270.0
  0
ARC
  5
3D3
330
36
100
AcDbEntity
  8
0
  6
Continuous
 62
     7
100
AcDbCircle
 10
448.1523099999998
 20
364.54593
 30
0.0
 40
1.0
100
AcDbArc
 50
169.50075
 51
259.4990300000001
  0
ARC
  5
3D4
330
36
100
AcDbEntity
  8
0
  6
Continuous
 62
     7
100
AcDbCircle
 10
450.7036099999998
 20
378.31149
 30
0.0
 40
1.0
100
AcDbArc
 50
79.500754
 51
169.50075
  0
ARC
  5
3D5
330
36
100
AcDbEntity
  8
0
  6
PHANTOM
 62
     3
100
AcDbCircle
 10
367.53394
 20
450.34772
 30
0.0
 40
1.5
100
AcDbArc
 50
90.0
 51
180.0
  0
ARC
  5
3D6
330
36
100
AcDbEntity
  8
0
  6
PHANTOM
 62
     3
100
AcDbCircle
 10
362.03394
 20
463.84772
 30
0.0
 40
1.5
100
AcDbArc
 50
90.0
 51
180.0
  0
ARC
  5
3D7
330
36
100
AcDbEntity
  8
0
  6
PHANTOM
 62
     3
100
AcDbCircle
 10
374.53394
 20
456.34772
 30
0.0
 40
1.5
100
AcDbArc
 50
180.0
 51
0.0
  0
ARC
  5
3D8
330
36
100
AcDbEntity
  8
0
  6
PHANTOM
 62
     3
100
AcDbCircle
 10
373.03394
 20
463.84772
 30
0.0
 40
1.5
100
AcDbArc
 50
0.0
 51
90.0
  0
ARC
  5
3D9
330
36
100
AcDbEntity
  8
0
  6
Continuous
 62
     7
100
AcDbCircle
 10
461.9178799999998
 20
361.99463
 30
0.0
 40
1.0
100
AcDbArc
 50
259.4990300000001
 51
349.4990300000001
  0
ARC
  5
3DA
330
36
100
AcDbEntity
  8
0
  6
Continuous
 62
     7
100
AcDbCircle
 10
464.46918
 20
375.76019
 30
0.0
 40
1.0
100
AcDbArc
 50
349.4990300000001
 51
79.49903499999996
  0
ARC
  5
3DB
330
36
100
AcDbEntity
  8
0
  6
Continuous
 62
     7
100
AcDbCircle
 10
463.8483599999998
 20
364.17941
 30
0.0
 40
0.5
100
AcDbArc
 50
259.49935
 51
349.49935
  0
ARC
  5
3DC
330
36
100
AcDbEntity
  8
0
  6
Continuous
 62
     7
100
AcDbCircle
 10
465.4884899999998
 20
373.02872
 30
0.0
 40
0.5
100
AcDbArc
 50
349.49935
 51
79.499354
  0
ARC
  5
3DD
330
36
100
AcDbEntity
  8
0
  6
Continuous
 62
     3
100
AcDbCircle
 10
258.78354
 20
411.84772
 30
0.0
 40
169.01907
100
AcDbArc
 50
349.7711899999999
 51
359.7288100000001
  0
CIRCLE
  5
3DE
330
36
100
AcDbEntity
  8
0
  6
CENTER
 62
     4
100
AcDbCircle
 10
227.3748983087962
 20
424.6230757428227
 30
0.0
 40
1.2599636
  0
CIRCLE
  5
3DF
330
36
100
AcDbEntity
  8
0
  6
CENTER
 62
     4
100
AcDbCircle
 10
227.3108583087962
 20
416.6626857428229
 30
0.0
 40
1.2599636
  0
LWPOLYLINE
  5
3E0
330
36
100
AcDbEntity
  8
0
  6
Continuous
 62
     7
100
AcDbPolyline
 90
       10
 70
     0
 43
0.0
 10
436.35028
 20
454.27142
 10
436.35028
 20
444.29724
 10
433.8502799999998
 20
443.69727
 10
438.85028
 20
442.4972499999998
 10
436.35028
 20
441.8972499999998
 10
436.35028
 20
421.9489099999998
 10
433.8502799999998
 20
421.34891
 10
438.85028
 20
420.14893
 10
436.35028
 20
419.5489199999998
 10
436.35028
 20
409.5747399999998
  0
LWPOLYLINE
  5
3EC
330
36
100
AcDbEntity
  8
0
  6
Continuous
 62
     7
100
AcDbPolyline
 90
        6
 70
     0
 43
0.0
 10
372.85889
 20
472.59235
 10
374.26486
 20
472.59235
 10
374.86487
 20
470.09235
 10
376.06485
 20
475.0923499999998
 10
376.66486
 20
472.59235
 10
378.07086
 20
472.59235
  0
TEXT
  5
3F8
330
36
100
AcDbEntity
  8
0
  6
Continuous
 62
     3
100
AcDbText
 10
298.00194
 20
209.92315
 30
0.0
 40
3.2
  1
３－%%C４．５×%%C８．５サラ
 41
0.88655456
100
AcDbText
  0
TEXT
  5
3F9
330
36
100
AcDbEntity
  8
0
  6
Continuous
 62
     3
100
AcDbText
 10
340.46727
 20
308.89197
 30
0.0
 40
3.2
  1
6
100
AcDbText
  0
TEXT
  5
3FA
330
36
100
AcDbEntity
  8
0
  6
Continuous
 62
     3
100
AcDbText
 10
346.86727
 20
308.89197
 30
0.0
 40
3.2
  1
10
 41
1.363636399999999
100
AcDbText
  0
TEXT
  5
3FB
330
36
100
AcDbEntity
  8
0
  6
Continuous
 62
     3
100
AcDbText
 10
356.46727
 20
308.89197
 30
0.0
 40
3.2
  1
6
100
AcDbText
  0
TEXT
  5
3FC
330
36
100
AcDbEntity
  8
0
  6
Continuous
 62
     3
100
AcDbText
 10
346.86727
 20
318.89228
 30
0.0
 40
3.2
  1
22
100
AcDbText
  0
TEXT
  5
3FD
330
36
100
AcDbEntity
  8
0
  6
Continuous
 62
     3
100
AcDbText
 10
371.74298
 20
308.89197
 30
0.0
 40
3.2
  1
5.5
 41
1.3333333
100
AcDbText
  0
TEXT
  5
3FE
330
36
100
AcDbEntity
  8
0
  6
Continuous
 62
     3
100
AcDbText
 10
390.36727
 20
308.89197
 30
0.0
 40
3.2
  1
11
 41
1.5
100
AcDbText
  0
TEXT
  5
3FF
330
36
100
AcDbEntity
  8
0
  6
Continuous
 62
     3
100
AcDbText
 10
404.3735299999998
 20
308.89197
 30
0.0
 40
3.2
  1
5.5
 41
1.3333333
100
AcDbText
  0
TEXT
  5
400
330
36
100
AcDbEntity
  8
0
  6
Continuous
 62
     3
100
AcDbText
 10
390.36727
 20
318.89231
 30
0.0
 40
3.2
  1
22
100
AcDbText
  0
TEXT
  5
401
330
36
100
AcDbEntity
  8
0
  6
Continuous
 62
     2
100
AcDbText
 10
396.26216
 20
216.3089
 30
0.0
 40
3.5
  1
４－%%C４．５×１０．５スロット
 41
0.8911382599999997
100
AcDbText
  0
TEXT
  5
402
330
36
100
AcDbEntity
  8
0
  6
Continuous
 62
     3
100
AcDbText
 10
417.53393
 20
244.44043
 30
0.0
 40
3.2
  1
6
 50
90.000003
100
AcDbText
  0
TEXT
  5
403
330
36
100
AcDbEntity
  8
0
  6
Continuous
 62
     3
100
AcDbText
 10
327.03393
 20
291.8253
 30
0.0
 40
3.2
  1
9
 50
90.000003
100
AcDbText
  0
TEXT
  5
404
330
36
100
AcDbEntity
  8
0
  6
Continuous
 62
     3
100
AcDbText
 10
327.03362
 20
259.7253
 30
0.0
 40
3.2
  1
52
 50
90.000003
100
AcDbText
  0
TEXT
  5
405
330
36
100
AcDbEntity
  8
0
  6
Continuous
 62
     3
100
AcDbText
 10
317.03393
 20
259.7253
 30
0.0
 40
3.2
  1
70
 50
90.000003
 41
1.071428599999999
100
AcDbText
  0
TEXT
  5
406
330
36
100
AcDbEntity
  8
0
  6
Continuous
 62
     3
100
AcDbText
 10
481.03362
 20
259.7253
 30
0.0
 40
3.2
  1
22
 50
90.000003
100
AcDbText
  0
TEXT
  5
407
330
36
100
AcDbEntity
  8
0
  6
Continuous
 62
     3
100
AcDbText
 10
491.03393
 20
259.7253
 30
0.0
 40
3.2
  1
46
 50
90.000003
100
AcDbText
  0
TEXT
  5
408
330
36
100
AcDbEntity
  8
0
  6
Continuous
 62
     3
100
AcDbText
 10
491.03362
 20
288.7253
 30
0.0
 40
3.2
  1
12
 50
90.000003
 41
1.25
100
AcDbText
  0
TEXT
  5
409
330
36
100
AcDbEntity
  8
0
  6
Continuous
 62
     3
100
AcDbText
 10
491.03362
 20
230.72532
 30
0.0
 40
3.2
  1
12
 50
90.000003
 41
1.25
100
AcDbText
  0
TEXT
  5
40A
330
36
100
AcDbEntity
  8
0
  6
Continuous
 62
     3
100
AcDbText
 10
481.03362
 20
288.38085
 30
0.0
 40
3.2
  1
24
 50
90.000003
100
AcDbText
  0
TEXT
  5
40B
330
36
100
AcDbEntity
  8
0
  6
Continuous
 62
     3
100
AcDbText
 10
481.09475
 20
232.56193
 30
0.0
 40
3.2
  1
24
 50
90.000003
100
AcDbText
  0
TEXT
  5
40C
330
36
100
AcDbEntity
  8
0
  6
Continuous
 62
     3
100
AcDbText
 10
341.96727
 20
347.51139
 30
0.0
 40
3.2
  1
9
100
AcDbText
  0
TEXT
  5
40D
330
36
100
AcDbEntity
  8
0
  6
Continuous
 62
     3
100
AcDbText
 10
396.09035
 20
347.67139
 30
0.0
 40
3.2
  1
(118.5)
 41
1.3953488
100
AcDbText
  0
TEXT
  5
40E
330
36
100
AcDbEntity
  8
0
  6
Continuous
 62
     3
100
AcDbText
 10
424.72579
 20
385.58149
 30
0.0
 40
3.2
  1
（１０．５%%D）
 50
84.700001
 41
0.8642856699999999
100
AcDbText
  0
TEXT
  5
40F
330
36
100
AcDbEntity
  8
0
  6
Continuous
 62
     3
100
AcDbText
 10
327.03393
 20
394.73105
 30
0.0
 40
3.2
  1
16.5
 50
90.000003
 41
1.375
100
AcDbText
  0
TEXT
  5
410
330
36
100
AcDbEntity
  8
0
  6
Continuous
 62
     3
100
AcDbText
 10
317.03362
 20
391.17145
 30
0.0
 40
3.2
  1
23.5
 50
90.000003
 41
1.2222222
100
AcDbText
  0
TEXT
  5
411
330
36
100
AcDbEntity
  8
0
  6
Continuous
 62
     3
100
AcDbText
 10
457.25496
 20
389.88062
 30
0.0
 40
3.2
  1
16
 50
349.5
 41
1.25
100
AcDbText
  0
TEXT
  5
412
330
36
100
AcDbEntity
  8
0
  6
Continuous
 62
     3
100
AcDbText
 10
473.5197799999999
 20
386.86423
 30
0.0
 40
3.2
  1
1
 50
349.5999999999999
 41
0.6666666700000002
100
AcDbText
  0
TEXT
  5
413
330
36
100
AcDbEntity
  8
0
  6
Continuous
 62
     3
100
AcDbText
 10
477.90454
 20
363.43883
 30
0.0
 40
3.2
  1
10
 50
79.500001
 41
1.363636399999999
100
AcDbText
  0
TEXT
  5
414
330
36
100
AcDbEntity
  8
0
  6
Continuous
 62
     3
100
AcDbText
 10
434.78092
 20
360.89164
 30
0.0
 40
3.2
  1
3
 50
79.500001
100
AcDbText
  0
TEXT
  5
415
330
36
100
AcDbEntity
  8
0
  6
Continuous
 62
     7
100
AcDbText
 10
160.35486
 20
472.5754499999998
 30
0.0
 40
3.2
  1
品　名
 41
0.60999997
100
AcDbText
  0
TEXT
  5
416
330
36
100
AcDbEntity
  8
0
  6
Continuous
 62
     7
100
AcDbText
 10
160.35486
 20
464.5754499999998
 30
0.0
 40
3.2
  1
品　番
 41
0.60999997
100
AcDbText
  0
TEXT
  5
417
330
36
100
AcDbEntity
  8
0
  6
Continuous
 62
     7
100
AcDbText
 10
160.35486
 20
456.5754499999998
 30
0.0
 40
3.2
  1
材　質
 41
0.60999997
100
AcDbText
  0
TEXT
  5
418
330
36
100
AcDbEntity
  8
0
  6
Continuous
 62
     7
100
AcDbText
 10
160.35486
 20
448.5754499999998
 30
0.0
 40
3.2
  1
仕上げ
 41
0.60999997
100
AcDbText
  0
TEXT
  5
419
330
36
100
AcDbEntity
  8
0
  6
Continuous
 62
     7
100
AcDbText
 10
157.0977106074939
 20
424.57545
 30
0.0
 40
3.2
  1
セットビス
 41
0.60999999
100
AcDbText
  0
TEXT
  5
41A
330
36
100
AcDbEntity
  8
0
  6
Continuous
 62
     7
100
AcDbText
 10
161.8977006074939
 20
400.57545
 30
0.0
 40
3.2
  1
備考
 41
0.61
100
AcDbText
  0
TEXT
  5
41B
330
36
100
AcDbEntity
  8
0
  6
Continuous
 62
     7
100
AcDbText
 10
160.2977106074939
 20
440.5754499999999
 30
0.0
 40
3.2
  1
定　尺
 41
0.60999997
100
AcDbText
  0
TEXT
  5
41C
330
36
100
AcDbEntity
  8
0
  6
Continuous
 62
     7
100
AcDbText
 10
158.6977106074939
 20
432.5754499999999
 30
0.0
 40
3.2
  1
左右勝手
 41
0.60999998
100
AcDbText
  0
TEXT
  5
41D
330
36
100
AcDbEntity
  8
0
  6
Continuous
 62
     7
100
AcDbText
 10
177.55486
 20
470.97545
 30
0.0
 40
3.2
  1
消音ドアーガード（内開用）
 41
0.75000003
100
AcDbText
  0
TEXT
  5
41E
330
36
100
AcDbEntity
  8
0
  6
Continuous
 62
     7
100
AcDbText
 10
177.55486
 20
462.97545
 30
0.0
 40
3.2
  1
ＤＬ８１－Ｔ
 41
0.68660408
100
AcDbText
  0
TEXT
  5
41F
330
36
100
AcDbEntity
  8
0
  6
Continuous
 62
     7
100
AcDbText
 10
177.55484
 20
454.97545
 30
0.0
 40
3.2
  1
亜鉛ダイキャスト、　軟質塩ビ（先端部）
 41
0.7499999600000002
100
AcDbText
  0
TEXT
  5
420
330
36
100
AcDbEntity
  8
0
  6
Continuous
 62
     7
100
AcDbText
 10
177.55486
 20
447.0418419011507
 30
0.0
 40
3.2
  1
サーチライトニッケルクロム+クリアー静電塗装（シルバー）
 41
0.75000001
100
AcDbText
  0
TEXT
  5
421
330
36
100
AcDbEntity
  8
0
  6
Continuous
 62
     7
100
AcDbText
 10
177.4977006074939
 20
430.97545
 30
0.0
 40
3.2
  1
無し
 41
0.74999999
100
AcDbText
  0
TEXT
  5
422
330
36
100
AcDbEntity
  8
0
  6
Continuous
 62
     7
100
AcDbText
 10
177.4977006074939
 20
422.97545
 30
0.0
 40
3.2
  1
※本体取付ネジ：Ｍ４×１２サラ小ネジ＋ＳＵＳ３本付
 41
0.70630816
100
AcDbText
  0
TEXT
  5
423
330
36
100
AcDbEntity
  8
0
  6
Continuous
 62
     7
100
AcDbText
 10
177.4977006074939
 20
383.14241
 30
0.0
 40
3.2
  1
破損及び扉に傷がつく恐れがあります。
 41
0.7500000000000001
100
AcDbText
  0
TEXT
  5
424
330
36
100
AcDbEntity
  8
0
  6
Continuous
 62
     7
100
AcDbText
 10
177.4977106074939
 20
390.97545
 30
0.0
 40
3.2
  1
ゆっくり締めてください。
 41
0.74999997
100
AcDbText
  0
TEXT
  5
425
330
36
100
AcDbEntity
  8
0
  6
Continuous
 62
     7
100
AcDbText
 10
177.4977106074939
 20
398.97545
 30
0.0
 40
3.2
  1
※清掃時、ドアホルダーとして使用できますが、扉閉鎖時、
 41
0.7499999600000002
100
AcDbText
  0
TEXT
  5
427
330
36
100
AcDbEntity
  8
0
  6
Continuous
 62
     7
100
AcDbText
 10
177.4977006074939
 20
414.97545
 30
0.0
 40
3.2
  1
※受け取付ネジ：Ｍ４×１０ナベ小ネジ＋ＳＵＳ４本付
 41
0.70630816
100
AcDbText
  0
TEXT
  5
428
330
36
100
AcDbEntity
  8
0
  6
Continuous
 62
     3
100
AcDbText
 10
327.03393
 20
387.72145
 30
0.0
 40
3.2
  1
7
 50
90.000003
100
AcDbText
  0
TEXT
  5
429
330
36
100
AcDbEntity
  8
0
  6
Continuous
 62
     3
100
AcDbText
 10
327.03393
 20
230.82532
 30
0.0
 40
3.2
  1
9
 50
90.000003
100
AcDbText
  0
TEXT
  5
42A
330
36
100
AcDbEntity
  8
0
  6
Continuous
 62
     3
100
AcDbText
 10
368.61727
 20
318.89228
 30
0.0
 40
3.2
  1
22
100
AcDbText
  0
TEXT
  5
42B
330
36
100
AcDbEntity
  8
0
  6
Continuous
 62
     4
100
AcDbText
 10
199.89098
 20
229.06883
 30
0.0
 40
3.2
  1
※：取付許容範囲
 41
0.98013019
100
AcDbText
  0
TEXT
  5
42C
330
36
100
AcDbEntity
  8
0
  6
Continuous
 62
     4
100
AcDbText
 10
199.89098
 20
224.26883
 30
0.0
 40
3.2
  1
　　２１ｍｍ～２４ｍｍ
 41
0.9784285799999999
100
AcDbText
  0
TEXT
  5
42D
330
36
100
AcDbEntity
  8
0
  6
Continuous
 62
     4
100
AcDbText
 10
199.89098
 20
219.46883
 30
0.0
 40
3.2
  1
　　（基準寸法　２２ｍｍ）
 41
0.9777419599999999
100
AcDbText
  0
TEXT
  5
42E
330
36
100
AcDbEntity
  8
0
  6
Continuous
 62
     7
100
AcDbText
 10
373.45884
 20
323.20643
 30
0.0
 40
3.2
  1
※
 41
0.90047268
100
AcDbText
  0
INSERT
  5
430
330
36
100
AcDbEntity
  8
0
  6
Continuous
 62
     7
100
AcDbBlockReference
  2
KOZU0001
 10
356.34906
 20
240.23486
 30
0.0
  0
INSERT
  5
431
330
36
100
AcDbEntity
  8
0
  6
Continuous
 62
     7
100
AcDbBlockReference
  2
KOZU0002
 10
352.71881
 20
232.54909
 30
0.0
  0
INSERT
  5
432
330
36
100
AcDbEntity
  8
0
  6
Continuous
 62
     7
100
AcDbBlockReference
  2
KOZU0003
 10
338.53394
 20
307.39197
 30
0.0
  0
INSERT
  5
433
330
36
100
AcDbEntity
  8
0
  6
Continuous
 62
     7
100
AcDbBlockReference
  2
KOZU0004
 10
344.53394
 20
307.39197
 30
0.0
  0
INSERT
  5
434
330
36
100
AcDbEntity
  8
0
  6
Continuous
 62
     7
100
AcDbBlockReference
  2
KOZU0005
 10
344.53394
 20
307.39197
 30
0.0
  0
INSERT
  5
435
330
36
100
AcDbEntity
  8
0
  6
Continuous
 62
     7
100
AcDbBlockReference
  2
KOZU0006
 10
354.53394
 20
307.39197
 30
0.0
  0
INSERT
  5
436
330
36
100
AcDbEntity
  8
0
  6
Continuous
 62
     7
100
AcDbBlockReference
  2
KOZU0007
 10
354.53394
 20
307.39197
 30
0.0
  0
INSERT
  5
437
330
36
100
AcDbEntity
  8
0
  6
Continuous
 62
     7
100
AcDbBlockReference
  2
KOZU0008
 10
360.53394
 20
307.39197
 30
0.0
  0
INSERT
  5
438
330
36
100
AcDbEntity
  8
0
  6
Continuous
 62
     7
100
AcDbBlockReference
  2
KOZU0009
 10
338.53394
 20
317.39197
 30
0.0
  0
INSERT
  5
439
330
36
100
AcDbEntity
  8
0
  6
Continuous
 62
     7
100
AcDbBlockReference
  2
KOZU0010
 10
360.53394
 20
317.39197
 30
0.0
  0
INSERT
  5
43A
330
36
100
AcDbEntity
  8
0
  6
Continuous
 62
     7
100
AcDbBlockReference
  2
KOZU0011
 10
387.53394
 20
307.39197
 30
0.0
  0
INSERT
  5
43B
330
36
100
AcDbEntity
  8
0
  6
Continuous
 62
     7
100
AcDbBlockReference
  2
KOZU0012
 10
382.03394
 20
307.39197
 30
0.0
  0
INSERT
  5
43C
330
36
100
AcDbEntity
  8
0
  6
Continuous
 62
     7
100
AcDbBlockReference
  2
KOZU0013
 10
387.53394
 20
307.39197
 30
0.0
  0
INSERT
  5
43D
330
36
100
AcDbEntity
  8
0
  6
Continuous
 62
     7
100
AcDbBlockReference
  2
KOZU0014
 10
398.53394
 20
307.39197
 30
0.0
  0
INSERT
  5
43E
330
36
100
AcDbEntity
  8
0
  6
Continuous
 62
     7
100
AcDbBlockReference
  2
KOZU0015
 10
398.53394
 20
307.39197
 30
0.0
  0
INSERT
  5
43F
330
36
100
AcDbEntity
  8
0
  6
Continuous
 62
     7
100
AcDbBlockReference
  2
KOZU0016
 10
404.0339399999998
 20
307.39197
 30
0.0
  0
INSERT
  5
440
330
36
100
AcDbEntity
  8
0
  6
Continuous
 62
     7
100
AcDbBlockReference
  2
KOZU0017
 10
382.03394
 20
317.39197
 30
0.0
  0
INSERT
  5
441
330
36
100
AcDbEntity
  8
0
  6
Continuous
 62
     7
100
AcDbBlockReference
  2
KOZU0018
 10
404.0339399999998
 20
317.39197
 30
0.0
  0
INSERT
  5
442
330
36
100
AcDbEntity
  8
0
  6
Continuous
 62
     7
100
AcDbBlockReference
  2
KOZU0019
 10
360.53394
 20
317.39197
 30
0.0
  0
INSERT
  5
443
330
36
100
AcDbEntity
  8
0
  6
Continuous
 62
     7
100
AcDbBlockReference
  2
KOZU0020
 10
382.03394
 20
317.39197
 30
0.0
  0
INSERT
  5
444
330
36
100
AcDbEntity
  8
0
  6
Continuous
 62
     7
100
AcDbBlockReference
  2
KOZU0021
 10
419.03394
 20
236.39198
 30
0.0
  0
INSERT
  5
445
330
36
100
AcDbEntity
  8
0
  6
Continuous
 62
     7
100
AcDbBlockReference
  2
KOZU0022
 10
419.03394
 20
242.39198
 30
0.0
  0
INSERT
  5
446
330
36
100
AcDbEntity
  8
0
  6
Continuous
 62
     7
100
AcDbBlockReference
  2
KOZU0023
 10
328.53394
 20
297.39197
 30
0.0
  0
INSERT
  5
447
330
36
100
AcDbEntity
  8
0
  6
Continuous
 62
     7
100
AcDbBlockReference
  2
KOZU0024
 10
328.53394
 20
288.39197
 30
0.0
  0
INSERT
  5
448
330
36
100
AcDbEntity
  8
0
  6
Continuous
 62
     7
100
AcDbBlockReference
  2
KOZU0025
 10
328.53394
 20
288.39197
 30
0.0
  0
INSERT
  5
449
330
36
100
AcDbEntity
  8
0
  6
Continuous
 62
     7
100
AcDbBlockReference
  2
KOZU0026
 10
328.53394
 20
236.39198
 30
0.0
  0
INSERT
  5
44A
330
36
100
AcDbEntity
  8
0
  6
Continuous
 62
     7
100
AcDbBlockReference
  2
KOZU0027
 10
318.53394
 20
297.39197
 30
0.0
  0
INSERT
  5
44B
330
36
100
AcDbEntity
  8
0
  6
Continuous
 62
     7
100
AcDbBlockReference
  2
KOZU0028
 10
318.53394
 20
227.39198
 30
0.0
  0
INSERT
  5
44C
330
36
100
AcDbEntity
  8
0
  6
Continuous
 62
     7
100
AcDbBlockReference
  2
KOZU0029
 10
482.53394
 20
273.39197
 30
0.0
  0
INSERT
  5
44D
330
36
100
AcDbEntity
  8
0
  6
Continuous
 62
     7
100
AcDbBlockReference
  2
KOZU0030
 10
482.53394
 20
251.39198
 30
0.0
  0
INSERT
  5
44E
330
36
100
AcDbEntity
  8
0
  6
Continuous
 62
     7
100
AcDbBlockReference
  2
KOZU0031
 10
492.53394
 20
285.39197
 30
0.0
  0
INSERT
  5
44F
330
36
100
AcDbEntity
  8
0
  6
Continuous
 62
     7
100
AcDbBlockReference
  2
KOZU0032
 10
492.53394
 20
239.39198
 30
0.0
  0
INSERT
  5
450
330
36
100
AcDbEntity
  8
0
  6
Continuous
 62
     7
100
AcDbBlockReference
  2
KOZU0033
 10
492.53394
 20
285.39197
 30
0.0
  0
INSERT
  5
451
330
36
100
AcDbEntity
  8
0
  6
Continuous
 62
     7
100
AcDbBlockReference
  2
KOZU0034
 10
492.53394
 20
297.39197
 30
0.0
  0
INSERT
  5
452
330
36
100
AcDbEntity
  8
0
  6
Continuous
 62
     7
100
AcDbBlockReference
  2
KOZU0035
 10
492.53394
 20
227.39198
 30
0.0
  0
INSERT
  5
453
330
36
100
AcDbEntity
  8
0
  6
Continuous
 62
     7
100
AcDbBlockReference
  2
KOZU0036
 10
492.53394
 20
239.39198
 30
0.0
  0
INSERT
  5
454
330
36
100
AcDbEntity
  8
0
  6
Continuous
 62
     7
100
AcDbBlockReference
  2
KOZU0037
 10
482.53394
 20
273.39197
 30
0.0
  0
INSERT
  5
455
330
36
100
AcDbEntity
  8
0
  6
Continuous
 62
     7
100
AcDbBlockReference
  2
KOZU0038
 10
482.53394
 20
297.39197
 30
0.0
  0
INSERT
  5
456
330
36
100
AcDbEntity
  8
0
  6
Continuous
 62
     7
100
AcDbBlockReference
  2
KOZU0039
 10
482.5950599999998
 20
227.39198
 30
0.0
  0
INSERT
  5
457
330
36
100
AcDbEntity
  8
0
  6
Continuous
 62
     7
100
AcDbBlockReference
  2
KOZU0040
 10
482.5950599999998
 20
251.39198
 30
0.0
  0
INSERT
  5
458
330
36
100
AcDbEntity
  8
0
  6
Continuous
 62
     7
100
AcDbBlockReference
  2
KOZU0041
 10
338.53394
 20
346.01138
 30
0.0
  0
INSERT
  5
459
330
36
100
AcDbEntity
  8
0
  6
Continuous
 62
     7
100
AcDbBlockReference
  2
KOZU0042
 10
347.53394
 20
346.01138
 30
0.0
  0
INSERT
  5
45A
330
36
100
AcDbEntity
  8
0
  6
Continuous
 62
     7
100
AcDbBlockReference
  2
KOZU0043
 10
465.9800999999998
 20
346.01138
 30
0.0
  0
INSERT
  5
45B
330
36
100
AcDbEntity
  8
0
  6
Continuous
 62
     7
100
AcDbBlockReference
  2
KOZU0044
 10
347.53394
 20
346.01138
 30
0.0
  0
INSERT
  5
45C
330
36
100
AcDbEntity
  8
0
  6
Continuous
 62
     7
100
AcDbBlockReference
  2
KOZU0045
 10
424.9723799999999
 20
381.04645
 30
0.0
  0
INSERT
  5
45D
330
36
100
AcDbEntity
  8
0
  6
Continuous
 62
     7
100
AcDbBlockReference
  2
KOZU0046
 10
427.80264
 20
411.84772
 30
0.0
  0
INSERT
  5
45E
330
36
100
AcDbEntity
  8
0
  6
Continuous
 62
     7
100
AcDbBlockReference
  2
KOZU0047
 10
328.53394
 20
392.3477200000002
 30
0.0
  0
INSERT
  5
45F
330
36
100
AcDbEntity
  8
0
  6
Continuous
 62
     7
100
AcDbBlockReference
  2
KOZU0048
 10
328.53394
 20
408.84772
 30
0.0
  0
INSERT
  5
460
330
36
100
AcDbEntity
  8
0
  6
Continuous
 62
     7
100
AcDbBlockReference
  2
KOZU0049
 10
318.53394
 20
385.22852
 30
0.0
  0
INSERT
  5
461
330
36
100
AcDbEntity
  8
0
  6
Continuous
 62
     7
100
AcDbBlockReference
  2
KOZU0050
 10
318.53394
 20
408.84772
 30
0.0
  0
INSERT
  5
462
330
36
100
AcDbEntity
  8
0
  6
Continuous
 62
     7
100
AcDbBlockReference
  2
KOZU0051
 10
451.7375799999999
 20
389.37766
 30
0.0
  0
INSERT
  5
463
330
36
100
AcDbEntity
  8
0
  6
Continuous
 62
     7
100
AcDbBlockReference
  2
KOZU0052
 10
467.46967
 20
386.46188
 30
0.0
  0
INSERT
  5
464
330
36
100
AcDbEntity
  8
0
  6
Continuous
 62
     7
100
AcDbBlockReference
  2
KOZU0053
 10
467.4519
 20
386.46518
 30
0.0
  0
INSERT
  5
465
330
36
100
AcDbEntity
  8
0
  6
Continuous
 62
     7
100
AcDbBlockReference
  2
KOZU0054
 10
468.4529099999998
 20
386.27966
 30
0.0
  0
INSERT
  5
466
330
36
100
AcDbEntity
  8
0
  6
Continuous
 62
     7
100
AcDbBlockReference
  2
KOZU0055
 10
480.77655
 20
370.70377
 30
0.0
  0
INSERT
  5
467
330
36
100
AcDbEntity
  8
0
  6
Continuous
 62
     7
100
AcDbBlockReference
  2
KOZU0056
 10
478.95419
 20
360.87122
 30
0.0
  0
INSERT
  5
468
330
36
100
AcDbEntity
  8
0
  6
Continuous
 62
     7
100
AcDbBlockReference
  2
KOZU0057
 10
437.71912
 20
368.51367
 30
0.0
  0
INSERT
  5
469
330
36
100
AcDbEntity
  8
0
  6
Continuous
 62
     7
100
AcDbBlockReference
  2
KOZU0058
 10
437.17242
 20
365.5639
 30
0.0
  0
INSERT
  5
46A
330
36
100
AcDbEntity
  8
0
  6
Continuous
 62
     7
100
AcDbBlockReference
  2
KOZU0059
 10
328.53394
 20
385.22852
 30
0.0
  0
INSERT
  5
46B
330
36
100
AcDbEntity
  8
0
  6
Continuous
 62
     7
100
AcDbBlockReference
  2
KOZU0060
 10
328.53394
 20
392.3477200000002
 30
0.0
  0
INSERT
  5
46C
330
36
100
AcDbEntity
  8
0
  6
Continuous
 62
     7
100
AcDbBlockReference
  2
KOZU0061
 10
328.53394
 20
227.39198
 30
0.0
  0
INSERT
  5
46D
330
36
100
AcDbEntity
  8
0
  6
Continuous
 62
     7
100
AcDbBlockReference
  2
KOZU0062
 10
328.53394
 20
236.39198
 30
0.0
  0
INSERT
  5
46E
330
36
100
AcDbEntity
  8
0
  6
Continuous
 62
     7
100
AcDbBlockReference
  2
KOZU0063
 10
360.53394
 20
317.39197
 30
0.0
  0
INSERT
  5
46F
330
36
100
AcDbEntity
  8
0
  6
Continuous
 62
     7
100
AcDbBlockReference
  2
KOZU0064
 10
382.03394
 20
317.39197
 30
0.0
  0
ENDSEC
  0
SECTION
  2
OBJECTS
  0
DICTIONARY
  5
C
330
0
100
AcDbDictionary
281
     1
  3
ACAD_CIP_PREVIOUS_PRODUCT_INFO
350
58A
  3
ACAD_COLOR
350
2F
  3
ACAD_DETAILVIEWSTYLE
350
583
  3
ACAD_DGNDEFINITIONS
350
645
  3
ACAD_DWFDEFINITIONS
350
644
  3
ACAD_FIELDLIST
350
694
  3
ACAD_GROUP
350
D
  3
ACAD_LAYOUT
350
2E
  3
ACAD_MATERIAL
350
10
  3
ACAD_MLEADERSTYLE
350
57F
  3
ACAD_MLINESTYLE
350
2B
  3
ACAD_PDFDEFINITIONS
350
643
  3
ACAD_PLOTSETTINGS
350
2D
  3
ACAD_PLOTSTYLENAME
350
E
  3
ACAD_SCALELIST
350
56D
  3
ACAD_SECTIONVIEWSTYLE
350
581
  3
ACAD_TABLESTYLE
350
30
  3
ACAD_VISUALSTYLE
350
14
  3
ACDB_RECOMPOSE_DATA
350
6F6
  3
AcDbVariableDictionary
350
514
  3
gmRefExt
350
6B4
  3
HCJX_INFO
350
6B7
  0
DICTIONARY
  5
5D8
330
25
100
AcDbDictionary
280
     1
281
     1
  3
ADSK_XREC_LAYER_RECONCILED
360
5D9
  0
XRECORD
  5
58A
102
{ACAD_REACTORS
330
C
102
}
330
C
100
AcDbXrecord
280
     1
300
AMECH_PP
300
2013
300
85964PDSS_2013_0F
  0
DICTIONARY
  5
2F
102
{ACAD_REACTORS
330
C
102
}
330
C
100
AcDbDictionary
281
     1
  0
DICTIONARY
  5
583
102
{ACAD_REACTORS
330
C
102
}
330
C
100
AcDbDictionary
281
     1
  3
Imperial24
350
584
  0
DICTIONARY
  5
645
102
{ACAD_REACTORS
330
C
102
}
330
C
100
AcDbDictionary
281
     1
  0
DICTIONARY
  5
644
102
{ACAD_REACTORS
330
C
102
}
330
C
100
AcDbDictionary
281
     1
  0
FIELDLIST
  5
694
102
{ACAD_REACTORS
330
C
102
}
330
C
100
AcDbIdSet
 90
        2
330
655
330
665
100
AcDbFieldList
  0
DICTIONARY
  5
D
102
{ACAD_REACTORS
330
C
102
}
330
C
100
AcDbDictionary
281
     1
  0
DICTIONARY
  5
2E
102
{ACAD_REACTORS
330
C
102
}
330
C
100
AcDbDictionary
281
     1
  3
Model
350
39
  3
レイアウト1
350
35
  0
DICTIONARY
  5
10
102
{ACAD_REACTORS
330
C
102
}
330
C
100
AcDbDictionary
281
     1
  3
ByBlock
350
12
  3
ByLayer
350
11
  3
Global
350
13
  0
DICTIONARY
  5
57F
102
{ACAD_REACTORS
330
C
102
}
330
C
100
AcDbDictionary
281
     1
  3
Standard
350
580
  0
DICTIONARY
  5
2B
102
{ACAD_REACTORS
330
C
102
}
330
C
100
AcDbDictionary
281
     1
  3
Standard
350
2C
  0
DICTIONARY
  5
643
102
{ACAD_REACTORS
330
C
102
}
330
C
100
AcDbDictionary
281
     1
  0
DICTIONARY
  5
2D
102
{ACAD_REACTORS
330
C
102
}
330
C
100
AcDbDictionary
281
     1
  0
ACDBDICTIONARYWDFLT
  5
E
102
{ACAD_REACTORS
330
C
102
}
330
C
100
AcDbDictionary
281
     1
  3
Normal
350
F
100
AcDbDictionaryWithDefault
340
F
  0
DICTIONARY
  5
56D
102
{ACAD_REACTORS
330
C
102
}
330
C
100
AcDbDictionary
281
     1
  3
A0
350
56E
  3
A1
350
56F
  3
A2
350
570
  3
A3
350
571
  3
A4
350
572
  3
A5
350
573
  3
A6
350
574
  3
A7
350
575
  3
A8
350
576
  3
A9
350
577
  3
B0
350
578
  3
B1
350
579
  3
B2
350
57A
  3
B3
350
57B
  3
B4
350
57C
  3
B5
350
57D
  3
B6
350
57E
  0
DICTIONARY
  5
581
102
{ACAD_REACTORS
330
C
102
}
330
C
100
AcDbDictionary
281
     1
  3
Imperial24
350
582
  0
DICTIONARY
  5
30
102
{ACAD_REACTORS
330
C
102
}
330
C
100
AcDbDictionary
281
     1
  3
Standard
350
31
  0
DICTIONARY
  5
14
102
{ACAD_REACTORS
330
C
102
}
330
C
100
AcDbDictionary
281
     1
  3
2dWireframe
350
1A
  3
3D Hidden
350
1C
  3
3dWireframe
350
1B
  3
Basic
350
19
  3
Brighten
350
20
  3
ColorChange
350
24
  3
Conceptual
350
1D
  3
Dim
350
1F
  3
EdgeColorOff
350
56C
  3
Facepattern
350
23
  3
Flat
350
15
  3
FlatWithEdges
350
16
  3
Gouraud
350
17
  3
GouraudWithEdges
350
18
  3
Hidden
350
564
  3
JitterOff
350
56A
  3
Linepattern
350
22
  3
OverhangOff
350
56B
  3
Realistic
350
1E
  3
Shaded
350
569
  3
Shaded with edges
350
568
  3
Shades of Gray
350
565
  3
Sketchy
350
566
  3
Thicken
350
21
  3
Wireframe
350
563
  3
X-Ray
350
567
  0
XRECORD
  5
6F6
102
{ACAD_REACTORS
330
C
102
}
330
C
100
AcDbXrecord
280
     1
 90
        1
330
31
  0
DICTIONARY
  5
514
102
{ACAD_REACTORS
330
C
102
}
330
C
100
AcDbDictionary
281
     1
  3
CANNOSCALE
350
5DE
  3
CMLEADERSTYLE
350
5DA
  3
CTABLESTYLE
350
515
  3
CVIEWDETAILSTYLE
350
5DB
  3
CVIEWSECTIONSTYLE
350
5DC
  3
DIMASSOC
350
550
  3
INDEXCTL
350
54F
  3
LAYEREVAL
350
5E0
  3
LAYERNOTIFY
350
5E1
  3
LIGHTINGUNITS
350
5DF
  3
MSLTSCALE
350
5DD
  3
SORTENTS
350
54E
  3
XCLIPFRAME
350
5E2
  0
XRECORD
  5
6B4
102
{ACAD_REACTORS
330
C
102
}
330
C
100
AcDbXrecord
280
     1
  0
DICTIONARY
  5
6B7
102
{ACAD_REACTORS
330
C
102
}
330
C
100
AcDbDictionary
281
     1
  3
GmRelease
350
6B8
  3
GmTimeStamp
350
6B9
  0
XRECORD
  5
5D9
102
{ACAD_REACTORS
330
5D8
102
}
330
5D8
100
AcDbXrecord
280
     1
290
     1
  0
ACDBDETAILVIEWSTYLE
  5
584
102
{ACAD_REACTORS
330
583
102
}
102
{ACAD_XDICTIONARY
360
6BA
102
}
330
583
100
AcDbModelDocViewStyle
 70
     0
  3
Imperial24
290
     0
100
AcDbDetailViewStyle
 70
     0
 71
     0
 90
        3
 71
     1
340
26
 62
   256
 40
0.24
340
0
 62
   256
 40
0.24
300

 40
0.36
280
     3
 71
     2
340
2A
 90
       25
 62
   256
 71
     3
340
26
 62
   256
 40
0.24
 90
        1
 40
0.75
 90
        1
300
%<\AcVar ViewType \f "%tc1">% %<\AcVar ViewDetailId>%\PSCALE %<\AcVar ViewScale \f "%sn">%
 71
     4
340
2A
 90
       25
 62
   256
340
2A
 90
       25
 62
   256
280
     0
  0
LAYOUT
  5
39
102
{ACAD_REACTORS
330
2E
102
}
330
2E
100
AcDbPlotSettings
  1

  2
DocuCentre-II C5400
  4

  6

 40
0.0
 41
0.0
 42
0.0
 43
0.0
 44
0.0
 45
0.0
 46
0.0
 47
0.0
 48
0.0
 49
0.0
140
0.0
141
0.0
142
1.0
143
1.0
 70
  1712
 72
     0
 73
     0
 74
     0
  7

 75
     0
 76
     0
 77
     2
 78
   300
147
1.0
148
0.0
149
0.0
100
AcDbLayout
  1
Model
 70
     1
 71
     0
 10
0.0
 20
0.0
 11
12.0
 21
9.0
 12
0.0
 22
0.0
 32
0.0
 14
0.0
 24
0.0
 34
0.0
 15
0.0
 25
0.0
 35
0.0
146
0.0
 13
0.0
 23
0.0
 33
0.0
 16
1.0
 26
0.0
 36
0.0
 17
0.0
 27
1.0
 37
0.0
 76
     0
330
36
331
41
  0
LAYOUT
  5
35
102
{ACAD_REACTORS
330
2E
102
}
330
2E
100
AcDbPlotSettings
  1

  2
DocuCentre-II C5400
  4

  6

 40
0.0
 41
0.0
 42
0.0
 43
0.0
 44
0.0
 45
0.0
 46
0.0
 47
0.0
 48
0.0
 49
0.0
140
0.0
141
0.0
142
1.0
143
1.0
 70
   688
 72
     0
 73
     0
 74
     5
  7

 75
    16
 76
     0
 77
     2
 78
   300
147
1.0
148
0.0
149
0.0
100
AcDbLayout
  1
レイアウト1
 70
     1
 71
     1
 10
134.62634
 20
191.57544
 11
554.6263399999998
 21
488.57544
 12
0.0
 22
0.0
 32
0.0
 14
1.000000000000000E+20
 24
1.000000000000000E+20
 34
1.000000000000000E+20
 15
-1.000000000000000E+20
 25
-1.000000000000000E+20
 35
-1.000000000000000E+20
146
0.0
 13
0.0
 23
0.0
 33
0.0
 16
1.0
 26
0.0
 36
0.0
 17
0.0
 27
1.0
 37
0.0
 76
     0
330
32
  0
MATERIAL
  5
12
102
{ACAD_REACTORS
330
10
102
}
102
{ACAD_XDICTIONARY
360
554
102
}
330
10
100
AcDbMaterial
  1
ByBlock
 72
     1
 94
      127
  0
MATERIAL
  5
11
102
{ACAD_REACTORS
330
10
102
}
102
{ACAD_XDICTIONARY
360
552
102
}
330
10
100
AcDbMaterial
  1
ByLayer
 72
     1
 94
      127
  0
MATERIAL
  5
13
102
{ACAD_REACTORS
330
10
102
}
102
{ACAD_XDICTIONARY
360
556
102
}
330
10
100
AcDbMaterial
  1
Global
 72
     1
 94
      127
  0
MLEADERSTYLE
  5
580
102
{ACAD_REACTORS
330
57F
102
}
102
{ACAD_XDICTIONARY
360
6BC
102
}
330
57F
100
AcDbMLeaderStyle
170
     2
171
     1
172
     0
 90
        2
 40
0.0
 41
0.0
173
     1
 91
-1056964608
340
28
 92
       -2
290
     1
 42
0.09
291
     1
 43
0.36
  3
Standard
341
0
 44
0.18
300

342
26
174
     1
178
     6
175
     1
176
     0
 93
-1056964608
 45
0.18
292
     0
297
     0
 46
0.18
343
0
 94
-1056964608
 47
1.0
 49
1.0
140
1.0
293
     1
141
0.0
294
     1
177
     0
142
1.0
295
     0
296
     0
143
0.125
1001
ACAD_MLEADERVER
1070
     2
  0
MLINESTYLE
  5
2C
102
{ACAD_REACTORS
330
2B
102
}
330
2B
100
AcDbMlineStyle
  2
STANDARD
 70
     0
  3

 62
   256
 51
90.0
 52
90.0
 71
     2
 49
0.5
 62
   256
  6
BYLAYER
 49
-0.5
 62
   256
  6
BYLAYER
  0
ACDBPLACEHOLDER
  5
F
102
{ACAD_REACTORS
330
E
102
}
330
E
  0
SCALE
  5
56E
102
{ACAD_REACTORS
330
56D
102
}
330
56D
100
AcDbScale
 70
     0
300
1:1
140
1.0
141
1.0
290
     1
  0
SCALE
  5
56F
102
{ACAD_REACTORS
330
56D
102
}
330
56D
100
AcDbScale
 70
     0
300
1/128" = 1'-0"
140
0.0078125
141
12.0
290
     0
  0
SCALE
  5
570
102
{ACAD_REACTORS
330
56D
102
}
330
56D
100
AcDbScale
 70
     0
300
1/64" = 1'-0"
140
0.015625
141
12.0
290
     0
  0
SCALE
  5
571
102
{ACAD_REACTORS
330
56D
102
}
330
56D
100
AcDbScale
 70
     0
300
1/32" = 1'-0"
140
0.03125
141
12.0
290
     0
  0
SCALE
  5
572
102
{ACAD_REACTORS
330
56D
102
}
330
56D
100
AcDbScale
 70
     0
300
1/16" = 1'-0"
140
0.0625
141
12.0
290
     0
  0
SCALE
  5
573
102
{ACAD_REACTORS
330
56D
102
}
330
56D
100
AcDbScale
 70
     0
300
3/32" = 1'-0"
140
0.09375
141
12.0
290
     0
  0
SCALE
  5
574
102
{ACAD_REACTORS
330
56D
102
}
330
56D
100
AcDbScale
 70
     0
300
1/8" = 1'-0"
140
0.125
141
12.0
290
     0
  0
SCALE
  5
575
102
{ACAD_REACTORS
330
56D
102
}
330
56D
100
AcDbScale
 70
     0
300
3/16" = 1'-0"
140
0.1875
141
12.0
290
     0
  0
SCALE
  5
576
102
{ACAD_REACTORS
330
56D
102
}
330
56D
100
AcDbScale
 70
     0
300
1/4" = 1'-0"
140
0.25
141
12.0
290
     0
  0
SCALE
  5
577
102
{ACAD_REACTORS
330
56D
102
}
330
56D
100
AcDbScale
 70
     0
300
3/8" = 1'-0"
140
0.375
141
12.0
290
     0
  0
SCALE
  5
578
102
{ACAD_REACTORS
330
56D
102
}
330
56D
100
AcDbScale
 70
     0
300
1/2" = 1'-0"
140
0.5
141
12.0
290
     0
  0
SCALE
  5
579
102
{ACAD_REACTORS
330
56D
102
}
330
56D
100
AcDbScale
 70
     0
300
3/4" = 1'-0"
140
0.75
141
12.0
290
     0
  0
SCALE
  5
57A
102
{ACAD_REACTORS
330
56D
102
}
330
56D
100
AcDbScale
 70
     0
300
1" = 1'-0"
140
1.0
141
12.0
290
     0
  0
SCALE
  5
57B
102
{ACAD_REACTORS
330
56D
102
}
330
56D
100
AcDbScale
 70
     0
300
1-1/2" = 1'-0"
140
1.5
141
12.0
290
     0
  0
SCALE
  5
57C
102
{ACAD_REACTORS
330
56D
102
}
330
56D
100
AcDbScale
 70
     0
300
3" = 1'-0"
140
3.0
141
12.0
290
     0
  0
SCALE
  5
57D
102
{ACAD_REACTORS
330
56D
102
}
330
56D
100
AcDbScale
 70
     0
300
6" = 1'-0"
140
6.0
141
12.0
290
     0
  0
SCALE
  5
57E
102
{ACAD_REACTORS
330
56D
102
}
330
56D
100
AcDbScale
 70
     0
300
1'-0" = 1'-0"
140
12.0
141
12.0
290
     0
  0
ACDBSECTIONVIEWSTYLE
  5
582
102
{ACAD_REACTORS
330
581
102
}
102
{ACAD_XDICTIONARY
360
6BE
102
}
330
581
100
AcDbModelDocViewStyle
 70
     0
  3
Imperial24
290
     0
100
AcDbSectionViewStyle
 70
     0
 71
     0
 90
       78
 71
     1
340
26
 62
   256
 40
0.24
340
0
340
0
 62
   256
 40
0.24
300
I, O, Q, S, X, Z
 40
0.48
 90
        3
 40
0.18
 90
        1
 71
     2
340
4A4
 90
       25
 62
   256
340
2A
 90
       50
 62
   256
 40
0.24
 40
0.0
 40
0.24
 71
     3
340
26
 62
   256
 40
0.24
 90
        1
 40
0.75
 90
        1
300
%<\AcVar ViewType \f "%tc1">% %<\AcVar ViewSectionStartId>%-%<\AcVar ViewSectionEndId>%\PSCALE %<\AcVar ViewScale \f "%sn">%
 71
     4
 62
   256
 62
   257
300
ANSI31
 40
1.0
 90
        0
290
     0
290
     0
 90
        6
 40
0.0
 40
1.570796326794896
 40
0.2617993877991494
 40
1.308996938995747
 40
-0.2617993877991494
 40
1.832595714594046
  0
TABLESTYLE
  5
31
102
{ACAD_REACTORS
330
30
102
}
102
{ACAD_XDICTIONARY
360
6C0
102
}
330
30
100
AcDbTableStyle
  3
Standard
 70
     0
 71
     0
 40
0.06
 41
0.06
280
     0
281
     0
  7
STANDARD
140
0.18
170
     2
 62
     0
 63
   257
283
     0
 90
      512
 91
        0
  1

274
    -2
284
     1
 64
     0
275
    -2
285
     1
 65
     0
276
    -2
286
     1
 66
     0
277
    -2
287
     1
 67
     0
278
    -2
288
     1
 68
     0
279
    -2
289
     1
 69
     0
  7
STANDARD
140
0.25
170
     5
 62
     0
 63
   257
283
     0
 90
      512
 91
        0
  1

274
    -2
284
     1
 64
     0
275
    -2
285
     1
 65
     0
276
    -2
286
     1
 66
     0
277
    -2
287
     1
 67
     0
278
    -2
288
     1
 68
     0
279
    -2
289
     1
 69
     0
  7
STANDARD
140
0.18
170
     5
 62
     0
 63
   257
283
     0
 90
      512
 91
        0
  1

274
    -2
284
     1
 64
     0
275
    -2
285
     1
 65
     0
276
    -2
286
     1
 66
     0
277
    -2
287
     1
 67
     0
278
    -2
288
     1
 68
     0
279
    -2
289
     1
 69
     0
  0
VISUALSTYLE
  5
1A
102
{ACAD_REACTORS
330
14
102
}
102
{ACAD_XDICTIONARY
360
6C2
102
}
330
14
100
AcDbVisualStyle
  2

 70
     4
 71
     0
 72
     2
 73
     0
 90
        0
 40
-0.6
 41
-30.0
 62
     5
 63
     7
 74
     1
 91
        4
 64
     7
 65
   257
 75
     1
175
     1
 42
1.0
 92
        0
 66
   257
 43
1.0
 76
     1
 77
     6
 78
     2
 67
     7
 79
     5
170
     0
171
     0
290
     0
174
     0
 93
        1
 44
0.0
173
     0
291
     0
 45
0.0
  0
VISUALSTYLE
  5
1C
102
{ACAD_REACTORS
330
14
102
}
102
{ACAD_XDICTIONARY
360
6C4
102
}
330
14
100
AcDbVisualStyle
  2

 70
     6
 71
     1
 72
     2
 73
     2
 90
        0
 40
-0.6
 41
-30.0
 62
     5
 63
     7
 74
     2
 91
        2
 64
     7
 65
   257
 75
     2
175
     1
 42
40.0
 92
        0
 66
   257
 43
1.0
 76
     1
 77
     6
 78
     2
 67
     7
 79
     3
170
     0
171
     0
290
     0
174
     0
 93
        1
 44
0.0
173
     0
291
     0
 45
0.0
  0
VISUALSTYLE
  5
1B
102
{ACAD_REACTORS
330
14
102
}
102
{ACAD_XDICTIONARY
360
6C6
102
}
330
14
100
AcDbVisualStyle
  2

 70
     5
 71
     0
 72
     2
 73
     0
 90
        0
 40
-0.6
 41
-30.0
 62
     5
 63
     7
 74
     1
 91
        4
 64
     7
 65
   257
 75
     1
175
     1
 42
1.0
 92
        0
 66
   257
 43
1.0
 76
     1
 77
     6
 78
     2
 67
     7
 79
     5
170
     0
171
     0
290
     0
174
     0
 93
        1
 44
0.0
173
     0
291
     0
 45
0.0
  0
VISUALSTYLE
  5
19
102
{ACAD_REACTORS
330
14
102
}
102
{ACAD_XDICTIONARY
360
6C8
102
}
330
14
100
AcDbVisualStyle
  2

 70
     7
 71
     1
 72
     0
 73
     1
 90
        0
 40
-0.6
 41
-30.0
 62
     5
 63
     7
 74
     0
 91
        4
 64
     7
 65
   257
 75
     1
175
     1
 42
1.0
 92
        8
 66
     7
 43
1.0
 76
     1
 77
     6
 78
     2
 67
     7
 79
     5
170
     0
171
     0
290
     0
174
     0
 93
        1
 44
0.0
173
     0
291
     1
 45
0.0
  0
VISUALSTYLE
  5
20
102
{ACAD_REACTORS
330
14
102
}
102
{ACAD_XDICTIONARY
360
6CA
102
}
330
14
100
AcDbVisualStyle
  2

 70
    12
 71
     2
 72
     2
 73
     0
 90
        0
 40
-0.6
 41
-30.0
 62
     5
 63
     7
 74
     1
 91
        4
 64
     7
 65
   257
 75
     1
175
     1
 42
1.0
 92
        8
 66
     7
 43
1.0
 76
     1
 77
     6
 78
     2
 67
     7
 79
     5
170
     0
171
     0
290
     0
174
     0
 93
        1
 44
50.0
173
     0
291
     1
 45
0.0
  0
VISUALSTYLE
  5
24
102
{ACAD_REACTORS
330
14
102
}
102
{ACAD_XDICTIONARY
360
6CC
102
}
330
14
100
AcDbVisualStyle
  2

 70
    16
 71
     2
 72
     2
 73
     3
 90
        0
 40
-0.6
 41
-30.0
 62
     5
 63
     8
 74
     1
 91
        4
 64
     7
 65
   257
 75
     1
175
     1
 42
1.0
 92
        8
 66
     8
 43
1.0
 76
     1
 77
     6
 78
     2
 67
     7
 79
     5
170
     0
171
     0
290
     0
174
     0
 93
        1
 44
0.0
173
     0
291
     1
 45
0.0
  0
VISUALSTYLE
  5
1D
102
{ACAD_REACTORS
330
14
102
}
102
{ACAD_XDICTIONARY
360
6CE
102
}
330
14
100
AcDbVisualStyle
  2

 70
     9
 71
     3
 72
     2
 73
     0
 90
        0
 40
-0.6
 41
-30.0
 62
     5
 63
     7
 74
     2
 91
        2
 64
     7
 65
   257
 75
     1
175
     1
 42
40.0
 92
        8
 66
     7
 43
1.0
 76
     1
 77
     6
 78
     2
 67
     7
 79
     3
170
     0
171
     0
290
     0
174
     0
 93
        1
 44
0.0
173
     0
291
     0
 45
0.0
  0
VISUALSTYLE
  5
1F
102
{ACAD_REACTORS
330
14
102
}
102
{ACAD_XDICTIONARY
360
6D0
102
}
330
14
100
AcDbVisualStyle
  2

 70
    11
 71
     2
 72
     2
 73
     0
 90
        0
 40
-0.6
 41
-30.0
 62
     5
 63
     7
 74
     1
 91
        4
 64
     7
 65
   257
 75
     1
175
     1
 42
1.0
 92
        8
 66
     7
 43
1.0
 76
     1
 77
     6
 78
     2
 67
     7
 79
     5
170
     0
171
     0
290
     0
174
     0
 93
        1
 44
-50.0
173
     0
291
     1
 45
0.0
  0
VISUALSTYLE
  5
56C
102
{ACAD_REACTORS
330
14
102
}
102
{ACAD_XDICTIONARY
360
6D2
102
}
330
14
100
AcDbVisualStyle
  2
EdgeColorOff
 70
    22
 71
     2
 72
     2
 73
     0
 90
        0
 40
-0.6
 41
-30.0
 62
     5
 63
     7
421
 16777215
 74
     1
 91
        4
 64
     7
 65
   257
 75
     1
175
     1
 42
1.0
 92
        8
 66
     7
 43
1.0
 76
     1
 77
     6
 78
     2
 67
     7
 79
     5
170
     0
171
     0
290
     0
174
     0
 93
        1
 44
0.0
173
     0
291
     1
 45
0.0
  0
VISUALSTYLE
  5
23
102
{ACAD_REACTORS
330
14
102
}
102
{ACAD_XDICTIONARY
360
6D4
102
}
330
14
100
AcDbVisualStyle
  2

 70
    15
 71
     2
 72
     2
 73
     0
 90
        0
 40
-0.6
 41
-30.0
 62
     5
 63
     7
 74
     1
 91
        4
 64
     7
 65
   257
 75
     1
175
     1
 42
1.0
 92
        8
 66
     7
 43
1.0
 76
     1
 77
     6
 78
     2
 67
     7
 79
     5
170
     0
171
     0
290
     0
174
     0
 93
        1
 44
0.0
173
     0
291
     1
 45
0.0
  0
VISUALSTYLE
  5
15
102
{ACAD_REACTORS
330
14
102
}
102
{ACAD_XDICTIONARY
360
6D6
102
}
330
14
100
AcDbVisualStyle
  2

 70
     0
 71
     2
 72
     1
 73
     1
 90
        2
 40
-0.6
 41
30.0
 62
     5
 63
     7
 74
     0
 91
        4
 64
     7
 65
   257
 75
     1
175
     1
 42
1.0
 92
        8
 66
     7
 43
1.0
 76
     1
 77
     6
 78
     2
 67
     7
 79
     5
170
     0
171
     0
290
     0
174
     0
 93
       13
 44
0.0
173
     0
291
     1
 45
0.0
  0
VISUALSTYLE
  5
16
102
{ACAD_REACTORS
330
14
102
}
102
{ACAD_XDICTIONARY
360
6D8
102
}
330
14
100
AcDbVisualStyle
  2

 70
     1
 71
     2
 72
     1
 73
     1
 90
        2
 40
-0.6
 41
30.0
 62
     5
 63
     7
 74
     1
 91
        4
 64
     7
 65
   257
 75
     1
175
     1
 42
1.0
 92
        0
 66
   257
 43
1.0
 76
     1
 77
     6
 78
     2
 67
     7
 79
     5
170
     0
171
     0
290
     0
174
     0
 93
       13
 44
0.0
173
     0
291
     1
 45
0.0
  0
VISUALSTYLE
  5
17
102
{ACAD_REACTORS
330
14
102
}
102
{ACAD_XDICTIONARY
360
6DA
102
}
330
14
100
AcDbVisualStyle
  2

 70
     2
 71
     2
 72
     2
 73
     1
 90
        2
 40
-0.6
 41
30.0
 62
     5
 63
     7
 74
     0
 91
        4
 64
     7
 65
   257
 75
     1
175
     1
 42
1.0
 92
        0
 66
     7
 43
1.0
 76
     1
 77
     6
 78
     2
 67
     7
 79
     5
170
     0
171
     0
290
     0
174
     0
 93
       13
 44
0.0
173
     0
291
     1
 45
0.0
  0
VISUALSTYLE
  5
18
102
{ACAD_REACTORS
330
14
102
}
102
{ACAD_XDICTIONARY
360
6DC
102
}
330
14
100
AcDbVisualStyle
  2

 70
     3
 71
     2
 72
     2
 73
     1
 90
        2
 40
-0.6
 41
30.0
 62
     5
 63
     7
 74
     1
 91
        4
 64
     7
 65
   257
 75
     1
175
     1
 42
1.0
 92
        0
 66
   257
 43
1.0
 76
     1
 77
     6
 78
     2
 67
     7
 79
     5
170
     0
171
     0
290
     0
174
     0
 93
       13
 44
0.0
173
     0
291
     1
 45
0.0
  0
VISUALSTYLE
  5
564
102
{ACAD_REACTORS
330
14
102
}
102
{ACAD_XDICTIONARY
360
6DE
102
}
330
14
100
AcDbVisualStyle
  2
Hidden
 70
     6
 71
     1
 72
     2
 73
     2
 90
        0
 40
-0.6
 41
-30.0
 62
     5
 63
     7
421
 16777215
 74
     2
 91
        2
 64
     7
 65
   257
 75
     2
175
     1
 42
40.0
 92
        0
 66
   257
 43
1.0
 76
     1
 77
     6
 78
     2
 67
     7
 79
     3
170
     0
171
     0
290
     0
174
     0
 93
        1
 44
0.0
173
     0
291
     0
 45
0.0
  0
VISUALSTYLE
  5
56A
102
{ACAD_REACTORS
330
14
102
}
102
{ACAD_XDICTIONARY
360
6E0
102
}
330
14
100
AcDbVisualStyle
  2
JitterOff
 70
    20
 71
     2
 72
     2
 73
     0
 90
        0
 40
-0.6
 41
-30.0
 62
     5
 63
     7
421
 16777215
 74
     1
 91
        4
 64
     7
 65
   257
 75
     1
175
     1
 42
1.0
 92
       10
 66
     7
 43
1.0
 76
     1
 77
     6
 78
     2
 67
     7
 79
     5
170
     0
171
     0
290
     0
174
     0
 93
        1
 44
0.0
173
     0
291
     1
 45
0.0
  0
VISUALSTYLE
  5
22
102
{ACAD_REACTORS
330
14
102
}
102
{ACAD_XDICTIONARY
360
6E2
102
}
330
14
100
AcDbVisualStyle
  2

 70
    14
 71
     2
 72
     2
 73
     0
 90
        0
 40
-0.6
 41
-30.0
 62
     5
 63
     7
 74
     1
 91
        4
 64
     7
 65
   257
 75
     7
175
     7
 42
1.0
 92
        8
 66
     7
 43
1.0
 76
     1
 77
     6
 78
     2
 67
     7
 79
     5
170
     0
171
     0
290
     0
174
     0
 93
        1
 44
0.0
173
     0
291
     1
 45
0.0
  0
VISUALSTYLE
  5
56B
102
{ACAD_REACTORS
330
14
102
}
102
{ACAD_XDICTIONARY
360
6E4
102
}
330
14
100
AcDbVisualStyle
  2
OverhangOff
 70
    21
 71
     2
 72
     2
 73
     0
 90
        0
 40
-0.6
 41
-30.0
 62
     5
 63
     7
421
 16777215
 74
     1
 91
        4
 64
     7
 65
   257
 75
     1
175
     1
 42
1.0
 92
        9
 66
     7
 43
1.0
 76
     1
 77
     6
 78
     2
 67
     7
 79
     5
170
     0
171
     0
290
     0
174
     0
 93
        1
 44
0.0
173
     0
291
     1
 45
0.0
  0
VISUALSTYLE
  5
1E
102
{ACAD_REACTORS
330
14
102
}
102
{ACAD_XDICTIONARY
360
6E6
102
}
330
14
100
AcDbVisualStyle
  2

 70
     8
 71
     2
 72
     2
 73
     0
 90
        0
 40
-0.6
 41
-30.0
 62
     5
 63
     7
 74
     1
 91
        0
 64
     7
 65
   257
 75
     1
175
     1
 42
1.0
 92
        8
 66
     8
 43
1.0
 76
     1
 77
     6
 78
     2
 67
     7
 79
     5
170
     0
171
     0
290
     0
174
     0
 93
       13
 44
0.0
173
     0
291
     0
 45
0.0
  0
VISUALSTYLE
  5
569
102
{ACAD_REACTORS
330
14
102
}
102
{ACAD_XDICTIONARY
360
6E8
102
}
330
14
100
AcDbVisualStyle
  2
Shaded
 70
    27
 71
     2
 72
     2
 73
     1
 90
        2
 40
-0.6
 41
30.0
 62
     5
 63
     7
421
 16777215
 74
     0
 91
        4
 64
     7
 65
   257
 75
     1
175
     1
 42
1.0
 92
        8
 66
   257
 43
1.0
 76
     1
 77
     6
 78
     2
 67
     8
425
  7895160
 79
     3
170
     0
171
     0
290
     0
174
     0
 93
        5
 44
0.0
173
     0
291
     0
 45
0.0
  0
VISUALSTYLE
  5
568
102
{ACAD_REACTORS
330
14
102
}
102
{ACAD_XDICTIONARY
360
6EA
102
}
330
14
100
AcDbVisualStyle
  2
Shaded with edges
 70
    26
 71
     2
 72
     2
 73
     1
 90
        2
 40
-0.6
 41
30.0
 62
     5
 63
     7
421
 16777215
 74
     1
 91
       10
 64
     7
 65
   257
 75
     2
175
     1
 42
1.0
 92
        8
 66
   257
 43
1.0
 76
     1
 77
     6
 78
     2
 67
     7
 79
     3
170
     0
171
     0
290
     0
174
     0
 93
        5
 44
0.0
173
     0
291
     0
 45
0.0
  0
VISUALSTYLE
  5
565
102
{ACAD_REACTORS
330
14
102
}
102
{ACAD_XDICTIONARY
360
6EC
102
}
330
14
100
AcDbVisualStyle
  2
Shades of Gray
 70
    23
 71
     2
 72
     2
 73
     3
 90
        0
 40
-0.6
 41
-30.0
 62
     5
 63
     7
421
 16777215
 74
     2
 91
        2
 64
     7
 65
     7
 75
     1
175
     1
 42
40.0
 92
        8
 66
     7
 43
1.0
 76
     1
 77
     6
 78
     2
 67
     7
 79
     3
170
     0
171
     0
290
     0
174
     0
 93
        1
 44
0.0
173
     0
291
     0
 45
0.0
  0
VISUALSTYLE
  5
566
102
{ACAD_REACTORS
330
14
102
}
102
{ACAD_XDICTIONARY
360
6EE
102
}
330
14
100
AcDbVisualStyle
  2
Sketchy
 70
    24
 71
     1
 72
     2
 73
     2
 90
        0
 40
-0.6
 41
-30.0
 62
     5
 63
     7
421
 16777215
 74
     2
 91
        2
 64
     7
 65
     7
 75
     1
175
     1
 42
40.0
 92
       11
 66
     7
 43
1.0
 76
     1
 77
     6
 78
     2
 67
     7
 79
     6
170
     0
171
     0
290
     0
174
     0
 93
        1
 44
0.0
173
     0
291
     0
 45
0.0
  0
VISUALSTYLE
  5
21
102
{ACAD_REACTORS
330
14
102
}
102
{ACAD_XDICTIONARY
360
6F0
102
}
330
14
100
AcDbVisualStyle
  2

 70
    13
 71
     2
 72
     2
 73
     0
 90
        0
 40
-0.6
 41
-30.0
 62
     5
 63
     7
 74
     1
 91
        4
 64
     7
 65
   257
 75
     1
175
     1
 42
1.0
 92
       12
 66
     7
 43
1.0
 76
     1
 77
     6
 78
     2
 67
     7
 79
     5
170
     0
171
     0
290
     0
174
     0
 93
        1
 44
0.0
173
     0
291
     1
 45
0.0
  0
VISUALSTYLE
  5
563
102
{ACAD_REACTORS
330
14
102
}
102
{ACAD_XDICTIONARY
360
6F2
102
}
330
14
100
AcDbVisualStyle
  2
Wireframe
 70
     5
 71
     0
 72
     2
 73
     0
 90
        0
 40
-0.6
 41
-30.0
 62
     5
 63
     7
421
 16777215
 74
     1
 91
        4
 64
     7
 65
   257
 75
     1
175
     1
 42
1.0
 92
        0
 66
   257
 43
1.0
 76
     1
 77
     6
 78
     2
 67
     7
 79
     3
170
     0
171
     0
290
     0
174
     0
 93
        1
 44
0.0
173
     0
291
     0
 45
0.0
  0
VISUALSTYLE
  5
567
102
{ACAD_REACTORS
330
14
102
}
102
{ACAD_XDICTIONARY
360
6F4
102
}
330
14
100
AcDbVisualStyle
  2
X-Ray
 70
    25
 71
     2
 72
     2
 73
     1
 90
        1
 40
0.5
 41
-30.0
 62
     5
 63
     7
421
 16777215
 74
     1
 91
        0
 64
     7
 65
   257
 75
     1
175
     1
 42
1.0
 92
        8
 66
     7
 43
1.0
 76
     1
 77
     6
 78
     2
 67
     7
 79
     3
170
     0
171
     0
290
     0
174
     0
 93
       13
 44
0.0
173
     0
291
     0
 45
0.0
  0
DICTIONARYVAR
  5
5DE
102
{ACAD_REACTORS
330
514
102
}
330
514
100
DictionaryVariables
280
     0
  1
1:1
  0
DICTIONARYVAR
  5
5DA
102
{ACAD_REACTORS
330
514
102
}
330
514
100
DictionaryVariables
280
     0
  1
Standard
  0
DICTIONARYVAR
  5
515
102
{ACAD_REACTORS
330
514
102
}
330
514
100
DictionaryVariables
280
     0
  1
Standard
  0
DICTIONARYVAR
  5
5DB
102
{ACAD_REACTORS
330
514
102
}
330
514
100
DictionaryVariables
280
     0
  1
Imperial24
  0
DICTIONARYVAR
  5
5DC
102
{ACAD_REACTORS
330
514
102
}
330
514
100
DictionaryVariables
280
     0
  1
Imperial24
  0
DICTIONARYVAR
  5
550
102
{ACAD_REACTORS
330
514
102
}
330
514
100
DictionaryVariables
280
     0
  1
1
  0
DICTIONARYVAR
  5
54F
102
{ACAD_REACTORS
330
514
102
}
330
514
100
DictionaryVariables
280
     0
  1
0
  0
DICTIONARYVAR
  5
5E0
102
{ACAD_REACTORS
330
514
102
}
330
514
100
DictionaryVariables
280
     0
  1
1
  0
DICTIONARYVAR
  5
5E1
102
{ACAD_REACTORS
330
514
102
}
330
514
100
DictionaryVariables
280
     0
  1
15
  0
DICTIONARYVAR
  5
5DF
102
{ACAD_REACTORS
330
514
102
}
330
514
100
DictionaryVariables
280
     0
  1
0
  0
DICTIONARYVAR
  5
5DD
102
{ACAD_REACTORS
330
514
102
}
330
514
100
DictionaryVariables
280
     0
  1
0
  0
DICTIONARYVAR
  5
54E
102
{ACAD_REACTORS
330
514
102
}
330
514
100
DictionaryVariables
280
     0
  1
127
  0
DICTIONARYVAR
  5
5E2
102
{ACAD_REACTORS
330
514
102
}
330
514
100
DictionaryVariables
280
     0
  1
2
  0
AMDTSYSATTR
  5
6B8
102
{ACAD_REACTORS
330
6B7
102
}
330
6B7
  0
AMDTSYSATTR
  5
6B9
102
{ACAD_REACTORS
330
6B7
102
}
330
6B7
  0
DICTIONARY
  5
6BA
330
584
100
AcDbDictionary
280
     1
281
     1
  3
ACAD_XREC_ROUNDTRIP
360
6BB
  0
DICTIONARY
  5
554
330
12
100
AcDbDictionary
280
     1
281
     1
  3
ACAD_XREC_ROUNDTRIP
360
555
  0
DICTIONARY
  5
552
330
11
100
AcDbDictionary
280
     1
281
     1
  3
ACAD_XREC_ROUNDTRIP
360
553
  0
DICTIONARY
  5
556
330
13
100
AcDbDictionary
280
     1
281
     1
  3
ACAD_XREC_ROUNDTRIP
360
557
  0
DICTIONARY
  5
6BC
330
580
100
AcDbDictionary
280
     1
281
     1
  3
ACAD_XREC_ROUNDTRIP
360
6BD
  0
DICTIONARY
  5
6BE
330
582
100
AcDbDictionary
280
     1
281
     1
  3
ACAD_XREC_ROUNDTRIP
360
6BF
  0
DICTIONARY
  5
6C0
330
31
100
AcDbDictionary
280
     1
281
     1
  3
ACAD_ROUNDTRIP_2008_TABLESTYLE_CELLSTYLEMAP
360
6C1
  0
DICTIONARY
  5
6C2
330
1A
100
AcDbDictionary
280
     1
281
     1
  3
ACAD_XREC_ROUNDTRIP
360
6C3
  0
DICTIONARY
  5
6C4
330
1C
100
AcDbDictionary
280
     1
281
     1
  3
ACAD_XREC_ROUNDTRIP
360
6C5
  0
DICTIONARY
  5
6C6
330
1B
100
AcDbDictionary
280
     1
281
     1
  3
ACAD_XREC_ROUNDTRIP
360
6C7
  0
DICTIONARY
  5
6C8
330
19
100
AcDbDictionary
280
     1
281
     1
  3
ACAD_XREC_ROUNDTRIP
360
6C9
  0
DICTIONARY
  5
6CA
330
20
100
AcDbDictionary
280
     1
281
     1
  3
ACAD_XREC_ROUNDTRIP
360
6CB
  0
DICTIONARY
  5
6CC
330
24
100
AcDbDictionary
280
     1
281
     1
  3
ACAD_XREC_ROUNDTRIP
360
6CD
  0
DICTIONARY
  5
6CE
330
1D
100
AcDbDictionary
280
     1
281
     1
  3
ACAD_XREC_ROUNDTRIP
360
6CF
  0
DICTIONARY
  5
6D0
330
1F
100
AcDbDictionary
280
     1
281
     1
  3
ACAD_XREC_ROUNDTRIP
360
6D1
  0
DICTIONARY
  5
6D2
330
56C
100
AcDbDictionary
280
     1
281
     1
  3
ACAD_XREC_ROUNDTRIP
360
6D3
  0
DICTIONARY
  5
6D4
330
23
100
AcDbDictionary
280
     1
281
     1
  3
ACAD_XREC_ROUNDTRIP
360
6D5
  0
DICTIONARY
  5
6D6
330
15
100
AcDbDictionary
280
     1
281
     1
  3
ACAD_XREC_ROUNDTRIP
360
6D7
  0
DICTIONARY
  5
6D8
330
16
100
AcDbDictionary
280
     1
281
     1
  3
ACAD_XREC_ROUNDTRIP
360
6D9
  0
DICTIONARY
  5
6DA
330
17
100
AcDbDictionary
280
     1
281
     1
  3
ACAD_XREC_ROUNDTRIP
360
6DB
  0
DICTIONARY
  5
6DC
330
18
100
AcDbDictionary
280
     1
281
     1
  3
ACAD_XREC_ROUNDTRIP
360
6DD
  0
DICTIONARY
  5
6DE
330
564
100
AcDbDictionary
280
     1
281
     1
  3
ACAD_XREC_ROUNDTRIP
360
6DF
  0
DICTIONARY
  5
6E0
330
56A
100
AcDbDictionary
280
     1
281
     1
  3
ACAD_XREC_ROUNDTRIP
360
6E1
  0
DICTIONARY
  5
6E2
330
22
100
AcDbDictionary
280
     1
281
     1
  3
ACAD_XREC_ROUNDTRIP
360
6E3
  0
DICTIONARY
  5
6E4
330
56B
100
AcDbDictionary
280
     1
281
     1
  3
ACAD_XREC_ROUNDTRIP
360
6E5
  0
DICTIONARY
  5
6E6
330
1E
100
AcDbDictionary
280
     1
281
     1
  3
ACAD_XREC_ROUNDTRIP
360
6E7
  0
DICTIONARY
  5
6E8
330
569
100
AcDbDictionary
280
     1
281
     1
  3
ACAD_XREC_ROUNDTRIP
360
6E9
  0
DICTIONARY
  5
6EA
330
568
100
AcDbDictionary
280
     1
281
     1
  3
ACAD_XREC_ROUNDTRIP
360
6EB
  0
DICTIONARY
  5
6EC
330
565
100
AcDbDictionary
280
     1
281
     1
  3
ACAD_XREC_ROUNDTRIP
360
6ED
  0
DICTIONARY
  5
6EE
330
566
100
AcDbDictionary
280
     1
281
     1
  3
ACAD_XREC_ROUNDTRIP
360
6EF
  0
DICTIONARY
  5
6F0
330
21
100
AcDbDictionary
280
     1
281
     1
  3
ACAD_XREC_ROUNDTRIP
360
6F1
  0
DICTIONARY
  5
6F2
330
563
100
AcDbDictionary
280
     1
281
     1
  3
ACAD_XREC_ROUNDTRIP
360
6F3
  0
DICTIONARY
  5
6F4
330
567
100
AcDbDictionary
280
     1
281
     1
  3
ACAD_XREC_ROUNDTRIP
360
6F5
  0
XRECORD
  5
6BB
102
{ACAD_REACTORS
330
6BA
102
}
330
6BA
100
AcDbXrecord
280
     1
102
DISPLAYNAME
  1
Imperial24
102
FLAGS
 90
        0
  0
XRECORD
  5
555
102
{ACAD_REACTORS
330
554
102
}
330
554
100
AcDbXrecord
280
     1
102
MATERIAL
148
0.0
149
0.0
149
0.0
 93
        0
 94
       63
282
     0
 72
     1
 77
     1
171
     1
175
     1
179
     1
273
     0
  0
XRECORD
  5
553
102
{ACAD_REACTORS
330
552
102
}
330
552
100
AcDbXrecord
280
     1
102
MATERIAL
148
0.0
149
0.0
149
0.0
 93
        0
 94
       63
282
     0
 72
     1
 77
     1
171
     1
175
     1
179
     1
273
     0
  0
XRECORD
  5
557
102
{ACAD_REACTORS
330
556
102
}
330
556
100
AcDbXrecord
280
     1
102
MATERIAL
148
0.0
149
0.0
149
0.0
 93
        0
 94
       63
282
     0
 72
     1
 77
     1
171
     1
175
     1
179
     1
273
     0
  0
XRECORD
  5
6BD
102
{ACAD_REACTORS
330
6BC
102
}
330
6BC
100
AcDbXrecord
280
     1
102
ACAD_ROUNDTRIP_2010_MLEADER_STYLE
  0
XRECORD
  5
6BF
102
{ACAD_REACTORS
330
6BE
102
}
330
6BE
100
AcDbXrecord
280
     1
102
DISPLAYNAME
  1
Imperial24
102
FLAGS
 90
        0
  0
CELLSTYLEMAP
  5
6C1
102
{ACAD_REACTORS
330
6C0
102
}
330
6C0
100
AcDbCellStyleMap
 90
        3
300
CELLSTYLE
  1
TABLEFORMAT_BEGIN
 90
        5
170
     1
 91
        0
 92
    32768
 62
   257
 93
        1
300
CONTENTFORMAT
  1
CONTENTFORMAT_BEGIN
 90
        0
 91
        0
 92
      512
 93
        0
300

 40
0.0
140
1.0
 94
        5
 62
     0
340
26
144
0.25
309
CONTENTFORMAT_END
171
     0
 94
        6
 95
        1
302
GRIDFORMAT
  1
GRIDFORMAT_BEGIN
 90
        0
 91
        1
 62
     0
 92
       -2
340
0
 93
        0
 40
0.045
309
GRIDFORMAT_END
 95
        2
302
GRIDFORMAT
  1
GRIDFORMAT_BEGIN
 90
        0
 91
        1
 62
     0
 92
       -2
340
0
 93
        0
 40
0.045
309
GRIDFORMAT_END
 95
        4
302
GRIDFORMAT
  1
GRIDFORMAT_BEGIN
 90
        0
 91
        1
 62
     0
 92
       -2
340
0
 93
        0
 40
0.045
309
GRIDFORMAT_END
 95
        8
302
GRIDFORMAT
  1
GRIDFORMAT_BEGIN
 90
        0
 91
        1
 62
     0
 92
       -2
340
0
 93
        0
 40
0.045
309
GRIDFORMAT_END
 95
       16
302
GRIDFORMAT
  1
GRIDFORMAT_BEGIN
 90
        0
 91
        1
 62
     0
 92
       -2
340
0
 93
        0
 40
0.045
309
GRIDFORMAT_END
 95
       32
302
GRIDFORMAT
  1
GRIDFORMAT_BEGIN
 90
        0
 91
        1
 62
     0
 92
       -2
340
0
 93
        0
 40
0.045
309
GRIDFORMAT_END
309
TABLEFORMAT_END
  1
CELLSTYLE_BEGIN
 90
        1
 91
        1
300
_TITLE
309
CELLSTYLE_END
300
CELLSTYLE
  1
TABLEFORMAT_BEGIN
 90
        5
170
     1
 91
        0
 92
        0
 62
   257
 93
        1
300
CONTENTFORMAT
  1
CONTENTFORMAT_BEGIN
 90
        0
 91
        0
 92
      512
 93
        0
300

 40
0.0
140
1.0
 94
        5
 62
     0
340
26
144
0.18
309
CONTENTFORMAT_END
171
     0
 94
        6
 95
        1
302
GRIDFORMAT
  1
GRIDFORMAT_BEGIN
 90
        0
 91
        1
 62
     0
 92
       -2
340
0
 93
        0
 40
0.045
309
GRIDFORMAT_END
 95
        2
302
GRIDFORMAT
  1
GRIDFORMAT_BEGIN
 90
        0
 91
        1
 62
     0
 92
       -2
340
0
 93
        0
 40
0.045
309
GRIDFORMAT_END
 95
        4
302
GRIDFORMAT
  1
GRIDFORMAT_BEGIN
 90
        0
 91
        1
 62
     0
 92
       -2
340
0
 93
        0
 40
0.045
309
GRIDFORMAT_END
 95
        8
302
GRIDFORMAT
  1
GRIDFORMAT_BEGIN
 90
        0
 91
        1
 62
     0
 92
       -2
340
0
 93
        0
 40
0.045
309
GRIDFORMAT_END
 95
       16
302
GRIDFORMAT
  1
GRIDFORMAT_BEGIN
 90
        0
 91
        1
 62
     0
 92
       -2
340
0
 93
        0
 40
0.045
309
GRIDFORMAT_END
 95
       32
302
GRIDFORMAT
  1
GRIDFORMAT_BEGIN
 90
        0
 91
        1
 62
     0
 92
       -2
340
0
 93
        0
 40
0.045
309
GRIDFORMAT_END
309
TABLEFORMAT_END
  1
CELLSTYLE_BEGIN
 90
        2
 91
        1
300
_HEADER
309
CELLSTYLE_END
300
CELLSTYLE
  1
TABLEFORMAT_BEGIN
 90
        5
170
     1
 91
        0
 92
        0
 62
   257
 93
        1
300
CONTENTFORMAT
  1
CONTENTFORMAT_BEGIN
 90
        0
 91
        0
 92
      512
 93
        0
300

 40
0.0
140
1.0
 94
        2
 62
     0
340
26
144
0.18
309
CONTENTFORMAT_END
171
     0
 94
        6
 95
        1
302
GRIDFORMAT
  1
GRIDFORMAT_BEGIN
 90
        0
 91
        1
 62
     0
 92
       -2
340
0
 93
        0
 40
0.045
309
GRIDFORMAT_END
 95
        2
302
GRIDFORMAT
  1
GRIDFORMAT_BEGIN
 90
        0
 91
        1
 62
     0
 92
       -2
340
0
 93
        0
 40
0.045
309
GRIDFORMAT_END
 95
        4
302
GRIDFORMAT
  1
GRIDFORMAT_BEGIN
 90
        0
 91
        1
 62
     0
 92
       -2
340
0
 93
        0
 40
0.045
309
GRIDFORMAT_END
 95
        8
302
GRIDFORMAT
  1
GRIDFORMAT_BEGIN
 90
        0
 91
        1
 62
     0
 92
       -2
340
0
 93
        0
 40
0.045
309
GRIDFORMAT_END
 95
       16
302
GRIDFORMAT
  1
GRIDFORMAT_BEGIN
 90
        0
 91
        1
 62
     0
 92
       -2
340
0
 93
        0
 40
0.045
309
GRIDFORMAT_END
 95
       32
302
GRIDFORMAT
  1
GRIDFORMAT_BEGIN
 90
        0
 91
        1
 62
     0
 92
       -2
340
0
 93
        0
 40
0.045
309
GRIDFORMAT_END
309
TABLEFORMAT_END
  1
CELLSTYLE_BEGIN
 90
        3
 91
        2
300
_DATA
309
CELLSTYLE_END
  0
XRECORD
  5
6C3
102
{ACAD_REACTORS
330
6C2
102
}
330
6C2
100
AcDbXrecord
280
     1
102
RTVSPropertyOp0
 70
     1
102
RTVSPropertyOp1
 70
     1
102
RTVSPropertyOp2
 70
     1
102
RTVSPropertyOp3
 70
     1
102
RTVSPropertyOp4
 70
     1
102
RTVSPropertyOp5
 70
     1
102
RTVSPropertyOp6
 70
     1
102
RTVSPropertyOp7
 70
     1
102
RTVSPropertyOp8
 70
     1
102
RTVSPropertyOp9
 70
     1
102
RTVSPropertyOp10
 70
     1
102
RTVSPropertyOp11
 70
     1
102
RTVSPropertyOp12
 70
     1
102
RTVSPropertyOp13
 70
     1
102
RTVSPropertyOp14
 70
     1
102
RTVSPropertyOp15
 70
     1
102
RTVSPropertyOp16
 70
     1
102
RTVSPropertyOp17
 70
     1
102
RTVSPropertyOp18
 70
     1
102
RTVSPropertyOp19
 70
     1
102
RTVSPropertyOp20
 70
     1
102
RTVSPropertyOp21
 70
     1
102
RTVSPropertyOp22
 70
     1
102
RTVSPropertyOp23
 70
     1
102
RTVSPropertyOp24
 70
     1
102
RTVSPropertyOp25
 70
     1
102
RTVSPropertyOp26
 70
     1
102
RTVSPropertyOp27
 70
     1
102
RTVSPropertyOp28
 70
     1
102
RTVSPropertyOp29
 70
     1
102
RTVSPropertyOp30
 70
     1
102
RTVSPropertyOp31
 70
     1
102
RTVSPropertyOp32
 70
     1
102
RTVSPropertyOp33
 70
     1
102
RTVSPropertyOp34
 70
     1
102
RTVSPropertyOp35
 70
     1
102
RTVSPropertyOp36
 70
     1
102
RTVSPropertyOp37
 70
     1
102
RTVSPropertyOp38
 70
     1
102
RTVSPropertyOp39
 70
     1
102
RTVSPropertyOp40
 70
     1
102
RTVSPropertyOp41
 70
     1
102
RTVSPropertyOp42
 70
     1
102
RTVSPropertyOp43
 70
     1
102
RTVSPropertyOp44
 70
     1
102
RTVSPropertyOp45
 70
     1
102
RTVSPropertyOp46
 70
     1
102
RTVSPropertyOp47
 70
     1
102
RTVSPropertyOp48
 70
     1
102
RTVSPropertyOp49
 70
     1
102
RTVSPropertyOp50
 70
     1
102
RTVSPropertyOp51
 70
     0
102
RTVSPropertyOp52
 70
     0
102
RTVSPropertyOp53
 70
     1
102
RTVSPropertyOp54
 70
     1
102
RTVSPropertyOp55
 70
     1
102
RTVSPropertyOp56
 70
     1
102
RTVSPropertyOp57
 70
     1
102
RTVSPost2010Prop28
280
     1
102
RTVSPost2010PropOp28
 70
     1
102
RTVSPost2010Prop29
280
     1
102
RTVSPost2010PropOp29
 70
     1
102
RTVSPost2010Prop30
280
     0
102
RTVSPost2010PropOp30
 70
     1
102
RTVSPost2010Prop31
280
     0
102
RTVSPost2010PropOp31
 70
     1
102
RTVSPost2010Prop32
280
     0
102
RTVSPost2010PropOp32
 70
     1
102
RTVSPost2010Prop33
280
     0
102
RTVSPost2010PropOp33
 70
     1
102
RTVSPost2010Prop34
280
     0
102
RTVSPost2010PropOp34
 70
     1
102
RTVSPost2010Prop35
280
     0
102
RTVSPost2010PropOp35
 70
     1
102
RTVSPost2010Prop36
280
     0
102
RTVSPost2010PropOp36
 70
     1
102
RTVSPost2010Prop37
 90
       50
102
RTVSPost2010PropOp37
 70
     1
102
RTVSPost2010Prop38
140
0.0
102
RTVSPost2010PropOp38
 70
     1
102
RTVSPost2010Prop39
140
1.0
102
RTVSPost2010PropOp39
 70
     1
102
RTVSPost2010Prop40
 90
        0
102
RTVSPost2010PropOp40
 70
     1
102
RTVSPost2010Prop41ColorIndex
 90
       18
102
RTVSPost2010Prop41ColorRGB
 90
        0
102
RTVSPost2010PropOp41
 70
     1
102
RTVSPost2010Prop42
 90
       50
102
RTVSPost2010PropOp42
 70
     1
102
RTVSPost2010Prop43
 90
        3
102
RTVSPost2010PropOp43
 70
     1
102
RTVSPost2010Prop44ColorIndex
 90
        5
102
RTVSPost2010Prop44ColorRGB
 90
      255
102
RTVSPost2010PropOp44
 70
     1
102
RTVSPost2010Prop45
280
     0
102
RTVSPost2010PropOp45
 70
     1
102
RTVSPost2010Prop46
 90
       50
102
RTVSPost2010PropOp46
 70
     1
102
RTVSPost2010Prop47
 90
       50
102
RTVSPost2010PropOp47
 70
     1
102
RTVSPost2010Prop48
 90
       50
102
RTVSPost2010PropOp48
 70
     1
102
RTVSPost2010Prop49
280
     0
102
RTVSPost2010PropOp49
 70
     1
102
RTVSPost2010Prop50
 90
       50
102
RTVSPost2010PropOp50
 70
     1
102
RTVSPost2010Prop51ColorIndex
 90
      256
102
RTVSPost2010Prop51ColorRGB
 90
-16777216
102
RTVSPost2010PropOp51
 70
     0
102
RTVSPost2010Prop52
140
1.0
102
RTVSPost2010PropOp52
 70
     0
102
RTVSPost2010Prop53
 90
        2
102
RTVSPost2010PropOp53
 70
     1
102
RTVSPost2010Prop54
  1
strokes_ogs.tif
102
RTVSPost2010PropOp54
 70
     1
102
RTVSPost2010Prop55
280
     0
102
RTVSPost2010PropOp55
 70
     1
102
RTVSPost2010Prop56
140
1.0
102
RTVSPost2010PropOp56
 70
     1
102
RTVSPost2010Prop57
140
1.0
102
RTVSPost2010PropOp57
 70
     1
  0
XRECORD
  5
6C5
102
{ACAD_REACTORS
330
6C4
102
}
330
6C4
100
AcDbXrecord
280
     1
102
RTVSPropertyOp0
 70
     1
102
RTVSPropertyOp1
 70
     1
102
RTVSPropertyOp2
 70
     1
102
RTVSPropertyOp3
 70
     1
102
RTVSPropertyOp4
 70
     1
102
RTVSPropertyOp5
 70
     1
102
RTVSPropertyOp6
 70
     1
102
RTVSPropertyOp7
 70
     1
102
RTVSPropertyOp8
 70
     1
102
RTVSPropertyOp9
 70
     1
102
RTVSPropertyOp10
 70
     1
102
RTVSPropertyOp11
 70
     1
102
RTVSPropertyOp12
 70
     1
102
RTVSPropertyOp13
 70
     1
102
RTVSPropertyOp14
 70
     1
102
RTVSPropertyOp15
 70
     1
102
RTVSPropertyOp16
 70
     1
102
RTVSPropertyOp17
 70
     1
102
RTVSPropertyOp18
 70
     1
102
RTVSPropertyOp19
 70
     1
102
RTVSPropertyOp20
 70
     1
102
RTVSPropertyOp21
 70
     1
102
RTVSPropertyOp22
 70
     1
102
RTVSPropertyOp23
 70
     1
102
RTVSPropertyOp24
 70
     1
102
RTVSPropertyOp25
 70
     1
102
RTVSPropertyOp26
 70
     1
102
RTVSPropertyOp27
 70
     1
102
RTVSPropertyOp28
 70
     1
102
RTVSPropertyOp29
 70
     1
102
RTVSPropertyOp30
 70
     1
102
RTVSPropertyOp31
 70
     1
102
RTVSPropertyOp32
 70
     1
102
RTVSPropertyOp33
 70
     1
102
RTVSPropertyOp34
 70
     1
102
RTVSPropertyOp35
 70
     1
102
RTVSPropertyOp36
 70
     1
102
RTVSPropertyOp37
 70
     1
102
RTVSPropertyOp38
 70
     1
102
RTVSPropertyOp39
 70
     1
102
RTVSPropertyOp40
 70
     1
102
RTVSPropertyOp41
 70
     1
102
RTVSPropertyOp42
 70
     1
102
RTVSPropertyOp43
 70
     1
102
RTVSPropertyOp44
 70
     1
102
RTVSPropertyOp45
 70
     1
102
RTVSPropertyOp46
 70
     1
102
RTVSPropertyOp47
 70
     1
102
RTVSPropertyOp48
 70
     1
102
RTVSPropertyOp49
 70
     1
102
RTVSPropertyOp50
 70
     1
102
RTVSPropertyOp51
 70
     0
102
RTVSPropertyOp52
 70
     0
102
RTVSPropertyOp53
 70
     1
102
RTVSPropertyOp54
 70
     1
102
RTVSPropertyOp55
 70
     1
102
RTVSPropertyOp56
 70
     1
102
RTVSPropertyOp57
 70
     1
102
RTVSPost2010Prop28
280
     0
102
RTVSPost2010PropOp28
 70
     1
102
RTVSPost2010Prop29
280
     1
102
RTVSPost2010PropOp29
 70
     1
102
RTVSPost2010Prop30
280
     1
102
RTVSPost2010PropOp30
 70
     1
102
RTVSPost2010Prop31
280
     0
102
RTVSPost2010PropOp31
 70
     1
102
RTVSPost2010Prop32
280
     0
102
RTVSPost2010PropOp32
 70
     1
102
RTVSPost2010Prop33
280
     0
102
RTVSPost2010PropOp33
 70
     1
102
RTVSPost2010Prop34
280
     0
102
RTVSPost2010PropOp34
 70
     1
102
RTVSPost2010Prop35
280
     0
102
RTVSPost2010PropOp35
 70
     1
102
RTVSPost2010Prop36
280
     0
102
RTVSPost2010PropOp36
 70
     1
102
RTVSPost2010Prop37
 90
       50
102
RTVSPost2010PropOp37
 70
     1
102
RTVSPost2010Prop38
140
0.0
102
RTVSPost2010PropOp38
 70
     1
102
RTVSPost2010Prop39
140
1.0
102
RTVSPost2010PropOp39
 70
     1
102
RTVSPost2010Prop40
 90
        0
102
RTVSPost2010PropOp40
 70
     1
102
RTVSPost2010Prop41ColorIndex
 90
       18
102
RTVSPost2010Prop41ColorRGB
 90
        0
102
RTVSPost2010PropOp41
 70
     1
102
RTVSPost2010Prop42
 90
       50
102
RTVSPost2010PropOp42
 70
     1
102
RTVSPost2010Prop43
 90
        3
102
RTVSPost2010PropOp43
 70
     1
102
RTVSPost2010Prop44ColorIndex
 90
        5
102
RTVSPost2010Prop44ColorRGB
 90
      255
102
RTVSPost2010PropOp44
 70
     1
102
RTVSPost2010Prop45
280
     0
102
RTVSPost2010PropOp45
 70
     1
102
RTVSPost2010Prop46
 90
       50
102
RTVSPost2010PropOp46
 70
     1
102
RTVSPost2010Prop47
 90
       50
102
RTVSPost2010PropOp47
 70
     1
102
RTVSPost2010Prop48
 90
       50
102
RTVSPost2010PropOp48
 70
     1
102
RTVSPost2010Prop49
280
     0
102
RTVSPost2010PropOp49
 70
     1
102
RTVSPost2010Prop50
 90
       50
102
RTVSPost2010PropOp50
 70
     1
102
RTVSPost2010Prop51ColorIndex
 90
      256
102
RTVSPost2010Prop51ColorRGB
 90
-16777216
102
RTVSPost2010PropOp51
 70
     0
102
RTVSPost2010Prop52
140
1.0
102
RTVSPost2010PropOp52
 70
     0
102
RTVSPost2010Prop53
 90
        2
102
RTVSPost2010PropOp53
 70
     1
102
RTVSPost2010Prop54
  1
strokes_ogs.tif
102
RTVSPost2010PropOp54
 70
     1
102
RTVSPost2010Prop55
280
     0
102
RTVSPost2010PropOp55
 70
     1
102
RTVSPost2010Prop56
140
1.0
102
RTVSPost2010PropOp56
 70
     1
102
RTVSPost2010Prop57
140
1.0
102
RTVSPost2010PropOp57
 70
     1
  0
XRECORD
  5
6C7
102
{ACAD_REACTORS
330
6C6
102
}
330
6C6
100
AcDbXrecord
280
     1
102
RTVSPropertyOp0
 70
     1
102
RTVSPropertyOp1
 70
     1
102
RTVSPropertyOp2
 70
     1
102
RTVSPropertyOp3
 70
     1
102
RTVSPropertyOp4
 70
     1
102
RTVSPropertyOp5
 70
     1
102
RTVSPropertyOp6
 70
     1
102
RTVSPropertyOp7
 70
     1
102
RTVSPropertyOp8
 70
     1
102
RTVSPropertyOp9
 70
     1
102
RTVSPropertyOp10
 70
     1
102
RTVSPropertyOp11
 70
     1
102
RTVSPropertyOp12
 70
     1
102
RTVSPropertyOp13
 70
     1
102
RTVSPropertyOp14
 70
     1
102
RTVSPropertyOp15
 70
     1
102
RTVSPropertyOp16
 70
     1
102
RTVSPropertyOp17
 70
     1
102
RTVSPropertyOp18
 70
     1
102
RTVSPropertyOp19
 70
     1
102
RTVSPropertyOp20
 70
     1
102
RTVSPropertyOp21
 70
     1
102
RTVSPropertyOp22
 70
     1
102
RTVSPropertyOp23
 70
     1
102
RTVSPropertyOp24
 70
     1
102
RTVSPropertyOp25
 70
     1
102
RTVSPropertyOp26
 70
     1
102
RTVSPropertyOp27
 70
     1
102
RTVSPropertyOp28
 70
     1
102
RTVSPropertyOp29
 70
     1
102
RTVSPropertyOp30
 70
     1
102
RTVSPropertyOp31
 70
     1
102
RTVSPropertyOp32
 70
     1
102
RTVSPropertyOp33
 70
     1
102
RTVSPropertyOp34
 70
     1
102
RTVSPropertyOp35
 70
     1
102
RTVSPropertyOp36
 70
     1
102
RTVSPropertyOp37
 70
     1
102
RTVSPropertyOp38
 70
     1
102
RTVSPropertyOp39
 70
     1
102
RTVSPropertyOp40
 70
     1
102
RTVSPropertyOp41
 70
     1
102
RTVSPropertyOp42
 70
     1
102
RTVSPropertyOp43
 70
     1
102
RTVSPropertyOp44
 70
     1
102
RTVSPropertyOp45
 70
     1
102
RTVSPropertyOp46
 70
     1
102
RTVSPropertyOp47
 70
     1
102
RTVSPropertyOp48
 70
     1
102
RTVSPropertyOp49
 70
     1
102
RTVSPropertyOp50
 70
     1
102
RTVSPropertyOp51
 70
     0
102
RTVSPropertyOp52
 70
     0
102
RTVSPropertyOp53
 70
     1
102
RTVSPropertyOp54
 70
     1
102
RTVSPropertyOp55
 70
     1
102
RTVSPropertyOp56
 70
     1
102
RTVSPropertyOp57
 70
     1
102
RTVSPost2010Prop28
280
     0
102
RTVSPost2010PropOp28
 70
     1
102
RTVSPost2010Prop29
280
     1
102
RTVSPost2010PropOp29
 70
     1
102
RTVSPost2010Prop30
280
     1
102
RTVSPost2010PropOp30
 70
     1
102
RTVSPost2010Prop31
280
     0
102
RTVSPost2010PropOp31
 70
     1
102
RTVSPost2010Prop32
280
     0
102
RTVSPost2010PropOp32
 70
     1
102
RTVSPost2010Prop33
280
     0
102
RTVSPost2010PropOp33
 70
     1
102
RTVSPost2010Prop34
280
     0
102
RTVSPost2010PropOp34
 70
     1
102
RTVSPost2010Prop35
280
     0
102
RTVSPost2010PropOp35
 70
     1
102
RTVSPost2010Prop36
280
     0
102
RTVSPost2010PropOp36
 70
     1
102
RTVSPost2010Prop37
 90
       50
102
RTVSPost2010PropOp37
 70
     1
102
RTVSPost2010Prop38
140
0.0
102
RTVSPost2010PropOp38
 70
     1
102
RTVSPost2010Prop39
140
1.0
102
RTVSPost2010PropOp39
 70
     1
102
RTVSPost2010Prop40
 90
        0
102
RTVSPost2010PropOp40
 70
     1
102
RTVSPost2010Prop41ColorIndex
 90
       18
102
RTVSPost2010Prop41ColorRGB
 90
        0
102
RTVSPost2010PropOp41
 70
     1
102
RTVSPost2010Prop42
 90
       50
102
RTVSPost2010PropOp42
 70
     1
102
RTVSPost2010Prop43
 90
        3
102
RTVSPost2010PropOp43
 70
     1
102
RTVSPost2010Prop44ColorIndex
 90
        5
102
RTVSPost2010Prop44ColorRGB
 90
      255
102
RTVSPost2010PropOp44
 70
     1
102
RTVSPost2010Prop45
280
     0
102
RTVSPost2010PropOp45
 70
     1
102
RTVSPost2010Prop46
 90
       50
102
RTVSPost2010PropOp46
 70
     1
102
RTVSPost2010Prop47
 90
       50
102
RTVSPost2010PropOp47
 70
     1
102
RTVSPost2010Prop48
 90
       50
102
RTVSPost2010PropOp48
 70
     1
102
RTVSPost2010Prop49
280
     0
102
RTVSPost2010PropOp49
 70
     1
102
RTVSPost2010Prop50
 90
       50
102
RTVSPost2010PropOp50
 70
     1
102
RTVSPost2010Prop51ColorIndex
 90
      256
102
RTVSPost2010Prop51ColorRGB
 90
-16777216
102
RTVSPost2010PropOp51
 70
     0
102
RTVSPost2010Prop52
140
1.0
102
RTVSPost2010PropOp52
 70
     0
102
RTVSPost2010Prop53
 90
        2
102
RTVSPost2010PropOp53
 70
     1
102
RTVSPost2010Prop54
  1
strokes_ogs.tif
102
RTVSPost2010PropOp54
 70
     1
102
RTVSPost2010Prop55
280
     0
102
RTVSPost2010PropOp55
 70
     1
102
RTVSPost2010Prop56
140
1.0
102
RTVSPost2010PropOp56
 70
     1
102
RTVSPost2010Prop57
140
1.0
102
RTVSPost2010PropOp57
 70
     1
  0
XRECORD
  5
6C9
102
{ACAD_REACTORS
330
6C8
102
}
330
6C8
100
AcDbXrecord
280
     1
102
RTVSPropertyOp0
 70
     1
102
RTVSPropertyOp1
 70
     1
102
RTVSPropertyOp2
 70
     1
102
RTVSPropertyOp3
 70
     1
102
RTVSPropertyOp4
 70
     1
102
RTVSPropertyOp5
 70
     1
102
RTVSPropertyOp6
 70
     1
102
RTVSPropertyOp7
 70
     1
102
RTVSPropertyOp8
 70
     1
102
RTVSPropertyOp9
 70
     1
102
RTVSPropertyOp10
 70
     1
102
RTVSPropertyOp11
 70
     1
102
RTVSPropertyOp12
 70
     1
102
RTVSPropertyOp13
 70
     1
102
RTVSPropertyOp14
 70
     1
102
RTVSPropertyOp15
 70
     1
102
RTVSPropertyOp16
 70
     1
102
RTVSPropertyOp17
 70
     1
102
RTVSPropertyOp18
 70
     1
102
RTVSPropertyOp19
 70
     1
102
RTVSPropertyOp20
 70
     1
102
RTVSPropertyOp21
 70
     1
102
RTVSPropertyOp22
 70
     1
102
RTVSPropertyOp23
 70
     1
102
RTVSPropertyOp24
 70
     1
102
RTVSPropertyOp25
 70
     1
102
RTVSPropertyOp26
 70
     1
102
RTVSPropertyOp27
 70
     1
102
RTVSPropertyOp28
 70
     1
102
RTVSPropertyOp29
 70
     1
102
RTVSPropertyOp30
 70
     1
102
RTVSPropertyOp31
 70
     1
102
RTVSPropertyOp32
 70
     1
102
RTVSPropertyOp33
 70
     1
102
RTVSPropertyOp34
 70
     1
102
RTVSPropertyOp35
 70
     1
102
RTVSPropertyOp36
 70
     1
102
RTVSPropertyOp37
 70
     1
102
RTVSPropertyOp38
 70
     1
102
RTVSPropertyOp39
 70
     1
102
RTVSPropertyOp40
 70
     1
102
RTVSPropertyOp41
 70
     1
102
RTVSPropertyOp42
 70
     1
102
RTVSPropertyOp43
 70
     1
102
RTVSPropertyOp44
 70
     1
102
RTVSPropertyOp45
 70
     1
102
RTVSPropertyOp46
 70
     1
102
RTVSPropertyOp47
 70
     1
102
RTVSPropertyOp48
 70
     1
102
RTVSPropertyOp49
 70
     1
102
RTVSPropertyOp50
 70
     1
102
RTVSPropertyOp51
 70
     0
102
RTVSPropertyOp52
 70
     0
102
RTVSPropertyOp53
 70
     1
102
RTVSPropertyOp54
 70
     1
102
RTVSPropertyOp55
 70
     1
102
RTVSPropertyOp56
 70
     1
102
RTVSPropertyOp57
 70
     1
102
RTVSPost2010Prop28
280
     0
102
RTVSPost2010PropOp28
 70
     1
102
RTVSPost2010Prop29
280
     1
102
RTVSPost2010PropOp29
 70
     1
102
RTVSPost2010Prop30
280
     1
102
RTVSPost2010PropOp30
 70
     1
102
RTVSPost2010Prop31
280
     0
102
RTVSPost2010PropOp31
 70
     1
102
RTVSPost2010Prop32
280
     0
102
RTVSPost2010PropOp32
 70
     1
102
RTVSPost2010Prop33
280
     0
102
RTVSPost2010PropOp33
 70
     1
102
RTVSPost2010Prop34
280
     0
102
RTVSPost2010PropOp34
 70
     1
102
RTVSPost2010Prop35
280
     0
102
RTVSPost2010PropOp35
 70
     1
102
RTVSPost2010Prop36
280
     0
102
RTVSPost2010PropOp36
 70
     1
102
RTVSPost2010Prop37
 90
       50
102
RTVSPost2010PropOp37
 70
     1
102
RTVSPost2010Prop38
140
0.0
102
RTVSPost2010PropOp38
 70
     1
102
RTVSPost2010Prop39
140
1.0
102
RTVSPost2010PropOp39
 70
     1
102
RTVSPost2010Prop40
 90
        0
102
RTVSPost2010PropOp40
 70
     1
102
RTVSPost2010Prop41ColorIndex
 90
       18
102
RTVSPost2010Prop41ColorRGB
 90
        0
102
RTVSPost2010PropOp41
 70
     1
102
RTVSPost2010Prop42
 90
       50
102
RTVSPost2010PropOp42
 70
     1
102
RTVSPost2010Prop43
 90
        3
102
RTVSPost2010PropOp43
 70
     1
102
RTVSPost2010Prop44ColorIndex
 90
        5
102
RTVSPost2010Prop44ColorRGB
 90
      255
102
RTVSPost2010PropOp44
 70
     1
102
RTVSPost2010Prop45
280
     0
102
RTVSPost2010PropOp45
 70
     1
102
RTVSPost2010Prop46
 90
       50
102
RTVSPost2010PropOp46
 70
     1
102
RTVSPost2010Prop47
 90
       50
102
RTVSPost2010PropOp47
 70
     1
102
RTVSPost2010Prop48
 90
       50
102
RTVSPost2010PropOp48
 70
     1
102
RTVSPost2010Prop49
280
     0
102
RTVSPost2010PropOp49
 70
     1
102
RTVSPost2010Prop50
 90
       50
102
RTVSPost2010PropOp50
 70
     1
102
RTVSPost2010Prop51ColorIndex
 90
      256
102
RTVSPost2010Prop51ColorRGB
 90
-16777216
102
RTVSPost2010PropOp51
 70
     0
102
RTVSPost2010Prop52
140
1.0
102
RTVSPost2010PropOp52
 70
     0
102
RTVSPost2010Prop53
 90
        2
102
RTVSPost2010PropOp53
 70
     1
102
RTVSPost2010Prop54
  1
strokes_ogs.tif
102
RTVSPost2010PropOp54
 70
     1
102
RTVSPost2010Prop55
280
     0
102
RTVSPost2010PropOp55
 70
     1
102
RTVSPost2010Prop56
140
1.0
102
RTVSPost2010PropOp56
 70
     1
102
RTVSPost2010Prop57
140
1.0
102
RTVSPost2010PropOp57
 70
     1
  0
XRECORD
  5
6CB
102
{ACAD_REACTORS
330
6CA
102
}
330
6CA
100
AcDbXrecord
280
     1
102
RTVSPropertyOp0
 70
     1
102
RTVSPropertyOp1
 70
     1
102
RTVSPropertyOp2
 70
     1
102
RTVSPropertyOp3
 70
     1
102
RTVSPropertyOp4
 70
     1
102
RTVSPropertyOp5
 70
     1
102
RTVSPropertyOp6
 70
     1
102
RTVSPropertyOp7
 70
     1
102
RTVSPropertyOp8
 70
     1
102
RTVSPropertyOp9
 70
     1
102
RTVSPropertyOp10
 70
     1
102
RTVSPropertyOp11
 70
     1
102
RTVSPropertyOp12
 70
     1
102
RTVSPropertyOp13
 70
     1
102
RTVSPropertyOp14
 70
     1
102
RTVSPropertyOp15
 70
     1
102
RTVSPropertyOp16
 70
     1
102
RTVSPropertyOp17
 70
     1
102
RTVSPropertyOp18
 70
     1
102
RTVSPropertyOp19
 70
     1
102
RTVSPropertyOp20
 70
     1
102
RTVSPropertyOp21
 70
     1
102
RTVSPropertyOp22
 70
     1
102
RTVSPropertyOp23
 70
     1
102
RTVSPropertyOp24
 70
     1
102
RTVSPropertyOp25
 70
     1
102
RTVSPropertyOp26
 70
     1
102
RTVSPropertyOp27
 70
     1
102
RTVSPropertyOp28
 70
     1
102
RTVSPropertyOp29
 70
     1
102
RTVSPropertyOp30
 70
     1
102
RTVSPropertyOp31
 70
     1
102
RTVSPropertyOp32
 70
     1
102
RTVSPropertyOp33
 70
     1
102
RTVSPropertyOp34
 70
     1
102
RTVSPropertyOp35
 70
     1
102
RTVSPropertyOp36
 70
     1
102
RTVSPropertyOp37
 70
     1
102
RTVSPropertyOp38
 70
     1
102
RTVSPropertyOp39
 70
     1
102
RTVSPropertyOp40
 70
     1
102
RTVSPropertyOp41
 70
     1
102
RTVSPropertyOp42
 70
     1
102
RTVSPropertyOp43
 70
     1
102
RTVSPropertyOp44
 70
     1
102
RTVSPropertyOp45
 70
     1
102
RTVSPropertyOp46
 70
     1
102
RTVSPropertyOp47
 70
     1
102
RTVSPropertyOp48
 70
     1
102
RTVSPropertyOp49
 70
     1
102
RTVSPropertyOp50
 70
     1
102
RTVSPropertyOp51
 70
     0
102
RTVSPropertyOp52
 70
     0
102
RTVSPropertyOp53
 70
     1
102
RTVSPropertyOp54
 70
     1
102
RTVSPropertyOp55
 70
     1
102
RTVSPropertyOp56
 70
     1
102
RTVSPropertyOp57
 70
     1
102
RTVSPost2010Prop28
280
     0
102
RTVSPost2010PropOp28
 70
     1
102
RTVSPost2010Prop29
280
     1
102
RTVSPost2010PropOp29
 70
     1
102
RTVSPost2010Prop30
280
     1
102
RTVSPost2010PropOp30
 70
     1
102
RTVSPost2010Prop31
280
     0
102
RTVSPost2010PropOp31
 70
     1
102
RTVSPost2010Prop32
280
     0
102
RTVSPost2010PropOp32
 70
     1
102
RTVSPost2010Prop33
280
     0
102
RTVSPost2010PropOp33
 70
     1
102
RTVSPost2010Prop34
280
     0
102
RTVSPost2010PropOp34
 70
     1
102
RTVSPost2010Prop35
280
     0
102
RTVSPost2010PropOp35
 70
     1
102
RTVSPost2010Prop36
280
     0
102
RTVSPost2010PropOp36
 70
     1
102
RTVSPost2010Prop37
 90
       50
102
RTVSPost2010PropOp37
 70
     1
102
RTVSPost2010Prop38
140
0.0
102
RTVSPost2010PropOp38
 70
     1
102
RTVSPost2010Prop39
140
1.0
102
RTVSPost2010PropOp39
 70
     1
102
RTVSPost2010Prop40
 90
        0
102
RTVSPost2010PropOp40
 70
     1
102
RTVSPost2010Prop41ColorIndex
 90
       18
102
RTVSPost2010Prop41ColorRGB
 90
        0
102
RTVSPost2010PropOp41
 70
     1
102
RTVSPost2010Prop42
 90
       50
102
RTVSPost2010PropOp42
 70
     1
102
RTVSPost2010Prop43
 90
        3
102
RTVSPost2010PropOp43
 70
     1
102
RTVSPost2010Prop44ColorIndex
 90
        5
102
RTVSPost2010Prop44ColorRGB
 90
      255
102
RTVSPost2010PropOp44
 70
     1
102
RTVSPost2010Prop45
280
     0
102
RTVSPost2010PropOp45
 70
     1
102
RTVSPost2010Prop46
 90
       50
102
RTVSPost2010PropOp46
 70
     1
102
RTVSPost2010Prop47
 90
       50
102
RTVSPost2010PropOp47
 70
     1
102
RTVSPost2010Prop48
 90
       50
102
RTVSPost2010PropOp48
 70
     1
102
RTVSPost2010Prop49
280
     0
102
RTVSPost2010PropOp49
 70
     1
102
RTVSPost2010Prop50
 90
       50
102
RTVSPost2010PropOp50
 70
     1
102
RTVSPost2010Prop51ColorIndex
 90
      256
102
RTVSPost2010Prop51ColorRGB
 90
-16777216
102
RTVSPost2010PropOp51
 70
     0
102
RTVSPost2010Prop52
140
1.0
102
RTVSPost2010PropOp52
 70
     0
102
RTVSPost2010Prop53
 90
        2
102
RTVSPost2010PropOp53
 70
     1
102
RTVSPost2010Prop54
  1
strokes_ogs.tif
102
RTVSPost2010PropOp54
 70
     1
102
RTVSPost2010Prop55
280
     0
102
RTVSPost2010PropOp55
 70
     1
102
RTVSPost2010Prop56
140
1.0
102
RTVSPost2010PropOp56
 70
     1
102
RTVSPost2010Prop57
140
1.0
102
RTVSPost2010PropOp57
 70
     1
  0
XRECORD
  5
6CD
102
{ACAD_REACTORS
330
6CC
102
}
330
6CC
100
AcDbXrecord
280
     1
102
RTVSPropertyOp0
 70
     1
102
RTVSPropertyOp1
 70
     1
102
RTVSPropertyOp2
 70
     1
102
RTVSPropertyOp3
 70
     1
102
RTVSPropertyOp4
 70
     1
102
RTVSPropertyOp5
 70
     1
102
RTVSPropertyOp6
 70
     1
102
RTVSPropertyOp7
 70
     1
102
RTVSPropertyOp8
 70
     1
102
RTVSPropertyOp9
 70
     1
102
RTVSPropertyOp10
 70
     1
102
RTVSPropertyOp11
 70
     1
102
RTVSPropertyOp12
 70
     1
102
RTVSPropertyOp13
 70
     1
102
RTVSPropertyOp14
 70
     1
102
RTVSPropertyOp15
 70
     1
102
RTVSPropertyOp16
 70
     1
102
RTVSPropertyOp17
 70
     1
102
RTVSPropertyOp18
 70
     1
102
RTVSPropertyOp19
 70
     1
102
RTVSPropertyOp20
 70
     1
102
RTVSPropertyOp21
 70
     1
102
RTVSPropertyOp22
 70
     1
102
RTVSPropertyOp23
 70
     1
102
RTVSPropertyOp24
 70
     1
102
RTVSPropertyOp25
 70
     1
102
RTVSPropertyOp26
 70
     1
102
RTVSPropertyOp27
 70
     1
102
RTVSPropertyOp28
 70
     1
102
RTVSPropertyOp29
 70
     1
102
RTVSPropertyOp30
 70
     1
102
RTVSPropertyOp31
 70
     1
102
RTVSPropertyOp32
 70
     1
102
RTVSPropertyOp33
 70
     1
102
RTVSPropertyOp34
 70
     1
102
RTVSPropertyOp35
 70
     1
102
RTVSPropertyOp36
 70
     1
102
RTVSPropertyOp37
 70
     1
102
RTVSPropertyOp38
 70
     1
102
RTVSPropertyOp39
 70
     1
102
RTVSPropertyOp40
 70
     1
102
RTVSPropertyOp41
 70
     1
102
RTVSPropertyOp42
 70
     1
102
RTVSPropertyOp43
 70
     1
102
RTVSPropertyOp44
 70
     1
102
RTVSPropertyOp45
 70
     1
102
RTVSPropertyOp46
 70
     1
102
RTVSPropertyOp47
 70
     1
102
RTVSPropertyOp48
 70
     1
102
RTVSPropertyOp49
 70
     1
102
RTVSPropertyOp50
 70
     1
102
RTVSPropertyOp51
 70
     0
102
RTVSPropertyOp52
 70
     0
102
RTVSPropertyOp53
 70
     1
102
RTVSPropertyOp54
 70
     1
102
RTVSPropertyOp55
 70
     1
102
RTVSPropertyOp56
 70
     1
102
RTVSPropertyOp57
 70
     1
102
RTVSPost2010Prop28
280
     0
102
RTVSPost2010PropOp28
 70
     1
102
RTVSPost2010Prop29
280
     1
102
RTVSPost2010PropOp29
 70
     1
102
RTVSPost2010Prop30
280
     1
102
RTVSPost2010PropOp30
 70
     1
102
RTVSPost2010Prop31
280
     0
102
RTVSPost2010PropOp31
 70
     1
102
RTVSPost2010Prop32
280
     0
102
RTVSPost2010PropOp32
 70
     1
102
RTVSPost2010Prop33
280
     0
102
RTVSPost2010PropOp33
 70
     1
102
RTVSPost2010Prop34
280
     0
102
RTVSPost2010PropOp34
 70
     1
102
RTVSPost2010Prop35
280
     0
102
RTVSPost2010PropOp35
 70
     1
102
RTVSPost2010Prop36
280
     0
102
RTVSPost2010PropOp36
 70
     1
102
RTVSPost2010Prop37
 90
       50
102
RTVSPost2010PropOp37
 70
     1
102
RTVSPost2010Prop38
140
0.0
102
RTVSPost2010PropOp38
 70
     1
102
RTVSPost2010Prop39
140
1.0
102
RTVSPost2010PropOp39
 70
     1
102
RTVSPost2010Prop40
 90
        0
102
RTVSPost2010PropOp40
 70
     1
102
RTVSPost2010Prop41ColorIndex
 90
       18
102
RTVSPost2010Prop41ColorRGB
 90
        0
102
RTVSPost2010PropOp41
 70
     1
102
RTVSPost2010Prop42
 90
       50
102
RTVSPost2010PropOp42
 70
     1
102
RTVSPost2010Prop43
 90
        3
102
RTVSPost2010PropOp43
 70
     1
102
RTVSPost2010Prop44ColorIndex
 90
        5
102
RTVSPost2010Prop44ColorRGB
 90
      255
102
RTVSPost2010PropOp44
 70
     1
102
RTVSPost2010Prop45
280
     0
102
RTVSPost2010PropOp45
 70
     1
102
RTVSPost2010Prop46
 90
       50
102
RTVSPost2010PropOp46
 70
     1
102
RTVSPost2010Prop47
 90
       50
102
RTVSPost2010PropOp47
 70
     1
102
RTVSPost2010Prop48
 90
       50
102
RTVSPost2010PropOp48
 70
     1
102
RTVSPost2010Prop49
280
     0
102
RTVSPost2010PropOp49
 70
     1
102
RTVSPost2010Prop50
 90
       50
102
RTVSPost2010PropOp50
 70
     1
102
RTVSPost2010Prop51ColorIndex
 90
      256
102
RTVSPost2010Prop51ColorRGB
 90
-16777216
102
RTVSPost2010PropOp51
 70
     0
102
RTVSPost2010Prop52
140
1.0
102
RTVSPost2010PropOp52
 70
     0
102
RTVSPost2010Prop53
 90
        2
102
RTVSPost2010PropOp53
 70
     1
102
RTVSPost2010Prop54
  1
strokes_ogs.tif
102
RTVSPost2010PropOp54
 70
     1
102
RTVSPost2010Prop55
280
     0
102
RTVSPost2010PropOp55
 70
     1
102
RTVSPost2010Prop56
140
1.0
102
RTVSPost2010PropOp56
 70
     1
102
RTVSPost2010Prop57
140
1.0
102
RTVSPost2010PropOp57
 70
     1
  0
XRECORD
  5
6CF
102
{ACAD_REACTORS
330
6CE
102
}
330
6CE
100
AcDbXrecord
280
     1
102
RTVSPropertyOp0
 70
     1
102
RTVSPropertyOp1
 70
     1
102
RTVSPropertyOp2
 70
     1
102
RTVSPropertyOp3
 70
     1
102
RTVSPropertyOp4
 70
     1
102
RTVSPropertyOp5
 70
     1
102
RTVSPropertyOp6
 70
     1
102
RTVSPropertyOp7
 70
     1
102
RTVSPropertyOp8
 70
     1
102
RTVSPropertyOp9
 70
     1
102
RTVSPropertyOp10
 70
     1
102
RTVSPropertyOp11
 70
     1
102
RTVSPropertyOp12
 70
     1
102
RTVSPropertyOp13
 70
     1
102
RTVSPropertyOp14
 70
     1
102
RTVSPropertyOp15
 70
     1
102
RTVSPropertyOp16
 70
     1
102
RTVSPropertyOp17
 70
     1
102
RTVSPropertyOp18
 70
     1
102
RTVSPropertyOp19
 70
     1
102
RTVSPropertyOp20
 70
     1
102
RTVSPropertyOp21
 70
     1
102
RTVSPropertyOp22
 70
     1
102
RTVSPropertyOp23
 70
     1
102
RTVSPropertyOp24
 70
     1
102
RTVSPropertyOp25
 70
     1
102
RTVSPropertyOp26
 70
     1
102
RTVSPropertyOp27
 70
     1
102
RTVSPropertyOp28
 70
     1
102
RTVSPropertyOp29
 70
     1
102
RTVSPropertyOp30
 70
     1
102
RTVSPropertyOp31
 70
     1
102
RTVSPropertyOp32
 70
     1
102
RTVSPropertyOp33
 70
     1
102
RTVSPropertyOp34
 70
     1
102
RTVSPropertyOp35
 70
     1
102
RTVSPropertyOp36
 70
     1
102
RTVSPropertyOp37
 70
     1
102
RTVSPropertyOp38
 70
     1
102
RTVSPropertyOp39
 70
     1
102
RTVSPropertyOp40
 70
     1
102
RTVSPropertyOp41
 70
     1
102
RTVSPropertyOp42
 70
     1
102
RTVSPropertyOp43
 70
     1
102
RTVSPropertyOp44
 70
     1
102
RTVSPropertyOp45
 70
     1
102
RTVSPropertyOp46
 70
     1
102
RTVSPropertyOp47
 70
     1
102
RTVSPropertyOp48
 70
     1
102
RTVSPropertyOp49
 70
     1
102
RTVSPropertyOp50
 70
     1
102
RTVSPropertyOp51
 70
     0
102
RTVSPropertyOp52
 70
     0
102
RTVSPropertyOp53
 70
     1
102
RTVSPropertyOp54
 70
     1
102
RTVSPropertyOp55
 70
     1
102
RTVSPropertyOp56
 70
     1
102
RTVSPropertyOp57
 70
     1
102
RTVSPost2010Prop28
280
     0
102
RTVSPost2010PropOp28
 70
     1
102
RTVSPost2010Prop29
280
     1
102
RTVSPost2010PropOp29
 70
     1
102
RTVSPost2010Prop30
280
     1
102
RTVSPost2010PropOp30
 70
     1
102
RTVSPost2010Prop31
280
     0
102
RTVSPost2010PropOp31
 70
     1
102
RTVSPost2010Prop32
280
     0
102
RTVSPost2010PropOp32
 70
     1
102
RTVSPost2010Prop33
280
     0
102
RTVSPost2010PropOp33
 70
     1
102
RTVSPost2010Prop34
280
     0
102
RTVSPost2010PropOp34
 70
     1
102
RTVSPost2010Prop35
280
     0
102
RTVSPost2010PropOp35
 70
     1
102
RTVSPost2010Prop36
280
     0
102
RTVSPost2010PropOp36
 70
     1
102
RTVSPost2010Prop37
 90
       50
102
RTVSPost2010PropOp37
 70
     1
102
RTVSPost2010Prop38
140
0.0
102
RTVSPost2010PropOp38
 70
     1
102
RTVSPost2010Prop39
140
1.0
102
RTVSPost2010PropOp39
 70
     1
102
RTVSPost2010Prop40
 90
        0
102
RTVSPost2010PropOp40
 70
     1
102
RTVSPost2010Prop41ColorIndex
 90
       18
102
RTVSPost2010Prop41ColorRGB
 90
        0
102
RTVSPost2010PropOp41
 70
     1
102
RTVSPost2010Prop42
 90
       50
102
RTVSPost2010PropOp42
 70
     1
102
RTVSPost2010Prop43
 90
        3
102
RTVSPost2010PropOp43
 70
     1
102
RTVSPost2010Prop44ColorIndex
 90
        5
102
RTVSPost2010Prop44ColorRGB
 90
      255
102
RTVSPost2010PropOp44
 70
     1
102
RTVSPost2010Prop45
280
     0
102
RTVSPost2010PropOp45
 70
     1
102
RTVSPost2010Prop46
 90
       50
102
RTVSPost2010PropOp46
 70
     1
102
RTVSPost2010Prop47
 90
       50
102
RTVSPost2010PropOp47
 70
     1
102
RTVSPost2010Prop48
 90
       50
102
RTVSPost2010PropOp48
 70
     1
102
RTVSPost2010Prop49
280
     0
102
RTVSPost2010PropOp49
 70
     1
102
RTVSPost2010Prop50
 90
       50
102
RTVSPost2010PropOp50
 70
     1
102
RTVSPost2010Prop51ColorIndex
 90
      256
102
RTVSPost2010Prop51ColorRGB
 90
-16777216
102
RTVSPost2010PropOp51
 70
     0
102
RTVSPost2010Prop52
140
1.0
102
RTVSPost2010PropOp52
 70
     0
102
RTVSPost2010Prop53
 90
        2
102
RTVSPost2010PropOp53
 70
     1
102
RTVSPost2010Prop54
  1
strokes_ogs.tif
102
RTVSPost2010PropOp54
 70
     1
102
RTVSPost2010Prop55
280
     0
102
RTVSPost2010PropOp55
 70
     1
102
RTVSPost2010Prop56
140
1.0
102
RTVSPost2010PropOp56
 70
     1
102
RTVSPost2010Prop57
140
1.0
102
RTVSPost2010PropOp57
 70
     1
  0
XRECORD
  5
6D1
102
{ACAD_REACTORS
330
6D0
102
}
330
6D0
100
AcDbXrecord
280
     1
102
RTVSPropertyOp0
 70
     1
102
RTVSPropertyOp1
 70
     1
102
RTVSPropertyOp2
 70
     1
102
RTVSPropertyOp3
 70
     1
102
RTVSPropertyOp4
 70
     1
102
RTVSPropertyOp5
 70
     1
102
RTVSPropertyOp6
 70
     1
102
RTVSPropertyOp7
 70
     1
102
RTVSPropertyOp8
 70
     1
102
RTVSPropertyOp9
 70
     1
102
RTVSPropertyOp10
 70
     1
102
RTVSPropertyOp11
 70
     1
102
RTVSPropertyOp12
 70
     1
102
RTVSPropertyOp13
 70
     1
102
RTVSPropertyOp14
 70
     1
102
RTVSPropertyOp15
 70
     1
102
RTVSPropertyOp16
 70
     1
102
RTVSPropertyOp17
 70
     1
102
RTVSPropertyOp18
 70
     1
102
RTVSPropertyOp19
 70
     1
102
RTVSPropertyOp20
 70
     1
102
RTVSPropertyOp21
 70
     1
102
RTVSPropertyOp22
 70
     1
102
RTVSPropertyOp23
 70
     1
102
RTVSPropertyOp24
 70
     1
102
RTVSPropertyOp25
 70
     1
102
RTVSPropertyOp26
 70
     1
102
RTVSPropertyOp27
 70
     1
102
RTVSPropertyOp28
 70
     1
102
RTVSPropertyOp29
 70
     1
102
RTVSPropertyOp30
 70
     1
102
RTVSPropertyOp31
 70
     1
102
RTVSPropertyOp32
 70
     1
102
RTVSPropertyOp33
 70
     1
102
RTVSPropertyOp34
 70
     1
102
RTVSPropertyOp35
 70
     1
102
RTVSPropertyOp36
 70
     1
102
RTVSPropertyOp37
 70
     1
102
RTVSPropertyOp38
 70
     1
102
RTVSPropertyOp39
 70
     1
102
RTVSPropertyOp40
 70
     1
102
RTVSPropertyOp41
 70
     1
102
RTVSPropertyOp42
 70
     1
102
RTVSPropertyOp43
 70
     1
102
RTVSPropertyOp44
 70
     1
102
RTVSPropertyOp45
 70
     1
102
RTVSPropertyOp46
 70
     1
102
RTVSPropertyOp47
 70
     1
102
RTVSPropertyOp48
 70
     1
102
RTVSPropertyOp49
 70
     1
102
RTVSPropertyOp50
 70
     1
102
RTVSPropertyOp51
 70
     0
102
RTVSPropertyOp52
 70
     0
102
RTVSPropertyOp53
 70
     1
102
RTVSPropertyOp54
 70
     1
102
RTVSPropertyOp55
 70
     1
102
RTVSPropertyOp56
 70
     1
102
RTVSPropertyOp57
 70
     1
102
RTVSPost2010Prop28
280
     0
102
RTVSPost2010PropOp28
 70
     1
102
RTVSPost2010Prop29
280
     1
102
RTVSPost2010PropOp29
 70
     1
102
RTVSPost2010Prop30
280
     1
102
RTVSPost2010PropOp30
 70
     1
102
RTVSPost2010Prop31
280
     0
102
RTVSPost2010PropOp31
 70
     1
102
RTVSPost2010Prop32
280
     0
102
RTVSPost2010PropOp32
 70
     1
102
RTVSPost2010Prop33
280
     0
102
RTVSPost2010PropOp33
 70
     1
102
RTVSPost2010Prop34
280
     0
102
RTVSPost2010PropOp34
 70
     1
102
RTVSPost2010Prop35
280
     0
102
RTVSPost2010PropOp35
 70
     1
102
RTVSPost2010Prop36
280
     0
102
RTVSPost2010PropOp36
 70
     1
102
RTVSPost2010Prop37
 90
       50
102
RTVSPost2010PropOp37
 70
     1
102
RTVSPost2010Prop38
140
0.0
102
RTVSPost2010PropOp38
 70
     1
102
RTVSPost2010Prop39
140
1.0
102
RTVSPost2010PropOp39
 70
     1
102
RTVSPost2010Prop40
 90
        0
102
RTVSPost2010PropOp40
 70
     1
102
RTVSPost2010Prop41ColorIndex
 90
       18
102
RTVSPost2010Prop41ColorRGB
 90
        0
102
RTVSPost2010PropOp41
 70
     1
102
RTVSPost2010Prop42
 90
       50
102
RTVSPost2010PropOp42
 70
     1
102
RTVSPost2010Prop43
 90
        3
102
RTVSPost2010PropOp43
 70
     1
102
RTVSPost2010Prop44ColorIndex
 90
        5
102
RTVSPost2010Prop44ColorRGB
 90
      255
102
RTVSPost2010PropOp44
 70
     1
102
RTVSPost2010Prop45
280
     0
102
RTVSPost2010PropOp45
 70
     1
102
RTVSPost2010Prop46
 90
       50
102
RTVSPost2010PropOp46
 70
     1
102
RTVSPost2010Prop47
 90
       50
102
RTVSPost2010PropOp47
 70
     1
102
RTVSPost2010Prop48
 90
       50
102
RTVSPost2010PropOp48
 70
     1
102
RTVSPost2010Prop49
280
     0
102
RTVSPost2010PropOp49
 70
     1
102
RTVSPost2010Prop50
 90
       50
102
RTVSPost2010PropOp50
 70
     1
102
RTVSPost2010Prop51ColorIndex
 90
      256
102
RTVSPost2010Prop51ColorRGB
 90
-16777216
102
RTVSPost2010PropOp51
 70
     0
102
RTVSPost2010Prop52
140
1.0
102
RTVSPost2010PropOp52
 70
     0
102
RTVSPost2010Prop53
 90
        2
102
RTVSPost2010PropOp53
 70
     1
102
RTVSPost2010Prop54
  1
strokes_ogs.tif
102
RTVSPost2010PropOp54
 70
     1
102
RTVSPost2010Prop55
280
     0
102
RTVSPost2010PropOp55
 70
     1
102
RTVSPost2010Prop56
140
1.0
102
RTVSPost2010PropOp56
 70
     1
102
RTVSPost2010Prop57
140
1.0
102
RTVSPost2010PropOp57
 70
     1
  0
XRECORD
  5
6D3
102
{ACAD_REACTORS
330
6D2
102
}
330
6D2
100
AcDbXrecord
280
     1
102
RTVSPropertyOp0
 70
     0
102
RTVSPropertyOp1
 70
     0
102
RTVSPropertyOp2
 70
     0
102
RTVSPropertyOp3
 70
     0
102
RTVSPropertyOp4
 70
     0
102
RTVSPropertyOp5
 70
     0
102
RTVSPropertyOp6
 70
     0
102
RTVSPropertyOp7
 70
     0
102
RTVSPropertyOp8
 70
     0
102
RTVSPropertyOp9
 70
     0
102
RTVSPropertyOp10
 70
     0
102
RTVSPropertyOp11
 70
     0
102
RTVSPropertyOp12
 70
     0
102
RTVSPropertyOp13
 70
     0
102
RTVSPropertyOp14
 70
     2
102
RTVSPropertyOp15
 70
     0
102
RTVSPropertyOp16
 70
     0
102
RTVSPropertyOp17
 70
     0
102
RTVSPropertyOp18
 70
     0
102
RTVSPropertyOp19
 70
     0
102
RTVSPropertyOp20
 70
     0
102
RTVSPropertyOp21
 70
     0
102
RTVSPropertyOp22
 70
     0
102
RTVSPropertyOp23
 70
     0
102
RTVSPropertyOp24
 70
     0
102
RTVSPropertyOp25
 70
     0
102
RTVSPropertyOp26
 70
     0
102
RTVSPropertyOp27
 70
     0
102
RTVSPropertyOp28
 70
     1
102
RTVSPropertyOp29
 70
     1
102
RTVSPropertyOp30
 70
     1
102
RTVSPropertyOp31
 70
     1
102
RTVSPropertyOp32
 70
     1
102
RTVSPropertyOp33
 70
     1
102
RTVSPropertyOp34
 70
     1
102
RTVSPropertyOp35
 70
     1
102
RTVSPropertyOp36
 70
     1
102
RTVSPropertyOp37
 70
     0
102
RTVSPropertyOp38
 70
     0
102
RTVSPropertyOp39
 70
     0
102
RTVSPropertyOp40
 70
     0
102
RTVSPropertyOp41
 70
     0
102
RTVSPropertyOp42
 70
     0
102
RTVSPropertyOp43
 70
     0
102
RTVSPropertyOp44
 70
     0
102
RTVSPropertyOp45
 70
     1
102
RTVSPropertyOp46
 70
     0
102
RTVSPropertyOp47
 70
     0
102
RTVSPropertyOp48
 70
     0
102
RTVSPropertyOp49
 70
     1
102
RTVSPropertyOp50
 70
     0
102
RTVSPropertyOp51
 70
     0
102
RTVSPropertyOp52
 70
     0
102
RTVSPropertyOp53
 70
     0
102
RTVSPropertyOp54
 70
     0
102
RTVSPropertyOp55
 70
     1
102
RTVSPropertyOp56
 70
     0
102
RTVSPropertyOp57
 70
     0
102
RTVSPost2010Prop28
280
     0
102
RTVSPost2010PropOp28
 70
     1
102
RTVSPost2010Prop29
280
     1
102
RTVSPost2010PropOp29
 70
     1
102
RTVSPost2010Prop30
280
     1
102
RTVSPost2010PropOp30
 70
     1
102
RTVSPost2010Prop31
280
     0
102
RTVSPost2010PropOp31
 70
     1
102
RTVSPost2010Prop32
280
     0
102
RTVSPost2010PropOp32
 70
     1
102
RTVSPost2010Prop33
280
     0
102
RTVSPost2010PropOp33
 70
     1
102
RTVSPost2010Prop34
280
     0
102
RTVSPost2010PropOp34
 70
     1
102
RTVSPost2010Prop35
280
     0
102
RTVSPost2010PropOp35
 70
     1
102
RTVSPost2010Prop36
280
     0
102
RTVSPost2010PropOp36
 70
     1
102
RTVSPost2010Prop37
 90
       50
102
RTVSPost2010PropOp37
 70
     0
102
RTVSPost2010Prop38
140
0.0
102
RTVSPost2010PropOp38
 70
     0
102
RTVSPost2010Prop39
140
1.0
102
RTVSPost2010PropOp39
 70
     0
102
RTVSPost2010Prop40
 90
        0
102
RTVSPost2010PropOp40
 70
     0
102
RTVSPost2010Prop41ColorIndex
 90
       18
102
RTVSPost2010Prop41ColorRGB
 90
        0
102
RTVSPost2010PropOp41
 70
     0
102
RTVSPost2010Prop42
 90
       50
102
RTVSPost2010PropOp42
 70
     0
102
RTVSPost2010Prop43
 90
        3
102
RTVSPost2010PropOp43
 70
     0
102
RTVSPost2010Prop44ColorIndex
 90
        5
102
RTVSPost2010Prop44ColorRGB
 90
      255
102
RTVSPost2010PropOp44
 70
     0
102
RTVSPost2010Prop45
280
     0
102
RTVSPost2010PropOp45
 70
     1
102
RTVSPost2010Prop46
 90
       50
102
RTVSPost2010PropOp46
 70
     0
102
RTVSPost2010Prop47
 90
       50
102
RTVSPost2010PropOp47
 70
     0
102
RTVSPost2010Prop48
 90
       50
102
RTVSPost2010PropOp48
 70
     0
102
RTVSPost2010Prop49
280
     0
102
RTVSPost2010PropOp49
 70
     1
102
RTVSPost2010Prop50
 90
       50
102
RTVSPost2010PropOp50
 70
     0
102
RTVSPost2010Prop51ColorIndex
 90
      256
102
RTVSPost2010Prop51ColorRGB
 90
-16777216
102
RTVSPost2010PropOp51
 70
     0
102
RTVSPost2010Prop52
140
1.0
102
RTVSPost2010PropOp52
 70
     0
102
RTVSPost2010Prop53
 90
        2
102
RTVSPost2010PropOp53
 70
     0
102
RTVSPost2010Prop54
  1
strokes_ogs.tif
102
RTVSPost2010PropOp54
 70
     0
102
RTVSPost2010Prop55
280
     0
102
RTVSPost2010PropOp55
 70
     1
102
RTVSPost2010Prop56
140
1.0
102
RTVSPost2010PropOp56
 70
     0
102
RTVSPost2010Prop57
140
1.0
102
RTVSPost2010PropOp57
 70
     0
  0
XRECORD
  5
6D5
102
{ACAD_REACTORS
330
6D4
102
}
330
6D4
100
AcDbXrecord
280
     1
102
RTVSPropertyOp0
 70
     1
102
RTVSPropertyOp1
 70
     1
102
RTVSPropertyOp2
 70
     1
102
RTVSPropertyOp3
 70
     1
102
RTVSPropertyOp4
 70
     1
102
RTVSPropertyOp5
 70
     1
102
RTVSPropertyOp6
 70
     1
102
RTVSPropertyOp7
 70
     1
102
RTVSPropertyOp8
 70
     1
102
RTVSPropertyOp9
 70
     1
102
RTVSPropertyOp10
 70
     1
102
RTVSPropertyOp11
 70
     1
102
RTVSPropertyOp12
 70
     1
102
RTVSPropertyOp13
 70
     1
102
RTVSPropertyOp14
 70
     1
102
RTVSPropertyOp15
 70
     1
102
RTVSPropertyOp16
 70
     1
102
RTVSPropertyOp17
 70
     1
102
RTVSPropertyOp18
 70
     1
102
RTVSPropertyOp19
 70
     1
102
RTVSPropertyOp20
 70
     1
102
RTVSPropertyOp21
 70
     1
102
RTVSPropertyOp22
 70
     1
102
RTVSPropertyOp23
 70
     1
102
RTVSPropertyOp24
 70
     1
102
RTVSPropertyOp25
 70
     1
102
RTVSPropertyOp26
 70
     1
102
RTVSPropertyOp27
 70
     1
102
RTVSPropertyOp28
 70
     1
102
RTVSPropertyOp29
 70
     1
102
RTVSPropertyOp30
 70
     1
102
RTVSPropertyOp31
 70
     1
102
RTVSPropertyOp32
 70
     1
102
RTVSPropertyOp33
 70
     1
102
RTVSPropertyOp34
 70
     1
102
RTVSPropertyOp35
 70
     1
102
RTVSPropertyOp36
 70
     1
102
RTVSPropertyOp37
 70
     1
102
RTVSPropertyOp38
 70
     1
102
RTVSPropertyOp39
 70
     1
102
RTVSPropertyOp40
 70
     1
102
RTVSPropertyOp41
 70
     1
102
RTVSPropertyOp42
 70
     1
102
RTVSPropertyOp43
 70
     1
102
RTVSPropertyOp44
 70
     1
102
RTVSPropertyOp45
 70
     1
102
RTVSPropertyOp46
 70
     1
102
RTVSPropertyOp47
 70
     1
102
RTVSPropertyOp48
 70
     1
102
RTVSPropertyOp49
 70
     1
102
RTVSPropertyOp50
 70
     1
102
RTVSPropertyOp51
 70
     0
102
RTVSPropertyOp52
 70
     0
102
RTVSPropertyOp53
 70
     1
102
RTVSPropertyOp54
 70
     1
102
RTVSPropertyOp55
 70
     1
102
RTVSPropertyOp56
 70
     1
102
RTVSPropertyOp57
 70
     1
102
RTVSPost2010Prop28
280
     0
102
RTVSPost2010PropOp28
 70
     1
102
RTVSPost2010Prop29
280
     1
102
RTVSPost2010PropOp29
 70
     1
102
RTVSPost2010Prop30
280
     1
102
RTVSPost2010PropOp30
 70
     1
102
RTVSPost2010Prop31
280
     0
102
RTVSPost2010PropOp31
 70
     1
102
RTVSPost2010Prop32
280
     0
102
RTVSPost2010PropOp32
 70
     1
102
RTVSPost2010Prop33
280
     0
102
RTVSPost2010PropOp33
 70
     1
102
RTVSPost2010Prop34
280
     0
102
RTVSPost2010PropOp34
 70
     1
102
RTVSPost2010Prop35
280
     0
102
RTVSPost2010PropOp35
 70
     1
102
RTVSPost2010Prop36
280
     0
102
RTVSPost2010PropOp36
 70
     1
102
RTVSPost2010Prop37
 90
       50
102
RTVSPost2010PropOp37
 70
     1
102
RTVSPost2010Prop38
140
0.0
102
RTVSPost2010PropOp38
 70
     1
102
RTVSPost2010Prop39
140
1.0
102
RTVSPost2010PropOp39
 70
     1
102
RTVSPost2010Prop40
 90
        0
102
RTVSPost2010PropOp40
 70
     1
102
RTVSPost2010Prop41ColorIndex
 90
       18
102
RTVSPost2010Prop41ColorRGB
 90
        0
102
RTVSPost2010PropOp41
 70
     1
102
RTVSPost2010Prop42
 90
       50
102
RTVSPost2010PropOp42
 70
     1
102
RTVSPost2010Prop43
 90
        3
102
RTVSPost2010PropOp43
 70
     1
102
RTVSPost2010Prop44ColorIndex
 90
        5
102
RTVSPost2010Prop44ColorRGB
 90
      255
102
RTVSPost2010PropOp44
 70
     1
102
RTVSPost2010Prop45
280
     0
102
RTVSPost2010PropOp45
 70
     1
102
RTVSPost2010Prop46
 90
       50
102
RTVSPost2010PropOp46
 70
     1
102
RTVSPost2010Prop47
 90
       50
102
RTVSPost2010PropOp47
 70
     1
102
RTVSPost2010Prop48
 90
       50
102
RTVSPost2010PropOp48
 70
     1
102
RTVSPost2010Prop49
280
     0
102
RTVSPost2010PropOp49
 70
     1
102
RTVSPost2010Prop50
 90
       50
102
RTVSPost2010PropOp50
 70
     1
102
RTVSPost2010Prop51ColorIndex
 90
      256
102
RTVSPost2010Prop51ColorRGB
 90
-16777216
102
RTVSPost2010PropOp51
 70
     0
102
RTVSPost2010Prop52
140
1.0
102
RTVSPost2010PropOp52
 70
     0
102
RTVSPost2010Prop53
 90
        2
102
RTVSPost2010PropOp53
 70
     1
102
RTVSPost2010Prop54
  1
strokes_ogs.tif
102
RTVSPost2010PropOp54
 70
     1
102
RTVSPost2010Prop55
280
     0
102
RTVSPost2010PropOp55
 70
     1
102
RTVSPost2010Prop56
140
1.0
102
RTVSPost2010PropOp56
 70
     1
102
RTVSPost2010Prop57
140
1.0
102
RTVSPost2010PropOp57
 70
     1
  0
XRECORD
  5
6D7
102
{ACAD_REACTORS
330
6D6
102
}
330
6D6
100
AcDbXrecord
280
     1
102
RTVSPropertyOp0
 70
     1
102
RTVSPropertyOp1
 70
     1
102
RTVSPropertyOp2
 70
     1
102
RTVSPropertyOp3
 70
     1
102
RTVSPropertyOp4
 70
     1
102
RTVSPropertyOp5
 70
     1
102
RTVSPropertyOp6
 70
     1
102
RTVSPropertyOp7
 70
     1
102
RTVSPropertyOp8
 70
     1
102
RTVSPropertyOp9
 70
     1
102
RTVSPropertyOp10
 70
     1
102
RTVSPropertyOp11
 70
     1
102
RTVSPropertyOp12
 70
     1
102
RTVSPropertyOp13
 70
     1
102
RTVSPropertyOp14
 70
     1
102
RTVSPropertyOp15
 70
     1
102
RTVSPropertyOp16
 70
     1
102
RTVSPropertyOp17
 70
     1
102
RTVSPropertyOp18
 70
     1
102
RTVSPropertyOp19
 70
     1
102
RTVSPropertyOp20
 70
     1
102
RTVSPropertyOp21
 70
     1
102
RTVSPropertyOp22
 70
     1
102
RTVSPropertyOp23
 70
     1
102
RTVSPropertyOp24
 70
     1
102
RTVSPropertyOp25
 70
     1
102
RTVSPropertyOp26
 70
     1
102
RTVSPropertyOp27
 70
     1
102
RTVSPropertyOp28
 70
     1
102
RTVSPropertyOp29
 70
     1
102
RTVSPropertyOp30
 70
     1
102
RTVSPropertyOp31
 70
     1
102
RTVSPropertyOp32
 70
     1
102
RTVSPropertyOp33
 70
     1
102
RTVSPropertyOp34
 70
     1
102
RTVSPropertyOp35
 70
     1
102
RTVSPropertyOp36
 70
     1
102
RTVSPropertyOp37
 70
     1
102
RTVSPropertyOp38
 70
     1
102
RTVSPropertyOp39
 70
     1
102
RTVSPropertyOp40
 70
     1
102
RTVSPropertyOp41
 70
     1
102
RTVSPropertyOp42
 70
     1
102
RTVSPropertyOp43
 70
     1
102
RTVSPropertyOp44
 70
     1
102
RTVSPropertyOp45
 70
     1
102
RTVSPropertyOp46
 70
     1
102
RTVSPropertyOp47
 70
     1
102
RTVSPropertyOp48
 70
     1
102
RTVSPropertyOp49
 70
     1
102
RTVSPropertyOp50
 70
     1
102
RTVSPropertyOp51
 70
     0
102
RTVSPropertyOp52
 70
     0
102
RTVSPropertyOp53
 70
     1
102
RTVSPropertyOp54
 70
     1
102
RTVSPropertyOp55
 70
     1
102
RTVSPropertyOp56
 70
     1
102
RTVSPropertyOp57
 70
     1
102
RTVSPost2010Prop28
280
     0
102
RTVSPost2010PropOp28
 70
     1
102
RTVSPost2010Prop29
280
     1
102
RTVSPost2010PropOp29
 70
     1
102
RTVSPost2010Prop30
280
     1
102
RTVSPost2010PropOp30
 70
     1
102
RTVSPost2010Prop31
280
     0
102
RTVSPost2010PropOp31
 70
     1
102
RTVSPost2010Prop32
280
     0
102
RTVSPost2010PropOp32
 70
     1
102
RTVSPost2010Prop33
280
     0
102
RTVSPost2010PropOp33
 70
     1
102
RTVSPost2010Prop34
280
     0
102
RTVSPost2010PropOp34
 70
     1
102
RTVSPost2010Prop35
280
     0
102
RTVSPost2010PropOp35
 70
     1
102
RTVSPost2010Prop36
280
     0
102
RTVSPost2010PropOp36
 70
     1
102
RTVSPost2010Prop37
 90
       50
102
RTVSPost2010PropOp37
 70
     1
102
RTVSPost2010Prop38
140
0.0
102
RTVSPost2010PropOp38
 70
     1
102
RTVSPost2010Prop39
140
1.0
102
RTVSPost2010PropOp39
 70
     1
102
RTVSPost2010Prop40
 90
        0
102
RTVSPost2010PropOp40
 70
     1
102
RTVSPost2010Prop41ColorIndex
 90
       18
102
RTVSPost2010Prop41ColorRGB
 90
        0
102
RTVSPost2010PropOp41
 70
     1
102
RTVSPost2010Prop42
 90
       50
102
RTVSPost2010PropOp42
 70
     1
102
RTVSPost2010Prop43
 90
        3
102
RTVSPost2010PropOp43
 70
     1
102
RTVSPost2010Prop44ColorIndex
 90
        5
102
RTVSPost2010Prop44ColorRGB
 90
      255
102
RTVSPost2010PropOp44
 70
     1
102
RTVSPost2010Prop45
280
     0
102
RTVSPost2010PropOp45
 70
     1
102
RTVSPost2010Prop46
 90
       50
102
RTVSPost2010PropOp46
 70
     1
102
RTVSPost2010Prop47
 90
       50
102
RTVSPost2010PropOp47
 70
     1
102
RTVSPost2010Prop48
 90
       50
102
RTVSPost2010PropOp48
 70
     1
102
RTVSPost2010Prop49
280
     0
102
RTVSPost2010PropOp49
 70
     1
102
RTVSPost2010Prop50
 90
       50
102
RTVSPost2010PropOp50
 70
     1
102
RTVSPost2010Prop51ColorIndex
 90
      256
102
RTVSPost2010Prop51ColorRGB
 90
-16777216
102
RTVSPost2010PropOp51
 70
     0
102
RTVSPost2010Prop52
140
1.0
102
RTVSPost2010PropOp52
 70
     0
102
RTVSPost2010Prop53
 90
        2
102
RTVSPost2010PropOp53
 70
     1
102
RTVSPost2010Prop54
  1
strokes_ogs.tif
102
RTVSPost2010PropOp54
 70
     1
102
RTVSPost2010Prop55
280
     0
102
RTVSPost2010PropOp55
 70
     1
102
RTVSPost2010Prop56
140
1.0
102
RTVSPost2010PropOp56
 70
     1
102
RTVSPost2010Prop57
140
1.0
102
RTVSPost2010PropOp57
 70
     1
  0
XRECORD
  5
6D9
102
{ACAD_REACTORS
330
6D8
102
}
330
6D8
100
AcDbXrecord
280
     1
102
RTVSPropertyOp0
 70
     1
102
RTVSPropertyOp1
 70
     1
102
RTVSPropertyOp2
 70
     1
102
RTVSPropertyOp3
 70
     1
102
RTVSPropertyOp4
 70
     1
102
RTVSPropertyOp5
 70
     1
102
RTVSPropertyOp6
 70
     1
102
RTVSPropertyOp7
 70
     1
102
RTVSPropertyOp8
 70
     1
102
RTVSPropertyOp9
 70
     1
102
RTVSPropertyOp10
 70
     1
102
RTVSPropertyOp11
 70
     1
102
RTVSPropertyOp12
 70
     1
102
RTVSPropertyOp13
 70
     1
102
RTVSPropertyOp14
 70
     1
102
RTVSPropertyOp15
 70
     1
102
RTVSPropertyOp16
 70
     1
102
RTVSPropertyOp17
 70
     1
102
RTVSPropertyOp18
 70
     1
102
RTVSPropertyOp19
 70
     1
102
RTVSPropertyOp20
 70
     1
102
RTVSPropertyOp21
 70
     1
102
RTVSPropertyOp22
 70
     1
102
RTVSPropertyOp23
 70
     1
102
RTVSPropertyOp24
 70
     1
102
RTVSPropertyOp25
 70
     1
102
RTVSPropertyOp26
 70
     1
102
RTVSPropertyOp27
 70
     1
102
RTVSPropertyOp28
 70
     1
102
RTVSPropertyOp29
 70
     1
102
RTVSPropertyOp30
 70
     1
102
RTVSPropertyOp31
 70
     1
102
RTVSPropertyOp32
 70
     1
102
RTVSPropertyOp33
 70
     1
102
RTVSPropertyOp34
 70
     1
102
RTVSPropertyOp35
 70
     1
102
RTVSPropertyOp36
 70
     1
102
RTVSPropertyOp37
 70
     1
102
RTVSPropertyOp38
 70
     1
102
RTVSPropertyOp39
 70
     1
102
RTVSPropertyOp40
 70
     1
102
RTVSPropertyOp41
 70
     1
102
RTVSPropertyOp42
 70
     1
102
RTVSPropertyOp43
 70
     1
102
RTVSPropertyOp44
 70
     1
102
RTVSPropertyOp45
 70
     1
102
RTVSPropertyOp46
 70
     1
102
RTVSPropertyOp47
 70
     1
102
RTVSPropertyOp48
 70
     1
102
RTVSPropertyOp49
 70
     1
102
RTVSPropertyOp50
 70
     1
102
RTVSPropertyOp51
 70
     0
102
RTVSPropertyOp52
 70
     0
102
RTVSPropertyOp53
 70
     1
102
RTVSPropertyOp54
 70
     1
102
RTVSPropertyOp55
 70
     1
102
RTVSPropertyOp56
 70
     1
102
RTVSPropertyOp57
 70
     1
102
RTVSPost2010Prop28
280
     0
102
RTVSPost2010PropOp28
 70
     1
102
RTVSPost2010Prop29
280
     1
102
RTVSPost2010PropOp29
 70
     1
102
RTVSPost2010Prop30
280
     1
102
RTVSPost2010PropOp30
 70
     1
102
RTVSPost2010Prop31
280
     0
102
RTVSPost2010PropOp31
 70
     1
102
RTVSPost2010Prop32
280
     0
102
RTVSPost2010PropOp32
 70
     1
102
RTVSPost2010Prop33
280
     0
102
RTVSPost2010PropOp33
 70
     1
102
RTVSPost2010Prop34
280
     0
102
RTVSPost2010PropOp34
 70
     1
102
RTVSPost2010Prop35
280
     0
102
RTVSPost2010PropOp35
 70
     1
102
RTVSPost2010Prop36
280
     0
102
RTVSPost2010PropOp36
 70
     1
102
RTVSPost2010Prop37
 90
       50
102
RTVSPost2010PropOp37
 70
     1
102
RTVSPost2010Prop38
140
0.0
102
RTVSPost2010PropOp38
 70
     1
102
RTVSPost2010Prop39
140
1.0
102
RTVSPost2010PropOp39
 70
     1
102
RTVSPost2010Prop40
 90
        0
102
RTVSPost2010PropOp40
 70
     1
102
RTVSPost2010Prop41ColorIndex
 90
       18
102
RTVSPost2010Prop41ColorRGB
 90
        0
102
RTVSPost2010PropOp41
 70
     1
102
RTVSPost2010Prop42
 90
       50
102
RTVSPost2010PropOp42
 70
     1
102
RTVSPost2010Prop43
 90
        3
102
RTVSPost2010PropOp43
 70
     1
102
RTVSPost2010Prop44ColorIndex
 90
        5
102
RTVSPost2010Prop44ColorRGB
 90
      255
102
RTVSPost2010PropOp44
 70
     1
102
RTVSPost2010Prop45
280
     0
102
RTVSPost2010PropOp45
 70
     1
102
RTVSPost2010Prop46
 90
       50
102
RTVSPost2010PropOp46
 70
     1
102
RTVSPost2010Prop47
 90
       50
102
RTVSPost2010PropOp47
 70
     1
102
RTVSPost2010Prop48
 90
       50
102
RTVSPost2010PropOp48
 70
     1
102
RTVSPost2010Prop49
280
     0
102
RTVSPost2010PropOp49
 70
     1
102
RTVSPost2010Prop50
 90
       50
102
RTVSPost2010PropOp50
 70
     1
102
RTVSPost2010Prop51ColorIndex
 90
      256
102
RTVSPost2010Prop51ColorRGB
 90
-16777216
102
RTVSPost2010PropOp51
 70
     0
102
RTVSPost2010Prop52
140
1.0
102
RTVSPost2010PropOp52
 70
     0
102
RTVSPost2010Prop53
 90
        2
102
RTVSPost2010PropOp53
 70
     1
102
RTVSPost2010Prop54
  1
strokes_ogs.tif
102
RTVSPost2010PropOp54
 70
     1
102
RTVSPost2010Prop55
280
     0
102
RTVSPost2010PropOp55
 70
     1
102
RTVSPost2010Prop56
140
1.0
102
RTVSPost2010PropOp56
 70
     1
102
RTVSPost2010Prop57
140
1.0
102
RTVSPost2010PropOp57
 70
     1
  0
XRECORD
  5
6DB
102
{ACAD_REACTORS
330
6DA
102
}
330
6DA
100
AcDbXrecord
280
     1
102
RTVSPropertyOp0
 70
     1
102
RTVSPropertyOp1
 70
     1
102
RTVSPropertyOp2
 70
     1
102
RTVSPropertyOp3
 70
     1
102
RTVSPropertyOp4
 70
     1
102
RTVSPropertyOp5
 70
     1
102
RTVSPropertyOp6
 70
     1
102
RTVSPropertyOp7
 70
     1
102
RTVSPropertyOp8
 70
     1
102
RTVSPropertyOp9
 70
     1
102
RTVSPropertyOp10
 70
     1
102
RTVSPropertyOp11
 70
     1
102
RTVSPropertyOp12
 70
     1
102
RTVSPropertyOp13
 70
     1
102
RTVSPropertyOp14
 70
     1
102
RTVSPropertyOp15
 70
     1
102
RTVSPropertyOp16
 70
     1
102
RTVSPropertyOp17
 70
     1
102
RTVSPropertyOp18
 70
     1
102
RTVSPropertyOp19
 70
     1
102
RTVSPropertyOp20
 70
     1
102
RTVSPropertyOp21
 70
     1
102
RTVSPropertyOp22
 70
     1
102
RTVSPropertyOp23
 70
     1
102
RTVSPropertyOp24
 70
     1
102
RTVSPropertyOp25
 70
     1
102
RTVSPropertyOp26
 70
     1
102
RTVSPropertyOp27
 70
     1
102
RTVSPropertyOp28
 70
     1
102
RTVSPropertyOp29
 70
     1
102
RTVSPropertyOp30
 70
     1
102
RTVSPropertyOp31
 70
     1
102
RTVSPropertyOp32
 70
     1
102
RTVSPropertyOp33
 70
     1
102
RTVSPropertyOp34
 70
     1
102
RTVSPropertyOp35
 70
     1
102
RTVSPropertyOp36
 70
     1
102
RTVSPropertyOp37
 70
     1
102
RTVSPropertyOp38
 70
     1
102
RTVSPropertyOp39
 70
     1
102
RTVSPropertyOp40
 70
     1
102
RTVSPropertyOp41
 70
     1
102
RTVSPropertyOp42
 70
     1
102
RTVSPropertyOp43
 70
     1
102
RTVSPropertyOp44
 70
     1
102
RTVSPropertyOp45
 70
     1
102
RTVSPropertyOp46
 70
     1
102
RTVSPropertyOp47
 70
     1
102
RTVSPropertyOp48
 70
     1
102
RTVSPropertyOp49
 70
     1
102
RTVSPropertyOp50
 70
     1
102
RTVSPropertyOp51
 70
     0
102
RTVSPropertyOp52
 70
     0
102
RTVSPropertyOp53
 70
     1
102
RTVSPropertyOp54
 70
     1
102
RTVSPropertyOp55
 70
     1
102
RTVSPropertyOp56
 70
     1
102
RTVSPropertyOp57
 70
     1
102
RTVSPost2010Prop28
280
     0
102
RTVSPost2010PropOp28
 70
     1
102
RTVSPost2010Prop29
280
     1
102
RTVSPost2010PropOp29
 70
     1
102
RTVSPost2010Prop30
280
     1
102
RTVSPost2010PropOp30
 70
     1
102
RTVSPost2010Prop31
280
     0
102
RTVSPost2010PropOp31
 70
     1
102
RTVSPost2010Prop32
280
     0
102
RTVSPost2010PropOp32
 70
     1
102
RTVSPost2010Prop33
280
     0
102
RTVSPost2010PropOp33
 70
     1
102
RTVSPost2010Prop34
280
     0
102
RTVSPost2010PropOp34
 70
     1
102
RTVSPost2010Prop35
280
     0
102
RTVSPost2010PropOp35
 70
     1
102
RTVSPost2010Prop36
280
     0
102
RTVSPost2010PropOp36
 70
     1
102
RTVSPost2010Prop37
 90
       50
102
RTVSPost2010PropOp37
 70
     1
102
RTVSPost2010Prop38
140
0.0
102
RTVSPost2010PropOp38
 70
     1
102
RTVSPost2010Prop39
140
1.0
102
RTVSPost2010PropOp39
 70
     1
102
RTVSPost2010Prop40
 90
        0
102
RTVSPost2010PropOp40
 70
     1
102
RTVSPost2010Prop41ColorIndex
 90
       18
102
RTVSPost2010Prop41ColorRGB
 90
        0
102
RTVSPost2010PropOp41
 70
     1
102
RTVSPost2010Prop42
 90
       50
102
RTVSPost2010PropOp42
 70
     1
102
RTVSPost2010Prop43
 90
        3
102
RTVSPost2010PropOp43
 70
     1
102
RTVSPost2010Prop44ColorIndex
 90
        5
102
RTVSPost2010Prop44ColorRGB
 90
      255
102
RTVSPost2010PropOp44
 70
     1
102
RTVSPost2010Prop45
280
     0
102
RTVSPost2010PropOp45
 70
     1
102
RTVSPost2010Prop46
 90
       50
102
RTVSPost2010PropOp46
 70
     1
102
RTVSPost2010Prop47
 90
       50
102
RTVSPost2010PropOp47
 70
     1
102
RTVSPost2010Prop48
 90
       50
102
RTVSPost2010PropOp48
 70
     1
102
RTVSPost2010Prop49
280
     0
102
RTVSPost2010PropOp49
 70
     1
102
RTVSPost2010Prop50
 90
       50
102
RTVSPost2010PropOp50
 70
     1
102
RTVSPost2010Prop51ColorIndex
 90
      256
102
RTVSPost2010Prop51ColorRGB
 90
-16777216
102
RTVSPost2010PropOp51
 70
     0
102
RTVSPost2010Prop52
140
1.0
102
RTVSPost2010PropOp52
 70
     0
102
RTVSPost2010Prop53
 90
        2
102
RTVSPost2010PropOp53
 70
     1
102
RTVSPost2010Prop54
  1
strokes_ogs.tif
102
RTVSPost2010PropOp54
 70
     1
102
RTVSPost2010Prop55
280
     0
102
RTVSPost2010PropOp55
 70
     1
102
RTVSPost2010Prop56
140
1.0
102
RTVSPost2010PropOp56
 70
     1
102
RTVSPost2010Prop57
140
1.0
102
RTVSPost2010PropOp57
 70
     1
  0
XRECORD
  5
6DD
102
{ACAD_REACTORS
330
6DC
102
}
330
6DC
100
AcDbXrecord
280
     1
102
RTVSPropertyOp0
 70
     1
102
RTVSPropertyOp1
 70
     1
102
RTVSPropertyOp2
 70
     1
102
RTVSPropertyOp3
 70
     1
102
RTVSPropertyOp4
 70
     1
102
RTVSPropertyOp5
 70
     1
102
RTVSPropertyOp6
 70
     1
102
RTVSPropertyOp7
 70
     1
102
RTVSPropertyOp8
 70
     1
102
RTVSPropertyOp9
 70
     1
102
RTVSPropertyOp10
 70
     1
102
RTVSPropertyOp11
 70
     1
102
RTVSPropertyOp12
 70
     1
102
RTVSPropertyOp13
 70
     1
102
RTVSPropertyOp14
 70
     1
102
RTVSPropertyOp15
 70
     1
102
RTVSPropertyOp16
 70
     1
102
RTVSPropertyOp17
 70
     1
102
RTVSPropertyOp18
 70
     1
102
RTVSPropertyOp19
 70
     1
102
RTVSPropertyOp20
 70
     1
102
RTVSPropertyOp21
 70
     1
102
RTVSPropertyOp22
 70
     1
102
RTVSPropertyOp23
 70
     1
102
RTVSPropertyOp24
 70
     1
102
RTVSPropertyOp25
 70
     1
102
RTVSPropertyOp26
 70
     1
102
RTVSPropertyOp27
 70
     1
102
RTVSPropertyOp28
 70
     1
102
RTVSPropertyOp29
 70
     1
102
RTVSPropertyOp30
 70
     1
102
RTVSPropertyOp31
 70
     1
102
RTVSPropertyOp32
 70
     1
102
RTVSPropertyOp33
 70
     1
102
RTVSPropertyOp34
 70
     1
102
RTVSPropertyOp35
 70
     1
102
RTVSPropertyOp36
 70
     1
102
RTVSPropertyOp37
 70
     1
102
RTVSPropertyOp38
 70
     1
102
RTVSPropertyOp39
 70
     1
102
RTVSPropertyOp40
 70
     1
102
RTVSPropertyOp41
 70
     1
102
RTVSPropertyOp42
 70
     1
102
RTVSPropertyOp43
 70
     1
102
RTVSPropertyOp44
 70
     1
102
RTVSPropertyOp45
 70
     1
102
RTVSPropertyOp46
 70
     1
102
RTVSPropertyOp47
 70
     1
102
RTVSPropertyOp48
 70
     1
102
RTVSPropertyOp49
 70
     1
102
RTVSPropertyOp50
 70
     1
102
RTVSPropertyOp51
 70
     0
102
RTVSPropertyOp52
 70
     0
102
RTVSPropertyOp53
 70
     1
102
RTVSPropertyOp54
 70
     1
102
RTVSPropertyOp55
 70
     1
102
RTVSPropertyOp56
 70
     1
102
RTVSPropertyOp57
 70
     1
102
RTVSPost2010Prop28
280
     0
102
RTVSPost2010PropOp28
 70
     1
102
RTVSPost2010Prop29
280
     1
102
RTVSPost2010PropOp29
 70
     1
102
RTVSPost2010Prop30
280
     1
102
RTVSPost2010PropOp30
 70
     1
102
RTVSPost2010Prop31
280
     0
102
RTVSPost2010PropOp31
 70
     1
102
RTVSPost2010Prop32
280
     0
102
RTVSPost2010PropOp32
 70
     1
102
RTVSPost2010Prop33
280
     0
102
RTVSPost2010PropOp33
 70
     1
102
RTVSPost2010Prop34
280
     0
102
RTVSPost2010PropOp34
 70
     1
102
RTVSPost2010Prop35
280
     0
102
RTVSPost2010PropOp35
 70
     1
102
RTVSPost2010Prop36
280
     0
102
RTVSPost2010PropOp36
 70
     1
102
RTVSPost2010Prop37
 90
       50
102
RTVSPost2010PropOp37
 70
     1
102
RTVSPost2010Prop38
140
0.0
102
RTVSPost2010PropOp38
 70
     1
102
RTVSPost2010Prop39
140
1.0
102
RTVSPost2010PropOp39
 70
     1
102
RTVSPost2010Prop40
 90
        0
102
RTVSPost2010PropOp40
 70
     1
102
RTVSPost2010Prop41ColorIndex
 90
       18
102
RTVSPost2010Prop41ColorRGB
 90
        0
102
RTVSPost2010PropOp41
 70
     1
102
RTVSPost2010Prop42
 90
       50
102
RTVSPost2010PropOp42
 70
     1
102
RTVSPost2010Prop43
 90
        3
102
RTVSPost2010PropOp43
 70
     1
102
RTVSPost2010Prop44ColorIndex
 90
        5
102
RTVSPost2010Prop44ColorRGB
 90
      255
102
RTVSPost2010PropOp44
 70
     1
102
RTVSPost2010Prop45
280
     0
102
RTVSPost2010PropOp45
 70
     1
102
RTVSPost2010Prop46
 90
       50
102
RTVSPost2010PropOp46
 70
     1
102
RTVSPost2010Prop47
 90
       50
102
RTVSPost2010PropOp47
 70
     1
102
RTVSPost2010Prop48
 90
       50
102
RTVSPost2010PropOp48
 70
     1
102
RTVSPost2010Prop49
280
     0
102
RTVSPost2010PropOp49
 70
     1
102
RTVSPost2010Prop50
 90
       50
102
RTVSPost2010PropOp50
 70
     1
102
RTVSPost2010Prop51ColorIndex
 90
      256
102
RTVSPost2010Prop51ColorRGB
 90
-16777216
102
RTVSPost2010PropOp51
 70
     0
102
RTVSPost2010Prop52
140
1.0
102
RTVSPost2010PropOp52
 70
     0
102
RTVSPost2010Prop53
 90
        2
102
RTVSPost2010PropOp53
 70
     1
102
RTVSPost2010Prop54
  1
strokes_ogs.tif
102
RTVSPost2010PropOp54
 70
     1
102
RTVSPost2010Prop55
280
     0
102
RTVSPost2010PropOp55
 70
     1
102
RTVSPost2010Prop56
140
1.0
102
RTVSPost2010PropOp56
 70
     1
102
RTVSPost2010Prop57
140
1.0
102
RTVSPost2010PropOp57
 70
     1
  0
XRECORD
  5
6DF
102
{ACAD_REACTORS
330
6DE
102
}
330
6DE
100
AcDbXrecord
280
     1
102
RTVSPropertyOp0
 70
     1
102
RTVSPropertyOp1
 70
     1
102
RTVSPropertyOp2
 70
     1
102
RTVSPropertyOp3
 70
     1
102
RTVSPropertyOp4
 70
     1
102
RTVSPropertyOp5
 70
     1
102
RTVSPropertyOp6
 70
     1
102
RTVSPropertyOp7
 70
     1
102
RTVSPropertyOp8
 70
     1
102
RTVSPropertyOp9
 70
     1
102
RTVSPropertyOp10
 70
     1
102
RTVSPropertyOp11
 70
     1
102
RTVSPropertyOp12
 70
     1
102
RTVSPropertyOp13
 70
     1
102
RTVSPropertyOp14
 70
     1
102
RTVSPropertyOp15
 70
     1
102
RTVSPropertyOp16
 70
     1
102
RTVSPropertyOp17
 70
     1
102
RTVSPropertyOp18
 70
     1
102
RTVSPropertyOp19
 70
     1
102
RTVSPropertyOp20
 70
     1
102
RTVSPropertyOp21
 70
     1
102
RTVSPropertyOp22
 70
     1
102
RTVSPropertyOp23
 70
     1
102
RTVSPropertyOp24
 70
     1
102
RTVSPropertyOp25
 70
     1
102
RTVSPropertyOp26
 70
     1
102
RTVSPropertyOp27
 70
     1
102
RTVSPropertyOp28
 70
     1
102
RTVSPropertyOp29
 70
     1
102
RTVSPropertyOp30
 70
     1
102
RTVSPropertyOp31
 70
     1
102
RTVSPropertyOp32
 70
     1
102
RTVSPropertyOp33
 70
     1
102
RTVSPropertyOp34
 70
     1
102
RTVSPropertyOp35
 70
     1
102
RTVSPropertyOp36
 70
     1
102
RTVSPropertyOp37
 70
     1
102
RTVSPropertyOp38
 70
     1
102
RTVSPropertyOp39
 70
     1
102
RTVSPropertyOp40
 70
     1
102
RTVSPropertyOp41
 70
     1
102
RTVSPropertyOp42
 70
     1
102
RTVSPropertyOp43
 70
     1
102
RTVSPropertyOp44
 70
     1
102
RTVSPropertyOp45
 70
     1
102
RTVSPropertyOp46
 70
     1
102
RTVSPropertyOp47
 70
     1
102
RTVSPropertyOp48
 70
     1
102
RTVSPropertyOp49
 70
     1
102
RTVSPropertyOp50
 70
     1
102
RTVSPropertyOp51
 70
     0
102
RTVSPropertyOp52
 70
     0
102
RTVSPropertyOp53
 70
     1
102
RTVSPropertyOp54
 70
     1
102
RTVSPropertyOp55
 70
     1
102
RTVSPropertyOp56
 70
     1
102
RTVSPropertyOp57
 70
     1
102
RTVSPost2010Prop28
280
     0
102
RTVSPost2010PropOp28
 70
     1
102
RTVSPost2010Prop29
280
     1
102
RTVSPost2010PropOp29
 70
     1
102
RTVSPost2010Prop30
280
     1
102
RTVSPost2010PropOp30
 70
     1
102
RTVSPost2010Prop31
280
     0
102
RTVSPost2010PropOp31
 70
     1
102
RTVSPost2010Prop32
280
     0
102
RTVSPost2010PropOp32
 70
     1
102
RTVSPost2010Prop33
280
     0
102
RTVSPost2010PropOp33
 70
     1
102
RTVSPost2010Prop34
280
     0
102
RTVSPost2010PropOp34
 70
     1
102
RTVSPost2010Prop35
280
     0
102
RTVSPost2010PropOp35
 70
     1
102
RTVSPost2010Prop36
280
     0
102
RTVSPost2010PropOp36
 70
     1
102
RTVSPost2010Prop37
 90
       50
102
RTVSPost2010PropOp37
 70
     1
102
RTVSPost2010Prop38
140
0.0
102
RTVSPost2010PropOp38
 70
     1
102
RTVSPost2010Prop39
140
1.0
102
RTVSPost2010PropOp39
 70
     1
102
RTVSPost2010Prop40
 90
        0
102
RTVSPost2010PropOp40
 70
     1
102
RTVSPost2010Prop41ColorIndex
 90
       18
102
RTVSPost2010Prop41ColorRGB
 90
        0
102
RTVSPost2010PropOp41
 70
     1
102
RTVSPost2010Prop42
 90
       50
102
RTVSPost2010PropOp42
 70
     1
102
RTVSPost2010Prop43
 90
        3
102
RTVSPost2010PropOp43
 70
     1
102
RTVSPost2010Prop44ColorIndex
 90
        5
102
RTVSPost2010Prop44ColorRGB
 90
      255
102
RTVSPost2010PropOp44
 70
     1
102
RTVSPost2010Prop45
280
     0
102
RTVSPost2010PropOp45
 70
     1
102
RTVSPost2010Prop46
 90
       50
102
RTVSPost2010PropOp46
 70
     1
102
RTVSPost2010Prop47
 90
       50
102
RTVSPost2010PropOp47
 70
     1
102
RTVSPost2010Prop48
 90
       50
102
RTVSPost2010PropOp48
 70
     1
102
RTVSPost2010Prop49
280
     0
102
RTVSPost2010PropOp49
 70
     1
102
RTVSPost2010Prop50
 90
       50
102
RTVSPost2010PropOp50
 70
     1
102
RTVSPost2010Prop51ColorIndex
 90
      256
102
RTVSPost2010Prop51ColorRGB
 90
-16777216
102
RTVSPost2010PropOp51
 70
     0
102
RTVSPost2010Prop52
140
1.0
102
RTVSPost2010PropOp52
 70
     0
102
RTVSPost2010Prop53
 90
        2
102
RTVSPost2010PropOp53
 70
     1
102
RTVSPost2010Prop54
  1
strokes_ogs.tif
102
RTVSPost2010PropOp54
 70
     1
102
RTVSPost2010Prop55
280
     0
102
RTVSPost2010PropOp55
 70
     1
102
RTVSPost2010Prop56
140
1.0
102
RTVSPost2010PropOp56
 70
     1
102
RTVSPost2010Prop57
140
1.0
102
RTVSPost2010PropOp57
 70
     1
  0
XRECORD
  5
6E1
102
{ACAD_REACTORS
330
6E0
102
}
330
6E0
100
AcDbXrecord
280
     1
102
RTVSPropertyOp0
 70
     0
102
RTVSPropertyOp1
 70
     0
102
RTVSPropertyOp2
 70
     0
102
RTVSPropertyOp3
 70
     0
102
RTVSPropertyOp4
 70
     0
102
RTVSPropertyOp5
 70
     0
102
RTVSPropertyOp6
 70
     0
102
RTVSPropertyOp7
 70
     0
102
RTVSPropertyOp8
 70
     0
102
RTVSPropertyOp9
 70
     0
102
RTVSPropertyOp10
 70
     0
102
RTVSPropertyOp11
 70
     0
102
RTVSPropertyOp12
 70
     0
102
RTVSPropertyOp13
 70
     0
102
RTVSPropertyOp14
 70
     2
102
RTVSPropertyOp15
 70
     0
102
RTVSPropertyOp16
 70
     0
102
RTVSPropertyOp17
 70
     0
102
RTVSPropertyOp18
 70
     0
102
RTVSPropertyOp19
 70
     0
102
RTVSPropertyOp20
 70
     0
102
RTVSPropertyOp21
 70
     0
102
RTVSPropertyOp22
 70
     0
102
RTVSPropertyOp23
 70
     0
102
RTVSPropertyOp24
 70
     0
102
RTVSPropertyOp25
 70
     0
102
RTVSPropertyOp26
 70
     0
102
RTVSPropertyOp27
 70
     0
102
RTVSPropertyOp28
 70
     1
102
RTVSPropertyOp29
 70
     1
102
RTVSPropertyOp30
 70
     1
102
RTVSPropertyOp31
 70
     1
102
RTVSPropertyOp32
 70
     1
102
RTVSPropertyOp33
 70
     1
102
RTVSPropertyOp34
 70
     1
102
RTVSPropertyOp35
 70
     1
102
RTVSPropertyOp36
 70
     1
102
RTVSPropertyOp37
 70
     0
102
RTVSPropertyOp38
 70
     0
102
RTVSPropertyOp39
 70
     0
102
RTVSPropertyOp40
 70
     0
102
RTVSPropertyOp41
 70
     0
102
RTVSPropertyOp42
 70
     0
102
RTVSPropertyOp43
 70
     0
102
RTVSPropertyOp44
 70
     0
102
RTVSPropertyOp45
 70
     1
102
RTVSPropertyOp46
 70
     0
102
RTVSPropertyOp47
 70
     0
102
RTVSPropertyOp48
 70
     0
102
RTVSPropertyOp49
 70
     1
102
RTVSPropertyOp50
 70
     0
102
RTVSPropertyOp51
 70
     0
102
RTVSPropertyOp52
 70
     0
102
RTVSPropertyOp53
 70
     0
102
RTVSPropertyOp54
 70
     0
102
RTVSPropertyOp55
 70
     1
102
RTVSPropertyOp56
 70
     0
102
RTVSPropertyOp57
 70
     0
102
RTVSPost2010Prop28
280
     0
102
RTVSPost2010PropOp28
 70
     1
102
RTVSPost2010Prop29
280
     1
102
RTVSPost2010PropOp29
 70
     1
102
RTVSPost2010Prop30
280
     1
102
RTVSPost2010PropOp30
 70
     1
102
RTVSPost2010Prop31
280
     0
102
RTVSPost2010PropOp31
 70
     1
102
RTVSPost2010Prop32
280
     0
102
RTVSPost2010PropOp32
 70
     1
102
RTVSPost2010Prop33
280
     0
102
RTVSPost2010PropOp33
 70
     1
102
RTVSPost2010Prop34
280
     0
102
RTVSPost2010PropOp34
 70
     1
102
RTVSPost2010Prop35
280
     0
102
RTVSPost2010PropOp35
 70
     1
102
RTVSPost2010Prop36
280
     0
102
RTVSPost2010PropOp36
 70
     1
102
RTVSPost2010Prop37
 90
       50
102
RTVSPost2010PropOp37
 70
     0
102
RTVSPost2010Prop38
140
0.0
102
RTVSPost2010PropOp38
 70
     0
102
RTVSPost2010Prop39
140
1.0
102
RTVSPost2010PropOp39
 70
     0
102
RTVSPost2010Prop40
 90
        0
102
RTVSPost2010PropOp40
 70
     0
102
RTVSPost2010Prop41ColorIndex
 90
       18
102
RTVSPost2010Prop41ColorRGB
 90
        0
102
RTVSPost2010PropOp41
 70
     0
102
RTVSPost2010Prop42
 90
       50
102
RTVSPost2010PropOp42
 70
     0
102
RTVSPost2010Prop43
 90
        3
102
RTVSPost2010PropOp43
 70
     0
102
RTVSPost2010Prop44ColorIndex
 90
        5
102
RTVSPost2010Prop44ColorRGB
 90
      255
102
RTVSPost2010PropOp44
 70
     0
102
RTVSPost2010Prop45
280
     0
102
RTVSPost2010PropOp45
 70
     1
102
RTVSPost2010Prop46
 90
       50
102
RTVSPost2010PropOp46
 70
     0
102
RTVSPost2010Prop47
 90
       50
102
RTVSPost2010PropOp47
 70
     0
102
RTVSPost2010Prop48
 90
       50
102
RTVSPost2010PropOp48
 70
     0
102
RTVSPost2010Prop49
280
     0
102
RTVSPost2010PropOp49
 70
     1
102
RTVSPost2010Prop50
 90
       50
102
RTVSPost2010PropOp50
 70
     0
102
RTVSPost2010Prop51ColorIndex
 90
      256
102
RTVSPost2010Prop51ColorRGB
 90
-16777216
102
RTVSPost2010PropOp51
 70
     0
102
RTVSPost2010Prop52
140
1.0
102
RTVSPost2010PropOp52
 70
     0
102
RTVSPost2010Prop53
 90
        2
102
RTVSPost2010PropOp53
 70
     0
102
RTVSPost2010Prop54
  1
strokes_ogs.tif
102
RTVSPost2010PropOp54
 70
     0
102
RTVSPost2010Prop55
280
     0
102
RTVSPost2010PropOp55
 70
     1
102
RTVSPost2010Prop56
140
1.0
102
RTVSPost2010PropOp56
 70
     0
102
RTVSPost2010Prop57
140
1.0
102
RTVSPost2010PropOp57
 70
     0
  0
XRECORD
  5
6E3
102
{ACAD_REACTORS
330
6E2
102
}
330
6E2
100
AcDbXrecord
280
     1
102
RTVSPropertyOp0
 70
     1
102
RTVSPropertyOp1
 70
     1
102
RTVSPropertyOp2
 70
     1
102
RTVSPropertyOp3
 70
     1
102
RTVSPropertyOp4
 70
     1
102
RTVSPropertyOp5
 70
     1
102
RTVSPropertyOp6
 70
     1
102
RTVSPropertyOp7
 70
     1
102
RTVSPropertyOp8
 70
     1
102
RTVSPropertyOp9
 70
     1
102
RTVSPropertyOp10
 70
     1
102
RTVSPropertyOp11
 70
     1
102
RTVSPropertyOp12
 70
     1
102
RTVSPropertyOp13
 70
     1
102
RTVSPropertyOp14
 70
     1
102
RTVSPropertyOp15
 70
     1
102
RTVSPropertyOp16
 70
     1
102
RTVSPropertyOp17
 70
     1
102
RTVSPropertyOp18
 70
     1
102
RTVSPropertyOp19
 70
     1
102
RTVSPropertyOp20
 70
     1
102
RTVSPropertyOp21
 70
     1
102
RTVSPropertyOp22
 70
     1
102
RTVSPropertyOp23
 70
     1
102
RTVSPropertyOp24
 70
     1
102
RTVSPropertyOp25
 70
     1
102
RTVSPropertyOp26
 70
     1
102
RTVSPropertyOp27
 70
     1
102
RTVSPropertyOp28
 70
     1
102
RTVSPropertyOp29
 70
     1
102
RTVSPropertyOp30
 70
     1
102
RTVSPropertyOp31
 70
     1
102
RTVSPropertyOp32
 70
     1
102
RTVSPropertyOp33
 70
     1
102
RTVSPropertyOp34
 70
     1
102
RTVSPropertyOp35
 70
     1
102
RTVSPropertyOp36
 70
     1
102
RTVSPropertyOp37
 70
     1
102
RTVSPropertyOp38
 70
     1
102
RTVSPropertyOp39
 70
     1
102
RTVSPropertyOp40
 70
     1
102
RTVSPropertyOp41
 70
     1
102
RTVSPropertyOp42
 70
     1
102
RTVSPropertyOp43
 70
     1
102
RTVSPropertyOp44
 70
     1
102
RTVSPropertyOp45
 70
     1
102
RTVSPropertyOp46
 70
     1
102
RTVSPropertyOp47
 70
     1
102
RTVSPropertyOp48
 70
     1
102
RTVSPropertyOp49
 70
     1
102
RTVSPropertyOp50
 70
     1
102
RTVSPropertyOp51
 70
     0
102
RTVSPropertyOp52
 70
     0
102
RTVSPropertyOp53
 70
     1
102
RTVSPropertyOp54
 70
     1
102
RTVSPropertyOp55
 70
     1
102
RTVSPropertyOp56
 70
     1
102
RTVSPropertyOp57
 70
     1
102
RTVSPost2010Prop28
280
     0
102
RTVSPost2010PropOp28
 70
     1
102
RTVSPost2010Prop29
280
     1
102
RTVSPost2010PropOp29
 70
     1
102
RTVSPost2010Prop30
280
     1
102
RTVSPost2010PropOp30
 70
     1
102
RTVSPost2010Prop31
280
     0
102
RTVSPost2010PropOp31
 70
     1
102
RTVSPost2010Prop32
280
     0
102
RTVSPost2010PropOp32
 70
     1
102
RTVSPost2010Prop33
280
     0
102
RTVSPost2010PropOp33
 70
     1
102
RTVSPost2010Prop34
280
     0
102
RTVSPost2010PropOp34
 70
     1
102
RTVSPost2010Prop35
280
     0
102
RTVSPost2010PropOp35
 70
     1
102
RTVSPost2010Prop36
280
     0
102
RTVSPost2010PropOp36
 70
     1
102
RTVSPost2010Prop37
 90
       50
102
RTVSPost2010PropOp37
 70
     1
102
RTVSPost2010Prop38
140
0.0
102
RTVSPost2010PropOp38
 70
     1
102
RTVSPost2010Prop39
140
1.0
102
RTVSPost2010PropOp39
 70
     1
102
RTVSPost2010Prop40
 90
        0
102
RTVSPost2010PropOp40
 70
     1
102
RTVSPost2010Prop41ColorIndex
 90
       18
102
RTVSPost2010Prop41ColorRGB
 90
        0
102
RTVSPost2010PropOp41
 70
     1
102
RTVSPost2010Prop42
 90
       50
102
RTVSPost2010PropOp42
 70
     1
102
RTVSPost2010Prop43
 90
        3
102
RTVSPost2010PropOp43
 70
     1
102
RTVSPost2010Prop44ColorIndex
 90
        5
102
RTVSPost2010Prop44ColorRGB
 90
      255
102
RTVSPost2010PropOp44
 70
     1
102
RTVSPost2010Prop45
280
     0
102
RTVSPost2010PropOp45
 70
     1
102
RTVSPost2010Prop46
 90
       50
102
RTVSPost2010PropOp46
 70
     1
102
RTVSPost2010Prop47
 90
       50
102
RTVSPost2010PropOp47
 70
     1
102
RTVSPost2010Prop48
 90
       50
102
RTVSPost2010PropOp48
 70
     1
102
RTVSPost2010Prop49
280
     0
102
RTVSPost2010PropOp49
 70
     1
102
RTVSPost2010Prop50
 90
       50
102
RTVSPost2010PropOp50
 70
     1
102
RTVSPost2010Prop51ColorIndex
 90
      256
102
RTVSPost2010Prop51ColorRGB
 90
-16777216
102
RTVSPost2010PropOp51
 70
     0
102
RTVSPost2010Prop52
140
1.0
102
RTVSPost2010PropOp52
 70
     0
102
RTVSPost2010Prop53
 90
        2
102
RTVSPost2010PropOp53
 70
     1
102
RTVSPost2010Prop54
  1
strokes_ogs.tif
102
RTVSPost2010PropOp54
 70
     1
102
RTVSPost2010Prop55
280
     0
102
RTVSPost2010PropOp55
 70
     1
102
RTVSPost2010Prop56
140
1.0
102
RTVSPost2010PropOp56
 70
     1
102
RTVSPost2010Prop57
140
1.0
102
RTVSPost2010PropOp57
 70
     1
  0
XRECORD
  5
6E5
102
{ACAD_REACTORS
330
6E4
102
}
330
6E4
100
AcDbXrecord
280
     1
102
RTVSPropertyOp0
 70
     0
102
RTVSPropertyOp1
 70
     0
102
RTVSPropertyOp2
 70
     0
102
RTVSPropertyOp3
 70
     0
102
RTVSPropertyOp4
 70
     0
102
RTVSPropertyOp5
 70
     0
102
RTVSPropertyOp6
 70
     0
102
RTVSPropertyOp7
 70
     0
102
RTVSPropertyOp8
 70
     0
102
RTVSPropertyOp9
 70
     0
102
RTVSPropertyOp10
 70
     0
102
RTVSPropertyOp11
 70
     0
102
RTVSPropertyOp12
 70
     0
102
RTVSPropertyOp13
 70
     0
102
RTVSPropertyOp14
 70
     2
102
RTVSPropertyOp15
 70
     0
102
RTVSPropertyOp16
 70
     0
102
RTVSPropertyOp17
 70
     0
102
RTVSPropertyOp18
 70
     0
102
RTVSPropertyOp19
 70
     0
102
RTVSPropertyOp20
 70
     0
102
RTVSPropertyOp21
 70
     0
102
RTVSPropertyOp22
 70
     0
102
RTVSPropertyOp23
 70
     0
102
RTVSPropertyOp24
 70
     0
102
RTVSPropertyOp25
 70
     0
102
RTVSPropertyOp26
 70
     0
102
RTVSPropertyOp27
 70
     0
102
RTVSPropertyOp28
 70
     1
102
RTVSPropertyOp29
 70
     1
102
RTVSPropertyOp30
 70
     1
102
RTVSPropertyOp31
 70
     1
102
RTVSPropertyOp32
 70
     1
102
RTVSPropertyOp33
 70
     1
102
RTVSPropertyOp34
 70
     1
102
RTVSPropertyOp35
 70
     1
102
RTVSPropertyOp36
 70
     1
102
RTVSPropertyOp37
 70
     0
102
RTVSPropertyOp38
 70
     0
102
RTVSPropertyOp39
 70
     0
102
RTVSPropertyOp40
 70
     0
102
RTVSPropertyOp41
 70
     0
102
RTVSPropertyOp42
 70
     0
102
RTVSPropertyOp43
 70
     0
102
RTVSPropertyOp44
 70
     0
102
RTVSPropertyOp45
 70
     1
102
RTVSPropertyOp46
 70
     0
102
RTVSPropertyOp47
 70
     0
102
RTVSPropertyOp48
 70
     0
102
RTVSPropertyOp49
 70
     1
102
RTVSPropertyOp50
 70
     0
102
RTVSPropertyOp51
 70
     0
102
RTVSPropertyOp52
 70
     0
102
RTVSPropertyOp53
 70
     0
102
RTVSPropertyOp54
 70
     0
102
RTVSPropertyOp55
 70
     1
102
RTVSPropertyOp56
 70
     0
102
RTVSPropertyOp57
 70
     0
102
RTVSPost2010Prop28
280
     0
102
RTVSPost2010PropOp28
 70
     1
102
RTVSPost2010Prop29
280
     1
102
RTVSPost2010PropOp29
 70
     1
102
RTVSPost2010Prop30
280
     1
102
RTVSPost2010PropOp30
 70
     1
102
RTVSPost2010Prop31
280
     0
102
RTVSPost2010PropOp31
 70
     1
102
RTVSPost2010Prop32
280
     0
102
RTVSPost2010PropOp32
 70
     1
102
RTVSPost2010Prop33
280
     0
102
RTVSPost2010PropOp33
 70
     1
102
RTVSPost2010Prop34
280
     0
102
RTVSPost2010PropOp34
 70
     1
102
RTVSPost2010Prop35
280
     0
102
RTVSPost2010PropOp35
 70
     1
102
RTVSPost2010Prop36
280
     0
102
RTVSPost2010PropOp36
 70
     1
102
RTVSPost2010Prop37
 90
       50
102
RTVSPost2010PropOp37
 70
     0
102
RTVSPost2010Prop38
140
0.0
102
RTVSPost2010PropOp38
 70
     0
102
RTVSPost2010Prop39
140
1.0
102
RTVSPost2010PropOp39
 70
     0
102
RTVSPost2010Prop40
 90
        0
102
RTVSPost2010PropOp40
 70
     0
102
RTVSPost2010Prop41ColorIndex
 90
       18
102
RTVSPost2010Prop41ColorRGB
 90
        0
102
RTVSPost2010PropOp41
 70
     0
102
RTVSPost2010Prop42
 90
       50
102
RTVSPost2010PropOp42
 70
     0
102
RTVSPost2010Prop43
 90
        3
102
RTVSPost2010PropOp43
 70
     0
102
RTVSPost2010Prop44ColorIndex
 90
        5
102
RTVSPost2010Prop44ColorRGB
 90
      255
102
RTVSPost2010PropOp44
 70
     0
102
RTVSPost2010Prop45
280
     0
102
RTVSPost2010PropOp45
 70
     1
102
RTVSPost2010Prop46
 90
       50
102
RTVSPost2010PropOp46
 70
     0
102
RTVSPost2010Prop47
 90
       50
102
RTVSPost2010PropOp47
 70
     0
102
RTVSPost2010Prop48
 90
       50
102
RTVSPost2010PropOp48
 70
     0
102
RTVSPost2010Prop49
280
     0
102
RTVSPost2010PropOp49
 70
     1
102
RTVSPost2010Prop50
 90
       50
102
RTVSPost2010PropOp50
 70
     0
102
RTVSPost2010Prop51ColorIndex
 90
      256
102
RTVSPost2010Prop51ColorRGB
 90
-16777216
102
RTVSPost2010PropOp51
 70
     0
102
RTVSPost2010Prop52
140
1.0
102
RTVSPost2010PropOp52
 70
     0
102
RTVSPost2010Prop53
 90
        2
102
RTVSPost2010PropOp53
 70
     0
102
RTVSPost2010Prop54
  1
strokes_ogs.tif
102
RTVSPost2010PropOp54
 70
     0
102
RTVSPost2010Prop55
280
     0
102
RTVSPost2010PropOp55
 70
     1
102
RTVSPost2010Prop56
140
1.0
102
RTVSPost2010PropOp56
 70
     0
102
RTVSPost2010Prop57
140
1.0
102
RTVSPost2010PropOp57
 70
     0
  0
XRECORD
  5
6E7
102
{ACAD_REACTORS
330
6E6
102
}
330
6E6
100
AcDbXrecord
280
     1
102
RTVSPropertyOp0
 70
     1
102
RTVSPropertyOp1
 70
     1
102
RTVSPropertyOp2
 70
     1
102
RTVSPropertyOp3
 70
     1
102
RTVSPropertyOp4
 70
     1
102
RTVSPropertyOp5
 70
     1
102
RTVSPropertyOp6
 70
     1
102
RTVSPropertyOp7
 70
     1
102
RTVSPropertyOp8
 70
     1
102
RTVSPropertyOp9
 70
     1
102
RTVSPropertyOp10
 70
     1
102
RTVSPropertyOp11
 70
     1
102
RTVSPropertyOp12
 70
     1
102
RTVSPropertyOp13
 70
     1
102
RTVSPropertyOp14
 70
     1
102
RTVSPropertyOp15
 70
     1
102
RTVSPropertyOp16
 70
     1
102
RTVSPropertyOp17
 70
     1
102
RTVSPropertyOp18
 70
     1
102
RTVSPropertyOp19
 70
     1
102
RTVSPropertyOp20
 70
     1
102
RTVSPropertyOp21
 70
     1
102
RTVSPropertyOp22
 70
     1
102
RTVSPropertyOp23
 70
     1
102
RTVSPropertyOp24
 70
     1
102
RTVSPropertyOp25
 70
     1
102
RTVSPropertyOp26
 70
     1
102
RTVSPropertyOp27
 70
     1
102
RTVSPropertyOp28
 70
     1
102
RTVSPropertyOp29
 70
     1
102
RTVSPropertyOp30
 70
     1
102
RTVSPropertyOp31
 70
     1
102
RTVSPropertyOp32
 70
     1
102
RTVSPropertyOp33
 70
     1
102
RTVSPropertyOp34
 70
     1
102
RTVSPropertyOp35
 70
     1
102
RTVSPropertyOp36
 70
     1
102
RTVSPropertyOp37
 70
     1
102
RTVSPropertyOp38
 70
     1
102
RTVSPropertyOp39
 70
     1
102
RTVSPropertyOp40
 70
     1
102
RTVSPropertyOp41
 70
     1
102
RTVSPropertyOp42
 70
     1
102
RTVSPropertyOp43
 70
     1
102
RTVSPropertyOp44
 70
     1
102
RTVSPropertyOp45
 70
     1
102
RTVSPropertyOp46
 70
     1
102
RTVSPropertyOp47
 70
     1
102
RTVSPropertyOp48
 70
     1
102
RTVSPropertyOp49
 70
     1
102
RTVSPropertyOp50
 70
     1
102
RTVSPropertyOp51
 70
     0
102
RTVSPropertyOp52
 70
     0
102
RTVSPropertyOp53
 70
     1
102
RTVSPropertyOp54
 70
     1
102
RTVSPropertyOp55
 70
     1
102
RTVSPropertyOp56
 70
     1
102
RTVSPropertyOp57
 70
     1
102
RTVSPost2010Prop28
280
     0
102
RTVSPost2010PropOp28
 70
     1
102
RTVSPost2010Prop29
280
     1
102
RTVSPost2010PropOp29
 70
     1
102
RTVSPost2010Prop30
280
     1
102
RTVSPost2010PropOp30
 70
     1
102
RTVSPost2010Prop31
280
     0
102
RTVSPost2010PropOp31
 70
     1
102
RTVSPost2010Prop32
280
     0
102
RTVSPost2010PropOp32
 70
     1
102
RTVSPost2010Prop33
280
     0
102
RTVSPost2010PropOp33
 70
     1
102
RTVSPost2010Prop34
280
     0
102
RTVSPost2010PropOp34
 70
     1
102
RTVSPost2010Prop35
280
     0
102
RTVSPost2010PropOp35
 70
     1
102
RTVSPost2010Prop36
280
     0
102
RTVSPost2010PropOp36
 70
     1
102
RTVSPost2010Prop37
 90
       50
102
RTVSPost2010PropOp37
 70
     1
102
RTVSPost2010Prop38
140
0.0
102
RTVSPost2010PropOp38
 70
     1
102
RTVSPost2010Prop39
140
1.0
102
RTVSPost2010PropOp39
 70
     1
102
RTVSPost2010Prop40
 90
        0
102
RTVSPost2010PropOp40
 70
     1
102
RTVSPost2010Prop41ColorIndex
 90
       18
102
RTVSPost2010Prop41ColorRGB
 90
        0
102
RTVSPost2010PropOp41
 70
     1
102
RTVSPost2010Prop42
 90
       50
102
RTVSPost2010PropOp42
 70
     1
102
RTVSPost2010Prop43
 90
        3
102
RTVSPost2010PropOp43
 70
     1
102
RTVSPost2010Prop44ColorIndex
 90
        5
102
RTVSPost2010Prop44ColorRGB
 90
      255
102
RTVSPost2010PropOp44
 70
     1
102
RTVSPost2010Prop45
280
     0
102
RTVSPost2010PropOp45
 70
     1
102
RTVSPost2010Prop46
 90
       50
102
RTVSPost2010PropOp46
 70
     1
102
RTVSPost2010Prop47
 90
       50
102
RTVSPost2010PropOp47
 70
     1
102
RTVSPost2010Prop48
 90
       50
102
RTVSPost2010PropOp48
 70
     1
102
RTVSPost2010Prop49
280
     0
102
RTVSPost2010PropOp49
 70
     1
102
RTVSPost2010Prop50
 90
       50
102
RTVSPost2010PropOp50
 70
     1
102
RTVSPost2010Prop51ColorIndex
 90
      256
102
RTVSPost2010Prop51ColorRGB
 90
-16777216
102
RTVSPost2010PropOp51
 70
     0
102
RTVSPost2010Prop52
140
1.0
102
RTVSPost2010PropOp52
 70
     0
102
RTVSPost2010Prop53
 90
        2
102
RTVSPost2010PropOp53
 70
     1
102
RTVSPost2010Prop54
  1
strokes_ogs.tif
102
RTVSPost2010PropOp54
 70
     1
102
RTVSPost2010Prop55
280
     0
102
RTVSPost2010PropOp55
 70
     1
102
RTVSPost2010Prop56
140
1.0
102
RTVSPost2010PropOp56
 70
     1
102
RTVSPost2010Prop57
140
1.0
102
RTVSPost2010PropOp57
 70
     1
  0
XRECORD
  5
6E9
102
{ACAD_REACTORS
330
6E8
102
}
330
6E8
100
AcDbXrecord
280
     1
102
RTVSPropertyOp0
 70
     1
102
RTVSPropertyOp1
 70
     1
102
RTVSPropertyOp2
 70
     1
102
RTVSPropertyOp3
 70
     1
102
RTVSPropertyOp4
 70
     1
102
RTVSPropertyOp5
 70
     1
102
RTVSPropertyOp6
 70
     1
102
RTVSPropertyOp7
 70
     1
102
RTVSPropertyOp8
 70
     1
102
RTVSPropertyOp9
 70
     1
102
RTVSPropertyOp10
 70
     1
102
RTVSPropertyOp11
 70
     1
102
RTVSPropertyOp12
 70
     1
102
RTVSPropertyOp13
 70
     1
102
RTVSPropertyOp14
 70
     1
102
RTVSPropertyOp15
 70
     1
102
RTVSPropertyOp16
 70
     1
102
RTVSPropertyOp17
 70
     1
102
RTVSPropertyOp18
 70
     1
102
RTVSPropertyOp19
 70
     1
102
RTVSPropertyOp20
 70
     1
102
RTVSPropertyOp21
 70
     1
102
RTVSPropertyOp22
 70
     1
102
RTVSPropertyOp23
 70
     1
102
RTVSPropertyOp24
 70
     1
102
RTVSPropertyOp25
 70
     1
102
RTVSPropertyOp26
 70
     1
102
RTVSPropertyOp27
 70
     1
102
RTVSPropertyOp28
 70
     1
102
RTVSPropertyOp29
 70
     1
102
RTVSPropertyOp30
 70
     1
102
RTVSPropertyOp31
 70
     1
102
RTVSPropertyOp32
 70
     1
102
RTVSPropertyOp33
 70
     1
102
RTVSPropertyOp34
 70
     1
102
RTVSPropertyOp35
 70
     1
102
RTVSPropertyOp36
 70
     1
102
RTVSPropertyOp37
 70
     1
102
RTVSPropertyOp38
 70
     1
102
RTVSPropertyOp39
 70
     1
102
RTVSPropertyOp40
 70
     1
102
RTVSPropertyOp41
 70
     1
102
RTVSPropertyOp42
 70
     1
102
RTVSPropertyOp43
 70
     1
102
RTVSPropertyOp44
 70
     1
102
RTVSPropertyOp45
 70
     1
102
RTVSPropertyOp46
 70
     1
102
RTVSPropertyOp47
 70
     1
102
RTVSPropertyOp48
 70
     1
102
RTVSPropertyOp49
 70
     1
102
RTVSPropertyOp50
 70
     1
102
RTVSPropertyOp51
 70
     0
102
RTVSPropertyOp52
 70
     0
102
RTVSPropertyOp53
 70
     1
102
RTVSPropertyOp54
 70
     1
102
RTVSPropertyOp55
 70
     1
102
RTVSPropertyOp56
 70
     1
102
RTVSPropertyOp57
 70
     1
102
RTVSPost2010Prop28
280
     0
102
RTVSPost2010PropOp28
 70
     1
102
RTVSPost2010Prop29
280
     1
102
RTVSPost2010PropOp29
 70
     1
102
RTVSPost2010Prop30
280
     1
102
RTVSPost2010PropOp30
 70
     1
102
RTVSPost2010Prop31
280
     0
102
RTVSPost2010PropOp31
 70
     1
102
RTVSPost2010Prop32
280
     0
102
RTVSPost2010PropOp32
 70
     1
102
RTVSPost2010Prop33
280
     0
102
RTVSPost2010PropOp33
 70
     1
102
RTVSPost2010Prop34
280
     0
102
RTVSPost2010PropOp34
 70
     1
102
RTVSPost2010Prop35
280
     0
102
RTVSPost2010PropOp35
 70
     1
102
RTVSPost2010Prop36
280
     0
102
RTVSPost2010PropOp36
 70
     1
102
RTVSPost2010Prop37
 90
       50
102
RTVSPost2010PropOp37
 70
     1
102
RTVSPost2010Prop38
140
0.0
102
RTVSPost2010PropOp38
 70
     1
102
RTVSPost2010Prop39
140
1.0
102
RTVSPost2010PropOp39
 70
     1
102
RTVSPost2010Prop40
 90
        0
102
RTVSPost2010PropOp40
 70
     1
102
RTVSPost2010Prop41ColorIndex
 90
       18
102
RTVSPost2010Prop41ColorRGB
 90
        0
102
RTVSPost2010PropOp41
 70
     1
102
RTVSPost2010Prop42
 90
       50
102
RTVSPost2010PropOp42
 70
     1
102
RTVSPost2010Prop43
 90
        3
102
RTVSPost2010PropOp43
 70
     1
102
RTVSPost2010Prop44ColorIndex
 90
        5
102
RTVSPost2010Prop44ColorRGB
 90
      255
102
RTVSPost2010PropOp44
 70
     1
102
RTVSPost2010Prop45
280
     0
102
RTVSPost2010PropOp45
 70
     1
102
RTVSPost2010Prop46
 90
       50
102
RTVSPost2010PropOp46
 70
     1
102
RTVSPost2010Prop47
 90
       50
102
RTVSPost2010PropOp47
 70
     1
102
RTVSPost2010Prop48
 90
       50
102
RTVSPost2010PropOp48
 70
     1
102
RTVSPost2010Prop49
280
     0
102
RTVSPost2010PropOp49
 70
     1
102
RTVSPost2010Prop50
 90
       50
102
RTVSPost2010PropOp50
 70
     1
102
RTVSPost2010Prop51ColorIndex
 90
      256
102
RTVSPost2010Prop51ColorRGB
 90
-16777216
102
RTVSPost2010PropOp51
 70
     0
102
RTVSPost2010Prop52
140
1.0
102
RTVSPost2010PropOp52
 70
     0
102
RTVSPost2010Prop53
 90
        2
102
RTVSPost2010PropOp53
 70
     1
102
RTVSPost2010Prop54
  1
strokes_ogs.tif
102
RTVSPost2010PropOp54
 70
     1
102
RTVSPost2010Prop55
280
     0
102
RTVSPost2010PropOp55
 70
     1
102
RTVSPost2010Prop56
140
1.0
102
RTVSPost2010PropOp56
 70
     1
102
RTVSPost2010Prop57
140
1.0
102
RTVSPost2010PropOp57
 70
     1
  0
XRECORD
  5
6EB
102
{ACAD_REACTORS
330
6EA
102
}
330
6EA
100
AcDbXrecord
280
     1
102
RTVSPropertyOp0
 70
     1
102
RTVSPropertyOp1
 70
     1
102
RTVSPropertyOp2
 70
     1
102
RTVSPropertyOp3
 70
     1
102
RTVSPropertyOp4
 70
     1
102
RTVSPropertyOp5
 70
     1
102
RTVSPropertyOp6
 70
     1
102
RTVSPropertyOp7
 70
     1
102
RTVSPropertyOp8
 70
     1
102
RTVSPropertyOp9
 70
     1
102
RTVSPropertyOp10
 70
     1
102
RTVSPropertyOp11
 70
     1
102
RTVSPropertyOp12
 70
     1
102
RTVSPropertyOp13
 70
     1
102
RTVSPropertyOp14
 70
     1
102
RTVSPropertyOp15
 70
     1
102
RTVSPropertyOp16
 70
     1
102
RTVSPropertyOp17
 70
     1
102
RTVSPropertyOp18
 70
     1
102
RTVSPropertyOp19
 70
     1
102
RTVSPropertyOp20
 70
     1
102
RTVSPropertyOp21
 70
     1
102
RTVSPropertyOp22
 70
     1
102
RTVSPropertyOp23
 70
     1
102
RTVSPropertyOp24
 70
     1
102
RTVSPropertyOp25
 70
     1
102
RTVSPropertyOp26
 70
     1
102
RTVSPropertyOp27
 70
     1
102
RTVSPropertyOp28
 70
     1
102
RTVSPropertyOp29
 70
     1
102
RTVSPropertyOp30
 70
     1
102
RTVSPropertyOp31
 70
     1
102
RTVSPropertyOp32
 70
     1
102
RTVSPropertyOp33
 70
     1
102
RTVSPropertyOp34
 70
     1
102
RTVSPropertyOp35
 70
     1
102
RTVSPropertyOp36
 70
     1
102
RTVSPropertyOp37
 70
     1
102
RTVSPropertyOp38
 70
     1
102
RTVSPropertyOp39
 70
     1
102
RTVSPropertyOp40
 70
     1
102
RTVSPropertyOp41
 70
     1
102
RTVSPropertyOp42
 70
     1
102
RTVSPropertyOp43
 70
     1
102
RTVSPropertyOp44
 70
     1
102
RTVSPropertyOp45
 70
     1
102
RTVSPropertyOp46
 70
     1
102
RTVSPropertyOp47
 70
     1
102
RTVSPropertyOp48
 70
     1
102
RTVSPropertyOp49
 70
     1
102
RTVSPropertyOp50
 70
     1
102
RTVSPropertyOp51
 70
     0
102
RTVSPropertyOp52
 70
     0
102
RTVSPropertyOp53
 70
     1
102
RTVSPropertyOp54
 70
     1
102
RTVSPropertyOp55
 70
     1
102
RTVSPropertyOp56
 70
     1
102
RTVSPropertyOp57
 70
     1
102
RTVSPost2010Prop28
280
     0
102
RTVSPost2010PropOp28
 70
     1
102
RTVSPost2010Prop29
280
     1
102
RTVSPost2010PropOp29
 70
     1
102
RTVSPost2010Prop30
280
     1
102
RTVSPost2010PropOp30
 70
     1
102
RTVSPost2010Prop31
280
     0
102
RTVSPost2010PropOp31
 70
     1
102
RTVSPost2010Prop32
280
     0
102
RTVSPost2010PropOp32
 70
     1
102
RTVSPost2010Prop33
280
     0
102
RTVSPost2010PropOp33
 70
     1
102
RTVSPost2010Prop34
280
     0
102
RTVSPost2010PropOp34
 70
     1
102
RTVSPost2010Prop35
280
     0
102
RTVSPost2010PropOp35
 70
     1
102
RTVSPost2010Prop36
280
     0
102
RTVSPost2010PropOp36
 70
     1
102
RTVSPost2010Prop37
 90
       50
102
RTVSPost2010PropOp37
 70
     1
102
RTVSPost2010Prop38
140
0.0
102
RTVSPost2010PropOp38
 70
     1
102
RTVSPost2010Prop39
140
1.0
102
RTVSPost2010PropOp39
 70
     1
102
RTVSPost2010Prop40
 90
        0
102
RTVSPost2010PropOp40
 70
     1
102
RTVSPost2010Prop41ColorIndex
 90
       18
102
RTVSPost2010Prop41ColorRGB
 90
        0
102
RTVSPost2010PropOp41
 70
     1
102
RTVSPost2010Prop42
 90
       50
102
RTVSPost2010PropOp42
 70
     1
102
RTVSPost2010Prop43
 90
        3
102
RTVSPost2010PropOp43
 70
     1
102
RTVSPost2010Prop44ColorIndex
 90
        5
102
RTVSPost2010Prop44ColorRGB
 90
      255
102
RTVSPost2010PropOp44
 70
     1
102
RTVSPost2010Prop45
280
     0
102
RTVSPost2010PropOp45
 70
     1
102
RTVSPost2010Prop46
 90
       50
102
RTVSPost2010PropOp46
 70
     1
102
RTVSPost2010Prop47
 90
       50
102
RTVSPost2010PropOp47
 70
     1
102
RTVSPost2010Prop48
 90
       50
102
RTVSPost2010PropOp48
 70
     1
102
RTVSPost2010Prop49
280
     0
102
RTVSPost2010PropOp49
 70
     1
102
RTVSPost2010Prop50
 90
       50
102
RTVSPost2010PropOp50
 70
     1
102
RTVSPost2010Prop51ColorIndex
 90
      256
102
RTVSPost2010Prop51ColorRGB
 90
-16777216
102
RTVSPost2010PropOp51
 70
     0
102
RTVSPost2010Prop52
140
1.0
102
RTVSPost2010PropOp52
 70
     0
102
RTVSPost2010Prop53
 90
        2
102
RTVSPost2010PropOp53
 70
     1
102
RTVSPost2010Prop54
  1
strokes_ogs.tif
102
RTVSPost2010PropOp54
 70
     1
102
RTVSPost2010Prop55
280
     0
102
RTVSPost2010PropOp55
 70
     1
102
RTVSPost2010Prop56
140
1.0
102
RTVSPost2010PropOp56
 70
     1
102
RTVSPost2010Prop57
140
1.0
102
RTVSPost2010PropOp57
 70
     1
  0
XRECORD
  5
6ED
102
{ACAD_REACTORS
330
6EC
102
}
330
6EC
100
AcDbXrecord
280
     1
102
RTVSPropertyOp0
 70
     1
102
RTVSPropertyOp1
 70
     1
102
RTVSPropertyOp2
 70
     1
102
RTVSPropertyOp3
 70
     1
102
RTVSPropertyOp4
 70
     1
102
RTVSPropertyOp5
 70
     1
102
RTVSPropertyOp6
 70
     1
102
RTVSPropertyOp7
 70
     1
102
RTVSPropertyOp8
 70
     1
102
RTVSPropertyOp9
 70
     1
102
RTVSPropertyOp10
 70
     1
102
RTVSPropertyOp11
 70
     1
102
RTVSPropertyOp12
 70
     1
102
RTVSPropertyOp13
 70
     1
102
RTVSPropertyOp14
 70
     1
102
RTVSPropertyOp15
 70
     1
102
RTVSPropertyOp16
 70
     1
102
RTVSPropertyOp17
 70
     1
102
RTVSPropertyOp18
 70
     1
102
RTVSPropertyOp19
 70
     1
102
RTVSPropertyOp20
 70
     1
102
RTVSPropertyOp21
 70
     1
102
RTVSPropertyOp22
 70
     1
102
RTVSPropertyOp23
 70
     1
102
RTVSPropertyOp24
 70
     1
102
RTVSPropertyOp25
 70
     1
102
RTVSPropertyOp26
 70
     1
102
RTVSPropertyOp27
 70
     1
102
RTVSPropertyOp28
 70
     1
102
RTVSPropertyOp29
 70
     1
102
RTVSPropertyOp30
 70
     1
102
RTVSPropertyOp31
 70
     1
102
RTVSPropertyOp32
 70
     1
102
RTVSPropertyOp33
 70
     1
102
RTVSPropertyOp34
 70
     1
102
RTVSPropertyOp35
 70
     1
102
RTVSPropertyOp36
 70
     1
102
RTVSPropertyOp37
 70
     1
102
RTVSPropertyOp38
 70
     1
102
RTVSPropertyOp39
 70
     1
102
RTVSPropertyOp40
 70
     1
102
RTVSPropertyOp41
 70
     1
102
RTVSPropertyOp42
 70
     1
102
RTVSPropertyOp43
 70
     1
102
RTVSPropertyOp44
 70
     1
102
RTVSPropertyOp45
 70
     1
102
RTVSPropertyOp46
 70
     1
102
RTVSPropertyOp47
 70
     1
102
RTVSPropertyOp48
 70
     1
102
RTVSPropertyOp49
 70
     1
102
RTVSPropertyOp50
 70
     1
102
RTVSPropertyOp51
 70
     0
102
RTVSPropertyOp52
 70
     0
102
RTVSPropertyOp53
 70
     1
102
RTVSPropertyOp54
 70
     1
102
RTVSPropertyOp55
 70
     1
102
RTVSPropertyOp56
 70
     1
102
RTVSPropertyOp57
 70
     1
102
RTVSPost2010Prop28
280
     0
102
RTVSPost2010PropOp28
 70
     1
102
RTVSPost2010Prop29
280
     1
102
RTVSPost2010PropOp29
 70
     1
102
RTVSPost2010Prop30
280
     1
102
RTVSPost2010PropOp30
 70
     1
102
RTVSPost2010Prop31
280
     0
102
RTVSPost2010PropOp31
 70
     1
102
RTVSPost2010Prop32
280
     0
102
RTVSPost2010PropOp32
 70
     1
102
RTVSPost2010Prop33
280
     0
102
RTVSPost2010PropOp33
 70
     1
102
RTVSPost2010Prop34
280
     0
102
RTVSPost2010PropOp34
 70
     1
102
RTVSPost2010Prop35
280
     0
102
RTVSPost2010PropOp35
 70
     1
102
RTVSPost2010Prop36
280
     0
102
RTVSPost2010PropOp36
 70
     1
102
RTVSPost2010Prop37
 90
       50
102
RTVSPost2010PropOp37
 70
     1
102
RTVSPost2010Prop38
140
0.0
102
RTVSPost2010PropOp38
 70
     1
102
RTVSPost2010Prop39
140
1.0
102
RTVSPost2010PropOp39
 70
     1
102
RTVSPost2010Prop40
 90
        0
102
RTVSPost2010PropOp40
 70
     1
102
RTVSPost2010Prop41ColorIndex
 90
       18
102
RTVSPost2010Prop41ColorRGB
 90
        0
102
RTVSPost2010PropOp41
 70
     1
102
RTVSPost2010Prop42
 90
       50
102
RTVSPost2010PropOp42
 70
     1
102
RTVSPost2010Prop43
 90
        3
102
RTVSPost2010PropOp43
 70
     1
102
RTVSPost2010Prop44ColorIndex
 90
        5
102
RTVSPost2010Prop44ColorRGB
 90
      255
102
RTVSPost2010PropOp44
 70
     1
102
RTVSPost2010Prop45
280
     0
102
RTVSPost2010PropOp45
 70
     1
102
RTVSPost2010Prop46
 90
       50
102
RTVSPost2010PropOp46
 70
     1
102
RTVSPost2010Prop47
 90
       50
102
RTVSPost2010PropOp47
 70
     1
102
RTVSPost2010Prop48
 90
       50
102
RTVSPost2010PropOp48
 70
     1
102
RTVSPost2010Prop49
280
     0
102
RTVSPost2010PropOp49
 70
     1
102
RTVSPost2010Prop50
 90
       50
102
RTVSPost2010PropOp50
 70
     1
102
RTVSPost2010Prop51ColorIndex
 90
      256
102
RTVSPost2010Prop51ColorRGB
 90
-16777216
102
RTVSPost2010PropOp51
 70
     0
102
RTVSPost2010Prop52
140
1.0
102
RTVSPost2010PropOp52
 70
     0
102
RTVSPost2010Prop53
 90
        2
102
RTVSPost2010PropOp53
 70
     1
102
RTVSPost2010Prop54
  1
strokes_ogs.tif
102
RTVSPost2010PropOp54
 70
     1
102
RTVSPost2010Prop55
280
     0
102
RTVSPost2010PropOp55
 70
     1
102
RTVSPost2010Prop56
140
1.0
102
RTVSPost2010PropOp56
 70
     1
102
RTVSPost2010Prop57
140
1.0
102
RTVSPost2010PropOp57
 70
     1
  0
XRECORD
  5
6EF
102
{ACAD_REACTORS
330
6EE
102
}
330
6EE
100
AcDbXrecord
280
     1
102
RTVSPropertyOp0
 70
     1
102
RTVSPropertyOp1
 70
     1
102
RTVSPropertyOp2
 70
     1
102
RTVSPropertyOp3
 70
     1
102
RTVSPropertyOp4
 70
     1
102
RTVSPropertyOp5
 70
     1
102
RTVSPropertyOp6
 70
     1
102
RTVSPropertyOp7
 70
     1
102
RTVSPropertyOp8
 70
     1
102
RTVSPropertyOp9
 70
     1
102
RTVSPropertyOp10
 70
     1
102
RTVSPropertyOp11
 70
     1
102
RTVSPropertyOp12
 70
     1
102
RTVSPropertyOp13
 70
     1
102
RTVSPropertyOp14
 70
     1
102
RTVSPropertyOp15
 70
     1
102
RTVSPropertyOp16
 70
     1
102
RTVSPropertyOp17
 70
     1
102
RTVSPropertyOp18
 70
     1
102
RTVSPropertyOp19
 70
     1
102
RTVSPropertyOp20
 70
     1
102
RTVSPropertyOp21
 70
     1
102
RTVSPropertyOp22
 70
     1
102
RTVSPropertyOp23
 70
     1
102
RTVSPropertyOp24
 70
     1
102
RTVSPropertyOp25
 70
     1
102
RTVSPropertyOp26
 70
     1
102
RTVSPropertyOp27
 70
     1
102
RTVSPropertyOp28
 70
     1
102
RTVSPropertyOp29
 70
     1
102
RTVSPropertyOp30
 70
     1
102
RTVSPropertyOp31
 70
     1
102
RTVSPropertyOp32
 70
     1
102
RTVSPropertyOp33
 70
     1
102
RTVSPropertyOp34
 70
     1
102
RTVSPropertyOp35
 70
     1
102
RTVSPropertyOp36
 70
     1
102
RTVSPropertyOp37
 70
     1
102
RTVSPropertyOp38
 70
     1
102
RTVSPropertyOp39
 70
     1
102
RTVSPropertyOp40
 70
     1
102
RTVSPropertyOp41
 70
     1
102
RTVSPropertyOp42
 70
     1
102
RTVSPropertyOp43
 70
     1
102
RTVSPropertyOp44
 70
     1
102
RTVSPropertyOp45
 70
     1
102
RTVSPropertyOp46
 70
     1
102
RTVSPropertyOp47
 70
     1
102
RTVSPropertyOp48
 70
     1
102
RTVSPropertyOp49
 70
     1
102
RTVSPropertyOp50
 70
     1
102
RTVSPropertyOp51
 70
     0
102
RTVSPropertyOp52
 70
     0
102
RTVSPropertyOp53
 70
     1
102
RTVSPropertyOp54
 70
     1
102
RTVSPropertyOp55
 70
     1
102
RTVSPropertyOp56
 70
     1
102
RTVSPropertyOp57
 70
     1
102
RTVSPost2010Prop28
280
     0
102
RTVSPost2010PropOp28
 70
     1
102
RTVSPost2010Prop29
280
     1
102
RTVSPost2010PropOp29
 70
     1
102
RTVSPost2010Prop30
280
     1
102
RTVSPost2010PropOp30
 70
     1
102
RTVSPost2010Prop31
280
     0
102
RTVSPost2010PropOp31
 70
     1
102
RTVSPost2010Prop32
280
     0
102
RTVSPost2010PropOp32
 70
     1
102
RTVSPost2010Prop33
280
     0
102
RTVSPost2010PropOp33
 70
     1
102
RTVSPost2010Prop34
280
     0
102
RTVSPost2010PropOp34
 70
     1
102
RTVSPost2010Prop35
280
     0
102
RTVSPost2010PropOp35
 70
     1
102
RTVSPost2010Prop36
280
     0
102
RTVSPost2010PropOp36
 70
     1
102
RTVSPost2010Prop37
 90
       50
102
RTVSPost2010PropOp37
 70
     1
102
RTVSPost2010Prop38
140
0.0
102
RTVSPost2010PropOp38
 70
     1
102
RTVSPost2010Prop39
140
1.0
102
RTVSPost2010PropOp39
 70
     1
102
RTVSPost2010Prop40
 90
        0
102
RTVSPost2010PropOp40
 70
     1
102
RTVSPost2010Prop41ColorIndex
 90
       18
102
RTVSPost2010Prop41ColorRGB
 90
        0
102
RTVSPost2010PropOp41
 70
     1
102
RTVSPost2010Prop42
 90
       50
102
RTVSPost2010PropOp42
 70
     1
102
RTVSPost2010Prop43
 90
        3
102
RTVSPost2010PropOp43
 70
     1
102
RTVSPost2010Prop44ColorIndex
 90
        5
102
RTVSPost2010Prop44ColorRGB
 90
      255
102
RTVSPost2010PropOp44
 70
     1
102
RTVSPost2010Prop45
280
     0
102
RTVSPost2010PropOp45
 70
     1
102
RTVSPost2010Prop46
 90
       50
102
RTVSPost2010PropOp46
 70
     1
102
RTVSPost2010Prop47
 90
       50
102
RTVSPost2010PropOp47
 70
     1
102
RTVSPost2010Prop48
 90
       50
102
RTVSPost2010PropOp48
 70
     1
102
RTVSPost2010Prop49
280
     0
102
RTVSPost2010PropOp49
 70
     1
102
RTVSPost2010Prop50
 90
       50
102
RTVSPost2010PropOp50
 70
     1
102
RTVSPost2010Prop51ColorIndex
 90
      256
102
RTVSPost2010Prop51ColorRGB
 90
-16777216
102
RTVSPost2010PropOp51
 70
     0
102
RTVSPost2010Prop52
140
1.0
102
RTVSPost2010PropOp52
 70
     0
102
RTVSPost2010Prop53
 90
        2
102
RTVSPost2010PropOp53
 70
     1
102
RTVSPost2010Prop54
  1
strokes_ogs.tif
102
RTVSPost2010PropOp54
 70
     1
102
RTVSPost2010Prop55
280
     0
102
RTVSPost2010PropOp55
 70
     1
102
RTVSPost2010Prop56
140
1.0
102
RTVSPost2010PropOp56
 70
     1
102
RTVSPost2010Prop57
140
1.0
102
RTVSPost2010PropOp57
 70
     1
  0
XRECORD
  5
6F1
102
{ACAD_REACTORS
330
6F0
102
}
330
6F0
100
AcDbXrecord
280
     1
102
RTVSPropertyOp0
 70
     1
102
RTVSPropertyOp1
 70
     1
102
RTVSPropertyOp2
 70
     1
102
RTVSPropertyOp3
 70
     1
102
RTVSPropertyOp4
 70
     1
102
RTVSPropertyOp5
 70
     1
102
RTVSPropertyOp6
 70
     1
102
RTVSPropertyOp7
 70
     1
102
RTVSPropertyOp8
 70
     1
102
RTVSPropertyOp9
 70
     1
102
RTVSPropertyOp10
 70
     1
102
RTVSPropertyOp11
 70
     1
102
RTVSPropertyOp12
 70
     1
102
RTVSPropertyOp13
 70
     1
102
RTVSPropertyOp14
 70
     1
102
RTVSPropertyOp15
 70
     1
102
RTVSPropertyOp16
 70
     1
102
RTVSPropertyOp17
 70
     1
102
RTVSPropertyOp18
 70
     1
102
RTVSPropertyOp19
 70
     1
102
RTVSPropertyOp20
 70
     1
102
RTVSPropertyOp21
 70
     1
102
RTVSPropertyOp22
 70
     1
102
RTVSPropertyOp23
 70
     1
102
RTVSPropertyOp24
 70
     1
102
RTVSPropertyOp25
 70
     1
102
RTVSPropertyOp26
 70
     1
102
RTVSPropertyOp27
 70
     1
102
RTVSPropertyOp28
 70
     1
102
RTVSPropertyOp29
 70
     1
102
RTVSPropertyOp30
 70
     1
102
RTVSPropertyOp31
 70
     1
102
RTVSPropertyOp32
 70
     1
102
RTVSPropertyOp33
 70
     1
102
RTVSPropertyOp34
 70
     1
102
RTVSPropertyOp35
 70
     1
102
RTVSPropertyOp36
 70
     1
102
RTVSPropertyOp37
 70
     1
102
RTVSPropertyOp38
 70
     1
102
RTVSPropertyOp39
 70
     1
102
RTVSPropertyOp40
 70
     1
102
RTVSPropertyOp41
 70
     1
102
RTVSPropertyOp42
 70
     1
102
RTVSPropertyOp43
 70
     1
102
RTVSPropertyOp44
 70
     1
102
RTVSPropertyOp45
 70
     1
102
RTVSPropertyOp46
 70
     1
102
RTVSPropertyOp47
 70
     1
102
RTVSPropertyOp48
 70
     1
102
RTVSPropertyOp49
 70
     1
102
RTVSPropertyOp50
 70
     1
102
RTVSPropertyOp51
 70
     0
102
RTVSPropertyOp52
 70
     0
102
RTVSPropertyOp53
 70
     1
102
RTVSPropertyOp54
 70
     1
102
RTVSPropertyOp55
 70
     1
102
RTVSPropertyOp56
 70
     1
102
RTVSPropertyOp57
 70
     1
102
RTVSPost2010Prop28
280
     0
102
RTVSPost2010PropOp28
 70
     1
102
RTVSPost2010Prop29
280
     1
102
RTVSPost2010PropOp29
 70
     1
102
RTVSPost2010Prop30
280
     1
102
RTVSPost2010PropOp30
 70
     1
102
RTVSPost2010Prop31
280
     0
102
RTVSPost2010PropOp31
 70
     1
102
RTVSPost2010Prop32
280
     0
102
RTVSPost2010PropOp32
 70
     1
102
RTVSPost2010Prop33
280
     0
102
RTVSPost2010PropOp33
 70
     1
102
RTVSPost2010Prop34
280
     0
102
RTVSPost2010PropOp34
 70
     1
102
RTVSPost2010Prop35
280
     0
102
RTVSPost2010PropOp35
 70
     1
102
RTVSPost2010Prop36
280
     0
102
RTVSPost2010PropOp36
 70
     1
102
RTVSPost2010Prop37
 90
       50
102
RTVSPost2010PropOp37
 70
     1
102
RTVSPost2010Prop38
140
0.0
102
RTVSPost2010PropOp38
 70
     1
102
RTVSPost2010Prop39
140
1.0
102
RTVSPost2010PropOp39
 70
     1
102
RTVSPost2010Prop40
 90
        0
102
RTVSPost2010PropOp40
 70
     1
102
RTVSPost2010Prop41ColorIndex
 90
       18
102
RTVSPost2010Prop41ColorRGB
 90
        0
102
RTVSPost2010PropOp41
 70
     1
102
RTVSPost2010Prop42
 90
       50
102
RTVSPost2010PropOp42
 70
     1
102
RTVSPost2010Prop43
 90
        3
102
RTVSPost2010PropOp43
 70
     1
102
RTVSPost2010Prop44ColorIndex
 90
        5
102
RTVSPost2010Prop44ColorRGB
 90
      255
102
RTVSPost2010PropOp44
 70
     1
102
RTVSPost2010Prop45
280
     0
102
RTVSPost2010PropOp45
 70
     1
102
RTVSPost2010Prop46
 90
       50
102
RTVSPost2010PropOp46
 70
     1
102
RTVSPost2010Prop47
 90
       50
102
RTVSPost2010PropOp47
 70
     1
102
RTVSPost2010Prop48
 90
       50
102
RTVSPost2010PropOp48
 70
     1
102
RTVSPost2010Prop49
280
     0
102
RTVSPost2010PropOp49
 70
     1
102
RTVSPost2010Prop50
 90
       50
102
RTVSPost2010PropOp50
 70
     1
102
RTVSPost2010Prop51ColorIndex
 90
      256
102
RTVSPost2010Prop51ColorRGB
 90
-16777216
102
RTVSPost2010PropOp51
 70
     0
102
RTVSPost2010Prop52
140
1.0
102
RTVSPost2010PropOp52
 70
     0
102
RTVSPost2010Prop53
 90
        2
102
RTVSPost2010PropOp53
 70
     1
102
RTVSPost2010Prop54
  1
strokes_ogs.tif
102
RTVSPost2010PropOp54
 70
     1
102
RTVSPost2010Prop55
280
     0
102
RTVSPost2010PropOp55
 70
     1
102
RTVSPost2010Prop56
140
1.0
102
RTVSPost2010PropOp56
 70
     1
102
RTVSPost2010Prop57
140
1.0
102
RTVSPost2010PropOp57
 70
     1
  0
XRECORD
  5
6F3
102
{ACAD_REACTORS
330
6F2
102
}
330
6F2
100
AcDbXrecord
280
     1
102
RTVSPropertyOp0
 70
     1
102
RTVSPropertyOp1
 70
     1
102
RTVSPropertyOp2
 70
     1
102
RTVSPropertyOp3
 70
     1
102
RTVSPropertyOp4
 70
     1
102
RTVSPropertyOp5
 70
     1
102
RTVSPropertyOp6
 70
     1
102
RTVSPropertyOp7
 70
     1
102
RTVSPropertyOp8
 70
     1
102
RTVSPropertyOp9
 70
     1
102
RTVSPropertyOp10
 70
     1
102
RTVSPropertyOp11
 70
     1
102
RTVSPropertyOp12
 70
     1
102
RTVSPropertyOp13
 70
     1
102
RTVSPropertyOp14
 70
     1
102
RTVSPropertyOp15
 70
     1
102
RTVSPropertyOp16
 70
     1
102
RTVSPropertyOp17
 70
     1
102
RTVSPropertyOp18
 70
     1
102
RTVSPropertyOp19
 70
     1
102
RTVSPropertyOp20
 70
     1
102
RTVSPropertyOp21
 70
     1
102
RTVSPropertyOp22
 70
     1
102
RTVSPropertyOp23
 70
     1
102
RTVSPropertyOp24
 70
     1
102
RTVSPropertyOp25
 70
     1
102
RTVSPropertyOp26
 70
     1
102
RTVSPropertyOp27
 70
     1
102
RTVSPropertyOp28
 70
     1
102
RTVSPropertyOp29
 70
     1
102
RTVSPropertyOp30
 70
     1
102
RTVSPropertyOp31
 70
     1
102
RTVSPropertyOp32
 70
     1
102
RTVSPropertyOp33
 70
     1
102
RTVSPropertyOp34
 70
     1
102
RTVSPropertyOp35
 70
     1
102
RTVSPropertyOp36
 70
     1
102
RTVSPropertyOp37
 70
     1
102
RTVSPropertyOp38
 70
     1
102
RTVSPropertyOp39
 70
     1
102
RTVSPropertyOp40
 70
     1
102
RTVSPropertyOp41
 70
     1
102
RTVSPropertyOp42
 70
     1
102
RTVSPropertyOp43
 70
     1
102
RTVSPropertyOp44
 70
     1
102
RTVSPropertyOp45
 70
     1
102
RTVSPropertyOp46
 70
     1
102
RTVSPropertyOp47
 70
     1
102
RTVSPropertyOp48
 70
     1
102
RTVSPropertyOp49
 70
     1
102
RTVSPropertyOp50
 70
     1
102
RTVSPropertyOp51
 70
     0
102
RTVSPropertyOp52
 70
     0
102
RTVSPropertyOp53
 70
     1
102
RTVSPropertyOp54
 70
     1
102
RTVSPropertyOp55
 70
     1
102
RTVSPropertyOp56
 70
     1
102
RTVSPropertyOp57
 70
     1
102
RTVSPost2010Prop28
280
     0
102
RTVSPost2010PropOp28
 70
     1
102
RTVSPost2010Prop29
280
     1
102
RTVSPost2010PropOp29
 70
     1
102
RTVSPost2010Prop30
280
     1
102
RTVSPost2010PropOp30
 70
     1
102
RTVSPost2010Prop31
280
     0
102
RTVSPost2010PropOp31
 70
     1
102
RTVSPost2010Prop32
280
     0
102
RTVSPost2010PropOp32
 70
     1
102
RTVSPost2010Prop33
280
     0
102
RTVSPost2010PropOp33
 70
     1
102
RTVSPost2010Prop34
280
     0
102
RTVSPost2010PropOp34
 70
     1
102
RTVSPost2010Prop35
280
     0
102
RTVSPost2010PropOp35
 70
     1
102
RTVSPost2010Prop36
280
     0
102
RTVSPost2010PropOp36
 70
     1
102
RTVSPost2010Prop37
 90
       50
102
RTVSPost2010PropOp37
 70
     1
102
RTVSPost2010Prop38
140
0.0
102
RTVSPost2010PropOp38
 70
     1
102
RTVSPost2010Prop39
140
1.0
102
RTVSPost2010PropOp39
 70
     1
102
RTVSPost2010Prop40
 90
        0
102
RTVSPost2010PropOp40
 70
     1
102
RTVSPost2010Prop41ColorIndex
 90
       18
102
RTVSPost2010Prop41ColorRGB
 90
        0
102
RTVSPost2010PropOp41
 70
     1
102
RTVSPost2010Prop42
 90
       50
102
RTVSPost2010PropOp42
 70
     1
102
RTVSPost2010Prop43
 90
        3
102
RTVSPost2010PropOp43
 70
     1
102
RTVSPost2010Prop44ColorIndex
 90
        5
102
RTVSPost2010Prop44ColorRGB
 90
      255
102
RTVSPost2010PropOp44
 70
     1
102
RTVSPost2010Prop45
280
     0
102
RTVSPost2010PropOp45
 70
     1
102
RTVSPost2010Prop46
 90
       50
102
RTVSPost2010PropOp46
 70
     1
102
RTVSPost2010Prop47
 90
       50
102
RTVSPost2010PropOp47
 70
     1
102
RTVSPost2010Prop48
 90
       50
102
RTVSPost2010PropOp48
 70
     1
102
RTVSPost2010Prop49
280
     0
102
RTVSPost2010PropOp49
 70
     1
102
RTVSPost2010Prop50
 90
       50
102
RTVSPost2010PropOp50
 70
     1
102
RTVSPost2010Prop51ColorIndex
 90
      256
102
RTVSPost2010Prop51ColorRGB
 90
-16777216
102
RTVSPost2010PropOp51
 70
     0
102
RTVSPost2010Prop52
140
1.0
102
RTVSPost2010PropOp52
 70
     0
102
RTVSPost2010Prop53
 90
        2
102
RTVSPost2010PropOp53
 70
     1
102
RTVSPost2010Prop54
  1
strokes_ogs.tif
102
RTVSPost2010PropOp54
 70
     1
102
RTVSPost2010Prop55
280
     0
102
RTVSPost2010PropOp55
 70
     1
102
RTVSPost2010Prop56
140
1.0
102
RTVSPost2010PropOp56
 70
     1
102
RTVSPost2010Prop57
140
1.0
102
RTVSPost2010PropOp57
 70
     1
  0
XRECORD
  5
6F5
102
{ACAD_REACTORS
330
6F4
102
}
330
6F4
100
AcDbXrecord
280
     1
102
RTVSPropertyOp0
 70
     1
102
RTVSPropertyOp1
 70
     1
102
RTVSPropertyOp2
 70
     1
102
RTVSPropertyOp3
 70
     1
102
RTVSPropertyOp4
 70
     1
102
RTVSPropertyOp5
 70
     1
102
RTVSPropertyOp6
 70
     1
102
RTVSPropertyOp7
 70
     1
102
RTVSPropertyOp8
 70
     1
102
RTVSPropertyOp9
 70
     1
102
RTVSPropertyOp10
 70
     1
102
RTVSPropertyOp11
 70
     1
102
RTVSPropertyOp12
 70
     1
102
RTVSPropertyOp13
 70
     1
102
RTVSPropertyOp14
 70
     1
102
RTVSPropertyOp15
 70
     1
102
RTVSPropertyOp16
 70
     1
102
RTVSPropertyOp17
 70
     1
102
RTVSPropertyOp18
 70
     1
102
RTVSPropertyOp19
 70
     1
102
RTVSPropertyOp20
 70
     1
102
RTVSPropertyOp21
 70
     1
102
RTVSPropertyOp22
 70
     1
102
RTVSPropertyOp23
 70
     1
102
RTVSPropertyOp24
 70
     1
102
RTVSPropertyOp25
 70
     1
102
RTVSPropertyOp26
 70
     1
102
RTVSPropertyOp27
 70
     1
102
RTVSPropertyOp28
 70
     1
102
RTVSPropertyOp29
 70
     1
102
RTVSPropertyOp30
 70
     1
102
RTVSPropertyOp31
 70
     1
102
RTVSPropertyOp32
 70
     1
102
RTVSPropertyOp33
 70
     1
102
RTVSPropertyOp34
 70
     1
102
RTVSPropertyOp35
 70
     1
102
RTVSPropertyOp36
 70
     1
102
RTVSPropertyOp37
 70
     1
102
RTVSPropertyOp38
 70
     1
102
RTVSPropertyOp39
 70
     1
102
RTVSPropertyOp40
 70
     1
102
RTVSPropertyOp41
 70
     1
102
RTVSPropertyOp42
 70
     1
102
RTVSPropertyOp43
 70
     1
102
RTVSPropertyOp44
 70
     1
102
RTVSPropertyOp45
 70
     1
102
RTVSPropertyOp46
 70
     1
102
RTVSPropertyOp47
 70
     1
102
RTVSPropertyOp48
 70
     1
102
RTVSPropertyOp49
 70
     1
102
RTVSPropertyOp50
 70
     1
102
RTVSPropertyOp51
 70
     0
102
RTVSPropertyOp52
 70
     0
102
RTVSPropertyOp53
 70
     1
102
RTVSPropertyOp54
 70
     1
102
RTVSPropertyOp55
 70
     1
102
RTVSPropertyOp56
 70
     1
102
RTVSPropertyOp57
 70
     1
102
RTVSPost2010Prop28
280
     0
102
RTVSPost2010PropOp28
 70
     1
102
RTVSPost2010Prop29
280
     1
102
RTVSPost2010PropOp29
 70
     1
102
RTVSPost2010Prop30
280
     1
102
RTVSPost2010PropOp30
 70
     1
102
RTVSPost2010Prop31
280
     0
102
RTVSPost2010PropOp31
 70
     1
102
RTVSPost2010Prop32
280
     0
102
RTVSPost2010PropOp32
 70
     1
102
RTVSPost2010Prop33
280
     0
102
RTVSPost2010PropOp33
 70
     1
102
RTVSPost2010Prop34
280
     0
102
RTVSPost2010PropOp34
 70
     1
102
RTVSPost2010Prop35
280
     0
102
RTVSPost2010PropOp35
 70
     1
102
RTVSPost2010Prop36
280
     0
102
RTVSPost2010PropOp36
 70
     1
102
RTVSPost2010Prop37
 90
       50
102
RTVSPost2010PropOp37
 70
     1
102
RTVSPost2010Prop38
140
0.0
102
RTVSPost2010PropOp38
 70
     1
102
RTVSPost2010Prop39
140
1.0
102
RTVSPost2010PropOp39
 70
     1
102
RTVSPost2010Prop40
 90
        0
102
RTVSPost2010PropOp40
 70
     1
102
RTVSPost2010Prop41ColorIndex
 90
       18
102
RTVSPost2010Prop41ColorRGB
 90
        0
102
RTVSPost2010PropOp41
 70
     1
102
RTVSPost2010Prop42
 90
       50
102
RTVSPost2010PropOp42
 70
     1
102
RTVSPost2010Prop43
 90
        3
102
RTVSPost2010PropOp43
 70
     1
102
RTVSPost2010Prop44ColorIndex
 90
        5
102
RTVSPost2010Prop44ColorRGB
 90
      255
102
RTVSPost2010PropOp44
 70
     1
102
RTVSPost2010Prop45
280
     0
102
RTVSPost2010PropOp45
 70
     1
102
RTVSPost2010Prop46
 90
       50
102
RTVSPost2010PropOp46
 70
     1
102
RTVSPost2010Prop47
 90
       50
102
RTVSPost2010PropOp47
 70
     1
102
RTVSPost2010Prop48
 90
       50
102
RTVSPost2010PropOp48
 70
     1
102
RTVSPost2010Prop49
280
     0
102
RTVSPost2010PropOp49
 70
     1
102
RTVSPost2010Prop50
 90
       50
102
RTVSPost2010PropOp50
 70
     1
102
RTVSPost2010Prop51ColorIndex
 90
      256
102
RTVSPost2010Prop51ColorRGB
 90
-16777216
102
RTVSPost2010PropOp51
 70
     0
102
RTVSPost2010Prop52
140
1.0
102
RTVSPost2010PropOp52
 70
     0
102
RTVSPost2010Prop53
 90
        2
102
RTVSPost2010PropOp53
 70
     1
102
RTVSPost2010Prop54
  1
strokes_ogs.tif
102
RTVSPost2010PropOp54
 70
     1
102
RTVSPost2010Prop55
280
     0
102
RTVSPost2010PropOp55
 70
     1
102
RTVSPost2010Prop56
140
1.0
102
RTVSPost2010PropOp56
 70
     1
102
RTVSPost2010Prop57
140
1.0
102
RTVSPost2010PropOp57
 70
     1
  0
ENDSEC
  0
EOF
