  0
SECTION
  2
HEADER
  9
$ACADVER
  1
AC1015
  9
$ACADMAINTVER
 70
    20
  9
$DWGCODEPAGE
  3
ANSI_932
  9
$INSBASE
 10
0.0
 20
0.0
 30
0.0
  9
$EXTMIN
 10
345.26651
 20
293.3318799999999
 30
0.0
  9
$EXTMAX
 10
939.26654
 20
713.33191
 30
0.0
  9
$LIMMIN
 10
345.26654
 20
293.3318799999999
  9
$LIMMAX
 10
939.26654
 20
713.3318799999999
  9
$ORTHOMODE
 70
     0
  9
$REGENMODE
 70
     1
  9
$FILLMODE
 70
     1
  9
$QTEXTMODE
 70
     0
  9
$MIRRTEXT
 70
     0
  9
$LTSCALE
 40
1.0
  9
$ATTMODE
 70
     1
  9
$TEXTSIZE
 40
0.2
  9
$TRACEWID
 40
0.05
  9
$TEXTSTYLE
  7
STANDARD
  9
$CLAYER
  8
0
  9
$CELTYPE
  6
CONTINUOUS
  9
$CECOLOR
 62
   256
  9
$CELTSCALE
 40
1.0
  9
$DISPSILH
 70
     0
  9
$DIMSCALE
 40
1.0
  9
$DIMASZ
 40
1.0
  9
$DIMEXO
 40
2.54
  9
$DIMDLI
 40
0.38
  9
$DIMRND
 40
0.0
  9
$DIMDLE
 40
0.0
  9
$DIMEXE
 40
2.54
  9
$DIMTP
 40
0.0
  9
$DIMTM
 40
0.0
  9
$DIMTXT
 40
3.2
  9
$DIMCEN
 40
0.09
  9
$DIMTSZ
 40
0.0
  9
$DIMTOL
 70
     0
  9
$DIMLIM
 70
     0
  9
$DIMTIH
 70
     0
  9
$DIMTOH
 70
     0
  9
$DIMSE1
 70
     0
  9
$DIMSE2
 70
     0
  9
$DIMTAD
 70
     1
  9
$DIMZIN
 70
     0
  9
$DIMBLK
  1

  9
$DIMASO
 70
     1
  9
$DIMSHO
 70
     0
  9
$DIMPOST
  1

  9
$DIMAPOST
  1

  9
$DIMALT
 70
     0
  9
$DIMALTD
 70
     2
  9
$DIMALTF
 40
25.4
  9
$DIMLFAC
 40
1.0
  9
$DIMTOFL
 70
     0
  9
$DIMTVP
 40
1.0
  9
$DIMTIX
 70
     0
  9
$DIMSOXD
 70
     0
  9
$DIMSAH
 70
     1
  9
$DIMBLK1
  1

  9
$DIMBLK2
  1

  9
$DIMSTYLE
  2
Standard
  9
$DIMCLRD
 70
     0
  9
$DIMCLRE
 70
     0
  9
$DIMCLRT
 70
     0
  9
$DIMTFAC
 40
1.0
  9
$DIMGAP
 40
1.6
  9
$DIMJUST
 70
     0
  9
$DIMSD1
 70
     0
  9
$DIMSD2
 70
     0
  9
$DIMTOLJ
 70
     1
  9
$DIMTZIN
 70
     0
  9
$DIMALTZ
 70
     0
  9
$DIMALTTZ
 70
     0
  9
$DIMUPT
 70
     0
  9
$DIMDEC
 70
     4
  9
$DIMTDEC
 70
     4
  9
$DIMALTU
 70
     2
  9
$DIMALTTD
 70
     2
  9
$DIMTXSTY
  7
STANDARD
  9
$DIMAUNIT
 70
     0
  9
$DIMADEC
 70
     0
  9
$DIMALTRND
 40
0.0
  9
$DIMAZIN
 70
     0
  9
$DIMDSEP
 70
    46
  9
$DIMATFIT
 70
     3
  9
$DIMFRAC
 70
     0
  9
$DIMLDRBLK
  1

  9
$DIMLUNIT
 70
     2
  9
$DIMLWD
 70
    -2
  9
$DIMLWE
 70
    -2
  9
$DIMTMOVE
 70
     0
  9
$LUNITS
 70
     2
  9
$LUPREC
 70
     4
  9
$SKETCHINC
 40
0.1
  9
$FILLETRAD
 40
0.0
  9
$AUNITS
 70
     0
  9
$AUPREC
 70
     0
  9
$MENU
  1
.
  9
$ELEVATION
 40
0.0
  9
$PELEVATION
 40
0.0
  9
$THICKNESS
 40
0.0
  9
$LIMCHECK
 70
     0
  9
$CHAMFERA
 40
0.0
  9
$CHAMFERB
 40
0.0
  9
$CHAMFERC
 40
0.0
  9
$CHAMFERD
 40
0.0
  9
$SKPOLY
 70
     0
  9
$TDCREATE
 40
2454489.415293507
  9
$TDUCREATE
 40
2454489.040293507
  9
$TDUPDATE
 40
2456358.748763380
  9
$TDUUPDATE
 40
2456358.373763380
  9
$TDINDWG
 40
0.0030418171
  9
$TDUSRTIMER
 40
0.0030418171
  9
$USRTIMER
 70
     1
  9
$ANGBASE
 50
0.0
  9
$ANGDIR
 70
     0
  9
$PDMODE
 70
     0
  9
$PDSIZE
 40
0.0
  9
$PLINEWID
 40
0.0
  9
$SPLFRAME
 70
     0
  9
$SPLINETYPE
 70
     6
  9
$SPLINESEGS
 70
     8
  9
$HANDSEED
  5
4C4
  9
$SURFTAB1
 70
     6
  9
$SURFTAB2
 70
     6
  9
$SURFTYPE
 70
     6
  9
$SURFU
 70
     6
  9
$SURFV
 70
     6
  9
$UCSBASE
  2

  9
$UCSNAME
  2

  9
$UCSORG
 10
0.0
 20
0.0
 30
0.0
  9
$UCSXDIR
 10
1.0
 20
0.0
 30
0.0
  9
$UCSYDIR
 10
0.0
 20
1.0
 30
0.0
  9
$UCSORTHOREF
  2

  9
$UCSORTHOVIEW
 70
     0
  9
$UCSORGTOP
 10
0.0
 20
0.0
 30
0.0
  9
$UCSORGBOTTOM
 10
0.0
 20
0.0
 30
0.0
  9
$UCSORGLEFT
 10
0.0
 20
0.0
 30
0.0
  9
$UCSORGRIGHT
 10
0.0
 20
0.0
 30
0.0
  9
$UCSORGFRONT
 10
0.0
 20
0.0
 30
0.0
  9
$UCSORGBACK
 10
0.0
 20
0.0
 30
0.0
  9
$PUCSBASE
  2

  9
$PUCSNAME
  2

  9
$PUCSORG
 10
0.0
 20
0.0
 30
0.0
  9
$PUCSXDIR
 10
1.0
 20
0.0
 30
0.0
  9
$PUCSYDIR
 10
0.0
 20
1.0
 30
0.0
  9
$PUCSORTHOREF
  2

  9
$PUCSORTHOVIEW
 70
     0
  9
$PUCSORGTOP
 10
0.0
 20
0.0
 30
0.0
  9
$PUCSORGBOTTOM
 10
0.0
 20
0.0
 30
0.0
  9
$PUCSORGLEFT
 10
0.0
 20
0.0
 30
0.0
  9
$PUCSORGRIGHT
 10
0.0
 20
0.0
 30
0.0
  9
$PUCSORGFRONT
 10
0.0
 20
0.0
 30
0.0
  9
$PUCSORGBACK
 10
0.0
 20
0.0
 30
0.0
  9
$USERI1
 70
     0
  9
$USERI2
 70
     0
  9
$USERI3
 70
     0
  9
$USERI4
 70
     0
  9
$USERI5
 70
     0
  9
$USERR1
 40
0.0
  9
$USERR2
 40
0.0
  9
$USERR3
 40
0.0
  9
$USERR4
 40
0.0
  9
$USERR5
 40
0.0
  9
$WORLDVIEW
 70
     1
  9
$SHADEDGE
 70
     3
  9
$SHADEDIF
 70
    70
  9
$TILEMODE
 70
     1
  9
$MAXACTVP
 70
    64
  9
$PINSBASE
 10
0.0
 20
0.0
 30
0.0
  9
$PLIMCHECK
 70
     0
  9
$PEXTMIN
 10
1.000000000000000E+20
 20
1.000000000000000E+20
 30
1.000000000000000E+20
  9
$PEXTMAX
 10
-1.000000000000000E+20
 20
-1.000000000000000E+20
 30
-1.000000000000000E+20
  9
$PLIMMIN
 10
345.26654
 20
293.3318799999999
  9
$PLIMMAX
 10
939.26654
 20
713.3318799999999
  9
$UNITMODE
 70
     0
  9
$VISRETAIN
 70
     1
  9
$PLINEGEN
 70
     0
  9
$PSLTSCALE
 70
     1
  9
$TREEDEPTH
 70
  3020
  9
$CMLSTYLE
  2
Standard
  9
$CMLJUST
 70
     0
  9
$CMLSCALE
 40
1.0
  9
$PROXYGRAPHICS
 70
     1
  9
$MEASUREMENT
 70
     0
  9
$CELWEIGHT
370
    -1
  9
$ENDCAPS
280
     0
  9
$JOINSTYLE
280
     0
  9
$LWDISPLAY
290
     0
  9
$INSUNITS
 70
     0
  9
$HYPERLINKBASE
  1

  9
$STYLESHEET
  1

  9
$XEDIT
290
     1
  9
$CEPSNTYPE
380
     0
  9
$PSTYLEMODE
290
     1
  9
$FINGERPRINTGUID
  2
{2D18C191-CFF5-4223-8D49-ABAFCCF4C721}
  9
$VERSIONGUID
  2
{ADC06E11-FE60-45D5-A209-DD133A995889}
  9
$EXTNAMES
290
     1
  9
$PSVPSCALE
 40
0.0
  9
$OLESTARTUP
290
     0
  0
ENDSEC
  0
SECTION
  2
CLASSES
  0
CLASS
  1
ACDBDICTIONARYWDFLT
  2
AcDbDictionaryWithDefault
  3
ObjectDBX Classes
 90
        0
280
     0
281
     0
  0
CLASS
  1
MATERIAL
  2
AcDbMaterial
  3
ObjectDBX Classes
 90
     1024
280
     0
281
     0
  0
CLASS
  1
VISUALSTYLE
  2
AcDbVisualStyle
  3
ObjectDBX Classes
 90
     4095
280
     0
281
     0
  0
CLASS
  1
TABLESTYLE
  2
AcDbTableStyle
  3
ObjectDBX Classes
 90
     4095
280
     0
281
     0
  0
CLASS
  1
AMGSETTINGSOBJ
  2
AmgSettingsObj
  3
"AcadM|Product Description: AutoCAD Mechanical|Company: Autodesk"
 90
        0
280
     0
281
     0
  0
CLASS
  1
ACME_DOCUMENT
  2
AcMeDbDoc
  3
AcMeServices
 90
        0
280
     0
281
     0
  0
CLASS
  1
ACMESCOPE
  2
AcMeScope
  3
AcMeServices
 90
        0
280
     0
281
     0
  0
CLASS
  1
ACMECOMMANDHISTORY
  2
AcMeCommandHistory
  3
AcMeServices
 90
        0
280
     0
281
     0
  0
CLASS
  1
ACIMSYSVARMAN
  2
AcImSysVarManager
  3
AcMeServices
 90
        0
280
     0
281
     0
  0
CLASS
  1
ACIMINTSYSVAR
  2
AcImIntSysVar
  3
AcMeServices
 90
        0
280
     0
281
     0
  0
CLASS
  1
ACMEDRAWINGMAN
  2
AcMeDrawingMan
  3
AcMeServices
 90
        0
280
     0
281
     0
  0
CLASS
  1
ACMEVIEW
  2
AcMeView
  3
AcMeServices
 90
        0
280
     0
281
     0
  0
CLASS
  1
ACDBENTITYCACHE
  2
AcMeEntityCache
  3
AcMeServices
 90
        0
280
     0
281
     0
  0
CLASS
  1
GSMANAGER
  2
AcMeGSManager
  3
AcMeServices
 90
        0
280
     0
281
     0
  0
CLASS
  1
AMDTINTERNALREACTOR
  2
AmdtInternalReactor
  3
AcMeServices
 90
        0
280
     0
281
     0
  0
CLASS
  1
ACMESTATEMGR
  2
AcMeStateMgr
  3
AcMeServices
 90
        0
280
     0
281
     0
  0
CLASS
  1
ACGREFMASTER
  2
AcGrefMaster
  3
AcAttribServices
 90
        0
280
     0
281
     0
  0
CLASS
  1
AM_DRAWING_MGR
  2
AcDmDwgMgr
  3
AcMechDwgViewMgmt
 90
        0
280
     0
281
     0
  0
CLASS
  1
AM_DWG_DOCUMENT
  2
AcDmDwgDocument
  3
AcMechDwgViewMgmt
 90
        0
280
     0
281
     0
  0
CLASS
  1
AM_DWG_SHEET
  2
AcDmSheet
  3
AcMechDwgViewMgmt
 90
        0
280
     0
281
     0
  0
CLASS
  1
AM_VIEWDIMPARMAP
  2
AcDmViewDimParMap
  3
AcMechDwgViewMgmt
 90
        0
280
     0
281
     0
  0
CLASS
  1
ACIMREALSYSVAR
  2
AcImRealSysVar
  3
AcMeServices
 90
        0
280
     0
281
     0
  0
CLASS
  1
AM_DWGMGR_NAME
  2
AcDmDwgMgrName
  3
AcMechDwgViewMgmt
 90
        0
280
     0
281
     0
  0
CLASS
  1
ACME_DATABASE
  2
AcMeDbDatabase
  3
AcMeServices
 90
        0
280
     0
281
     0
  0
CLASS
  1
ACRFINSADJUSTERMGR
  2
AcRfInsAdjusterMgr
  3
AcMeServices
 90
        0
280
     0
281
     0
  0
CLASS
  1
ACGREFACADMASTER
  2
AcGrefacadMaster
  3
AcGrefServices
 90
        0
280
     0
281
     0
  0
CLASS
  1
AMDTMENUSTATEMGR
  2
AmdtMenuStateMgr
  3
McadcomServices
 90
        0
280
     0
281
     0
  0
CLASS
  1
AMDTMCOMMENUSTATE
  2
AmdtMcomMenuState
  3
McadcomServices
 90
        0
280
     0
281
     0
  0
CLASS
  1
AMIMASTER
  2
AmiMaster
  3
AmiServices
 90
        0
280
     0
281
     0
  0
CLASS
  1
MAPIAMMOUDLE
  2
MApiAmModule
  3
MApiAmServices
 90
        0
280
     0
281
     0
  0
CLASS
  1
ACIMSTRSYSVAR
  2
AcImStrSysVar
  3
AcMeServices
 90
        0
280
     0
281
     0
  0
CLASS
  1
AMDTADMENUSTATE
  2
AmdtAdMenuState
  3
DesignerServices
 90
        0
280
     0
281
     0
  0
CLASS
  1
ADAPPL
  2
AcAdAppl
  3
DesignerServices
 90
        0
280
     0
281
     0
  0
CLASS
  1
DEPMGR
  2
AcAdDepMgr
  3
DesignerServices
 90
        0
280
     0
281
     0
  0
CLASS
  1
PARAMMGR
  2
AcAdParamMgr
  3
DesignerServices
 90
        0
280
     0
281
     0
  0
CLASS
  1
PARAMSCOPE
  2
AcAdParamScope
  3
DesignerServices
 90
        0
280
     0
281
     0
  0
CLASS
  1
NAMEDAPPL
  2
AcAdNamedAppl
  3
DesignerServices
 90
        0
280
     0
281
     0
  0
CLASS
  1
AMDTDMMENUSTATE
  2
AmdtDmMenuState
  3
AcMechDwgViewMgmt
 90
        0
280
     0
281
     0
  0
CLASS
  1
AMDTAMMENUSTATE
  2
AmdtAmMenuState
  3
DesignerAssemblies
 90
        0
280
     0
281
     0
  0
CLASS
  1
ACAMPROJECT
  2
AcAmProject
  3
DesignerAssemblies
 90
        0
280
     0
281
     0
  0
CLASS
  1
ACAMGRCOMPDEF
  2
AcAmGrCompDef
  3
DesignerAssemblies
 90
        0
280
     0
281
     0
  0
CLASS
  1
ACCMCONTEXT
  2
AcCmContext
  3
DesignerAssemblies
 90
        0
280
     0
281
     0
  0
CLASS
  1
ACAMCOMPDEF
  2
AcAmCompDef
  3
DesignerAssemblies
 90
        0
280
     0
281
     0
  0
CLASS
  1
ACAMCOMPDEFMGR
  2
AcAmCompDefMgr
  3
DesignerAssemblies
 90
        0
280
     0
281
     0
  0
CLASS
  1
AMCONTEXTMGR
  2
AcAmContextMgr
  3
DesignerAssemblies
 90
        0
280
     0
281
     0
  0
CLASS
  1
ACAMCONTEXTMODELER
  2
AcAmContextModeler
  3
DesignerAssemblies
 90
        0
280
     0
281
     0
  0
CLASS
  1
ACMDATADICTIONARY
  2
AcmDataDictionary
  3
"AcmSymBB|Product Description: AutoCAD Mechanical|Company: Autodesk"
 90
        0
280
     0
281
     0
  0
CLASS
  1
CATALOGSTATE
  2
AcAmCatalogState
  3
DesignerAssemblies
 90
        0
280
     0
281
     0
  0
CLASS
  1
ACAMGRCOMPDEFSET
  2
AcAmGrCompDefSet
  3
DesignerAssemblies
 90
        0
280
     0
281
     0
  0
CLASS
  1
AMDTBROWSERDBTAB
  2
AmdtBrowserDbTab
  3
McadcomServices
 90
        0
280
     0
281
     0
  0
CLASS
  1
CBROWSERAPPOBJECT
  2
CBrowserAppObject
  3
McadcomServices
 90
        0
280
     0
281
     0
  0
CLASS
  1
DM_PLACEHOLDER
  2
AcDmSelsetPlaceholder
  3
AcMechDwgViewMgmt
 90
        0
280
     0
281
     0
  0
CLASS
  1
ACMSTANDARDANSI
  2
AcmStandardANSI
  3
"Amdt_StdImp|Product Description: AutoCAD Mechanical|Company: Autodesk"
 90
        0
280
     0
281
     0
  0
CLASS
  1
AMGOBJPROPCFG
  2
AmgObjPropCfg
  3
"AmgLay|Product Description: AutoCAD Mechanical|Company: Autodesk"
 90
        1
280
     0
281
     0
  0
CLASS
  1
ACMSURFSTANDARDANSI
  2
AcmSurfTextStdANSI
  3
"Amdt_StdImp|Product Description: AutoCAD Mechanical|Company: Autodesk"
 90
        0
280
     0
281
     0
  0
CLASS
  1
ACMFCFSTANDARDANSI
  2
AcmFCFStdANSI
  3
"Amdt_StdImp|Product Description: AutoCAD Mechanical|Company: Autodesk"
 90
        0
280
     0
281
     0
  0
CLASS
  1
ACMWELDSTANDARDANSI
  2
AcmWeldingStdANSI
  3
"Amdt_StdImp|Product Description: AutoCAD Mechanical|Company: Autodesk"
 90
        0
280
     0
281
     0
  0
CLASS
  1
ACMIDSTANDARDANSI
  2
AcmIdStdANSI
  3
"Amdt_StdImp|Product Description: AutoCAD Mechanical|Company: Autodesk"
 90
        0
280
     0
281
     0
  0
CLASS
  1
ACMDATUMSTANDARDANSI
  2
AcmDatumStdANSI
  3
"Amdt_StdImp|Product Description: AutoCAD Mechanical|Company: Autodesk"
 90
        0
280
     0
281
     0
  0
CLASS
  1
ACMBOMSTANDARDANSI
  2
AcmBOMStdANSI
  3
"Amdt_StdImp|Product Description: AutoCAD Mechanical|Company: Autodesk"
 90
        0
280
     0
281
     0
  0
CLASS
  1
ACMDETAILSTANDARDANSI
  2
AmdtDetailSymStdANSI
  3
"Amdt_StdImp|Product Description: AutoCAD Mechanical|Company: Autodesk"
 90
        0
280
     0
281
     0
  0
CLASS
  1
ACMSECTIONSTANDARDANSI
  2
AmdtSectionSymStdANSI
  3
"Amdt_StdImp|Product Description: AutoCAD Mechanical|Company: Autodesk"
 90
        0
280
     0
281
     0
  0
CLASS
  1
ACMCENTERLINESTANDARDANSI
  2
AmdtCenterLineStdANSI
  3
"Amdt_StdImp|Product Description: AutoCAD Mechanical|Company: Autodesk"
 90
        0
280
     0
281
     0
  0
CLASS
  1
ACMTHREADLINESTANDARDANSI
  2
AmdtThreadLineStdANSI
  3
"Amdt_StdImp|Product Description: AutoCAD Mechanical|Company: Autodesk"
 90
        0
280
     0
281
     0
  0
CLASS
  1
ACMNOTESTANDARDANSI
  2
AmdtNoteStdANSI
  3
"Amdt_StdImp|Product Description: AutoCAD Mechanical|Company: Autodesk"
 90
        0
280
     0
281
     0
  0
CLASS
  1
ACMTAPERSTANDARDANSI
  2
AcmTaperStdANSI
  3
"Amdt_StdImp|Product Description: AutoCAD Mechanical|Company: Autodesk"
 90
        0
280
     0
281
     0
  0
CLASS
  1
AMDTNOTETEMPLATEDB
  2
AmdtNoteTemplateDB
  3
AMDT_STDIMP_MODULE_NAME
 90
        0
280
     0
281
     0
  0
CLASS
  1
ACAMGLAYSTD
  2
AcAmgLayStd
  3
"AmgLay|Product Description: AutoCAD Mechanical|Company: Autodesk"
 90
        0
280
     0
281
     0
  0
CLASS
  1
ACAMGDIMSTD
  2
AcAmgDimStd
  3
"AmgDim|Product Description: AutoCAD Mechanical|Company: Autodesk"
 90
        0
280
     0
281
     0
  0
CLASS
  1
ACAMGHOLECHARTSTDANSI
  2
AcAmgHoleChartStdANSI
  3
ACMSYMBB_MODULE_NAME
 90
        0
280
     0
281
     0
  0
CLASS
  1
ACAMGTITLESTD
  2
AcAmgTitleStd
  3
"AmgTitle|Product Description: AutoCAD Mechanical|Company: Autodesk"
 90
        0
280
     0
281
     0
  0
CLASS
  1
ACAMGFILTERDAT
  2
AcAmgFilterDat
  3
"AcadM|Product Description: AutoCAD Mechanical|Company: Autodesk"
 90
        0
280
     0
281
     0
  0
CLASS
  1
CAMSSTRUCTBTNSTATE
  2
StructBtnState
  3
L"DesignerAssemblies"
 90
        0
280
     0
281
     0
  0
CLASS
  1
DICTIONARYVAR
  2
AcDbDictionaryVar
  3
ObjectDBX Classes
 90
        0
280
     0
281
     0
  0
CLASS
  1
ACDBPLACEHOLDER
  2
AcDbPlaceHolder
  3
ObjectDBX Classes
 90
        0
280
     0
281
     0
  0
CLASS
  1
LAYOUT
  2
AcDbLayout
  3
ObjectDBX Classes
 90
        0
280
     0
281
     0
  0
ENDSEC
  0
SECTION
  2
TABLES
  0
TABLE
  2
VPORT
  5
8
330
0
100
AcDbSymbolTable
 70
     1
  0
VPORT
  5
41
330
8
100
AcDbSymbolTableRecord
100
AcDbViewportTableRecord
  2
*Active
 70
     0
 10
0.0
 20
0.0
 11
1.0
 21
1.0
 12
493.9066334107693
 22
623.8262072625472
 13
0.0
 23
0.0
 14
1.0
 24
1.0
 15
0.0
 25
0.0
 16
0.0
 26
0.0
 36
1.0
 17
0.0
 27
0.0
 37
0.0
 40
234.3637956659479
 41
1.407124681933842
 42
50.0
 43
0.0
 44
0.0
 50
0.0
 51
0.0
 71
     0
 72
   100
 73
     1
 74
     1
 75
     0
 76
     0
 77
     0
 78
     0
281
     0
 65
     0
110
0.0
120
0.0
130
0.0
111
1.0
121
0.0
131
0.0
112
0.0
122
1.0
132
0.0
 79
     0
146
0.0
  0
ENDTAB
  0
TABLE
  2
LTYPE
  5
5
330
0
100
AcDbSymbolTable
 70
    19
  0
LTYPE
  5
28
330
5
100
AcDbSymbolTableRecord
100
AcDbLinetypeTableRecord
  2
ByBlock
 70
     0
  3

 72
    65
 73
     0
 40
0.0
  0
LTYPE
  5
29
330
5
100
AcDbSymbolTableRecord
100
AcDbLinetypeTableRecord
  2
ByLayer
 70
     0
  3

 72
    65
 73
     0
 40
0.0
  0
LTYPE
  5
2A
330
5
100
AcDbSymbolTableRecord
100
AcDbLinetypeTableRecord
  2
CONTINUOUS
 70
     0
  3
Solid line
 72
    65
 73
     0
 40
0.0
  0
LTYPE
  5
3A
330
5
100
AcDbSymbolTableRecord
100
AcDbLinetypeTableRecord
  2
DASHED
 70
     0
  3
__ __ __ __ __ __ __ __ __ __ __ __ __ __ __
 72
    65
 73
     2
 40
3.5
 49
2.0
 74
     0
 49
-1.5
 74
     0
  0
LTYPE
  5
3B
330
5
100
AcDbSymbolTableRecord
100
AcDbLinetypeTableRecord
  2
CENTER
 70
     0
  3
____ _ ____ _ ____ _ ____ _ ____ _ ____ _ ____
 72
    65
 73
     4
 40
17.5
 49
13.0
 74
     0
 49
-1.5
 74
     0
 49
1.5
 74
     0
 49
-1.5
 74
     0
  0
LTYPE
  5
3C
330
5
100
AcDbSymbolTableRecord
100
AcDbLinetypeTableRecord
  2
PHANTOM
 70
     0
  3
_____ _ _ _____ _ _ _____ _ _ _____ _ _ ____  
 72
    65
 73
     6
 40
15.5
 49
8.0
 74
     0
 49
-1.5
 74
     0
 49
1.5
 74
     0
 49
-1.5
 74
     0
 49
1.5
 74
     0
 49
-1.5
 74
     0
  0
LTYPE
  5
3D
330
5
100
AcDbSymbolTableRecord
100
AcDbLinetypeTableRecord
  2
DOT
 70
     0
  3
. . . . . . . . . . . . . . . . . . . . . . . .
 72
    65
 73
     2
 40
0.25
 49
0.0
 74
     0
 49
-0.25
 74
     0
  0
LTYPE
  5
3E
330
5
100
AcDbSymbolTableRecord
100
AcDbLinetypeTableRecord
  2
HIDDEN
 70
     0
  3
__ __ __ __ __ __ __ __ __ __ __ __ __ __ __
 72
    65
 73
     2
 40
3.5
 49
2.0
 74
     0
 49
-1.5
 74
     0
  0
LTYPE
  5
425
330
5
100
AcDbSymbolTableRecord
100
AcDbLinetypeTableRecord
  2
PHANTOM2
 70
     0
  3
Phantom (.5x) ___ _ _ ___ _ _ ___ _ _ ___ _ _
 72
    65
 73
     6
 40
1.25
 49
0.625
 74
     0
 49
-0.125
 74
     0
 49
0.125
 74
     0
 49
-0.125
 74
     0
 49
0.125
 74
     0
 49
-0.125
 74
     0
  0
LTYPE
  5
45A
330
5
100
AcDbSymbolTableRecord
100
AcDbLinetypeTableRecord
  2
AM_ISO02W050
 70
     0
  3
__ __ __ __ __ __ __ __ __ __ __ __ __ __ __
 72
    65
 73
     2
 40
7.5
 49
6.0
 74
     0
 49
-1.5
 74
     0
  0
LTYPE
  5
45B
330
5
100
AcDbSymbolTableRecord
100
AcDbLinetypeTableRecord
  2
AM_ISO08W050
 70
     0
  3
____ . ____ . ____ . ____ . ____ . ____ . ____
 72
    65
 73
     4
 40
18.0
 49
12.0
 74
     0
 49
-1.5
 74
     0
 49
3.0
 74
     0
 49
-1.5
 74
     0
  0
LTYPE
  5
45C
330
5
100
AcDbSymbolTableRecord
100
AcDbLinetypeTableRecord
  2
AM_ISO09W050
 70
     0
  3
_____ . . _____ . . _____ . . ____ .. ____
 72
    65
 73
     6
 40
22.5
 49
12.0
 74
     0
 49
-1.5
 74
     0
 49
3.0
 74
     0
 49
-1.5
 74
     0
 49
3.0
 74
     0
 49
-1.5
 74
     0
  0
LTYPE
  5
45D
330
5
100
AcDbSymbolTableRecord
100
AcDbLinetypeTableRecord
  2
Amconstr
 70
     0
  3
_______________________
 72
    65
 73
     2
 40
9999.0
 49
9999.0
 74
     0
 49
0.0
 74
     0
  0
LTYPE
  5
45E
330
5
100
AcDbSymbolTableRecord
100
AcDbLinetypeTableRecord
  2
AM_ISO08W050x2
 70
     0
  3
__ . __ . __ . __ . __ . __
 72
    65
 73
     4
 40
9.0
 49
6.0
 74
     0
 49
-0.75
 74
     0
 49
1.5
 74
     0
 49
-0.75
 74
     0
  0
LTYPE
  5
45F
330
5
100
AcDbSymbolTableRecord
100
AcDbLinetypeTableRecord
  2
AM_ISO02W050x2
 70
     0
  3
 _ _ _ _ _ _ _ _ _ _ _ _
 72
    65
 73
     2
 40
3.75
 49
3.0
 74
     0
 49
-0.75
 74
     0
  0
LTYPE
  5
462
330
5
100
AcDbSymbolTableRecord
100
AcDbLinetypeTableRecord
  2
Amzigzag
 70
     0
  3
/\/-/\/-/\/-/\/-/\/-/\/
 72
    65
 73
     2
 40
11.0001
 49
0.0001
 74
     4
 75
   136
340
461
 46
0.04
 50
0.0
 44
0.0
 45
0.0
 49
-11.0
 74
     0
  0
LTYPE
  5
463
330
5
100
AcDbSymbolTableRecord
100
AcDbLinetypeTableRecord
  2
CENTER2
 70
     0
  3
Center (.5x) ___ _ ___ _ ___ _ ___ _ ___ _ ___
 72
    65
 73
     4
 40
1.125
 49
0.75
 74
     0
 49
-0.125
 74
     0
 49
0.125
 74
     0
 49
-0.125
 74
     0
  0
LTYPE
  5
464
330
5
100
AcDbSymbolTableRecord
100
AcDbLinetypeTableRecord
  2
HIDDEN2
 70
     0
  3
Hidden (.5x) _ _ _ _ _ _ _ _ _ _ _ _ _ _ _ _ _
 72
    65
 73
     2
 40
0.1875
 49
0.125
 74
     0
 49
-0.0625
 74
     0
  0
LTYPE
  5
465
330
5
100
AcDbSymbolTableRecord
100
AcDbLinetypeTableRecord
  2
Amzigzag2
 70
     0
  3
/\/-/\/-/\/-/\/-/\/-/\/
 72
    65
 73
     2
 40
0.4401
 49
0.0001
 74
     4
 75
   136
340
461
 46
0.0016
 50
0.0
 44
0.0
 45
0.0
 49
-0.4400000000000001
 74
     0
  0
LTYPE
  5
474
330
5
100
AcDbSymbolTableRecord
100
AcDbLinetypeTableRecord
  2
ACANSTGB
 70
     0
  3
__ . . __ . .
 72
    65
 73
     6
 40
0.35433070866
 49
0.15748031496
 74
     0
 49
-0.03937007874
 74
     0
 49
0.03937007874
 74
     0
 49
-0.03937007874
 74
     0
 49
0.03937007874
 74
     0
 49
-0.03937007874
 74
     0
  0
LTYPE
  5
475
330
5
100
AcDbSymbolTableRecord
100
AcDbLinetypeTableRecord
  2
ACANSTGL
 70
     0
  3
_ _ _ _ _
 72
    65
 73
     2
 40
0.11811023622
 49
0.07874015748
 74
     0
 49
-0.03937007874
 74
     0
  0
ENDTAB
  0
TABLE
  2
LAYER
  5
2
330
0
100
AcDbSymbolTable
 70
     1
  0
LAYER
  5
25
330
2
100
AcDbSymbolTableRecord
100
AcDbLayerTableRecord
  2
0
 70
     0
 62
     7
  6
CONTINUOUS
370
    -3
390
F
  0
ENDTAB
  0
TABLE
  2
STYLE
  5
3
330
0
100
AcDbSymbolTable
 70
     4
  0
STYLE
  5
26
330
3
100
AcDbSymbolTableRecord
100
AcDbTextStyleTableRecord
  2
STANDARD
 70
     0
 40
0.0
 41
1.0
 50
0.0
 71
     0
 42
0.2
  3
txt
  4
BIGFONT
  0
STYLE
  5
461
330
3
100
AcDbSymbolTableRecord
100
AcDbTextStyleTableRecord
  2

 70
     1
 40
0.0
 41
1.0
 50
0.0
 71
     0
 42
3.2
  3
genltshp.shx
  4

  0
STYLE
  5
466
330
3
100
AcDbSymbolTableRecord
100
AcDbTextStyleTableRecord
  2
ACANSTS
 70
     0
 40
1.0
 41
1.0
 50
0.0
 71
     0
 42
3.2
  3
romans.shx
  4
extfont.shx
  0
STYLE
  5
473
330
3
100
AcDbSymbolTableRecord
100
AcDbTextStyleTableRecord
  2
ACANSGDT
 70
     0
 40
0.0
 41
1.0
 50
0.0
 71
     0
 42
3.2
  3
amgdt.shx
  4

  0
ENDTAB
  0
TABLE
  2
VIEW
  5
6
330
0
100
AcDbSymbolTable
 70
     0
  0
ENDTAB
  0
TABLE
  2
UCS
  5
7
330
0
100
AcDbSymbolTable
 70
     0
  0
ENDTAB
  0
TABLE
  2
APPID
  5
9
330
0
100
AcDbSymbolTable
 70
     9
  0
APPID
  5
27
330
9
100
AcDbSymbolTableRecord
100
AcDbRegAppTableRecord
  2
ACAD
 70
     0
  0
APPID
  5
3F8
330
9
100
AcDbSymbolTableRecord
100
AcDbRegAppTableRecord
  2
MCAD_NO_VIS
 70
     0
  0
APPID
  5
3F9
330
9
100
AcDbSymbolTableRecord
100
AcDbRegAppTableRecord
  2
ACAD_TEMP_GRAPHIC
 70
     0
  0
APPID
  5
427
330
9
100
AcDbSymbolTableRecord
100
AcDbRegAppTableRecord
  2
AD_DRAW
 70
     0
  0
APPID
  5
42A
330
9
100
AcDbSymbolTableRecord
100
AcDbRegAppTableRecord
  2
ACATTRIBSERVICES
 70
     0
  0
APPID
  5
44B
330
9
100
AcDbSymbolTableRecord
100
AcDbRegAppTableRecord
  2
DESIGNERASSEMBLIES
 70
     0
  0
APPID
  5
451
330
9
100
AcDbSymbolTableRecord
100
AcDbRegAppTableRecord
  2
ACADM_DIM_EDIT
 70
     0
  0
APPID
  5
452
330
9
100
AcDbSymbolTableRecord
100
AcDbRegAppTableRecord
  2
AMDT_DM_ADJ
 70
     0
  0
APPID
  5
4C3
330
9
100
AcDbSymbolTableRecord
100
AcDbRegAppTableRecord
  2
ACAD_DSTYLE_DIMARC_LENGTH_SYMBOL
 70
     0
  0
ENDTAB
  0
TABLE
  2
DIMSTYLE
  5
A
330
0
100
AcDbSymbolTable
 70
     7
100
AcDbDimStyleTable
 71
     0
  0
DIMSTYLE
105
3F1
330
A
100
AcDbSymbolTableRecord
100
AcDbDimStyleTableRecord
  2
Standard
 70
     0
340
26
  0
DIMSTYLE
105
481
330
A
100
AcDbSymbolTableRecord
100
AcDbDimStyleTableRecord
  2
AM_ANSI
 70
     0
  4
mm
 41
0.1
 42
0.05
 43
0.5
 44
0.1
 47
0.1
 48
0.1
 78
     7
 79
     2
140
0.12
141
0.0
146
0.71
147
0.06
176
   256
177
   256
178
     2
274
     4
284
     7
340
26
371
    -1
372
    -1
1001
ACAD_DSTYLE_DIMARC_LENGTH_SYMBOL
1070
   379
1070
     1
  0
DIMSTYLE
105
482
330
A
100
AcDbSymbolTableRecord
100
AcDbDimStyleTableRecord
  2
AM_ANSI$3
 70
     0
  4
mm
 41
0.1
 42
0.05
 43
0.5
 44
0.1
 47
0.1
 48
0.1
 78
     7
 79
     2
140
0.12
141
0.0
146
0.71
147
0.06
176
   256
177
   256
178
     2
274
     4
284
     7
288
     1
289
     0
340
26
371
    -1
372
    -1
1001
ACAD_DSTYLE_DIMARC_LENGTH_SYMBOL
1070
   379
1070
     1
  0
DIMSTYLE
105
483
330
A
100
AcDbSymbolTableRecord
100
AcDbDimStyleTableRecord
  2
AM_ANSI$4
 70
     0
  4
mm
 41
0.1
 42
0.05
 43
0.5
 44
0.1
 47
0.1
 48
0.1
 78
     7
 79
     2
140
0.12
141
0.0
146
0.71
147
0.06
176
   256
177
   256
178
     2
274
     4
284
     7
288
     1
289
     0
340
26
371
    -1
372
    -1
1001
ACAD_DSTYLE_DIMARC_LENGTH_SYMBOL
1070
   379
1070
     1
  0
DIMSTYLE
105
484
330
A
100
AcDbSymbolTableRecord
100
AcDbDimStyleTableRecord
  2
AM_ANSI$7
 70
     0
  4
mm
 41
0.1
 42
0.05
 43
0.5
 44
0.1
 47
0.1
 48
0.1
 78
     7
 79
     2
140
0.24
141
0.0
146
0.71
147
0.06
176
   256
177
   256
178
     2
274
     4
284
     7
340
26
371
    -1
372
    -1
1001
ACAD_DSTYLE_DIMARC_LENGTH_SYMBOL
1070
   379
1070
     1
  0
DIMSTYLE
105
485
330
A
100
AcDbSymbolTableRecord
100
AcDbDimStyleTableRecord
  2
AM_ANSI$SF
 70
     0
  4
mm
 41
0.1
 42
0.05
 43
0.5
 44
0.1
 47
0.1
 48
0.1
 75
     1
 76
     1
 78
     7
 79
     2
140
0.12
141
0.0
146
0.71
147
0.06
176
   256
177
   256
178
     2
274
     4
284
     7
340
26
371
    -1
372
    -1
1001
ACAD_DSTYLE_DIMARC_LENGTH_SYMBOL
1070
   379
1070
     1
  0
DIMSTYLE
105
48A
330
A
100
AcDbSymbolTableRecord
100
AcDbDimStyleTableRecord
  2
AM_ANSI$SH
 70
     0
  4
mm
 41
0.1
 42
0.05
 43
0.5
 44
0.1
 47
0.1
 48
0.1
 75
     1
 76
     1
 78
     7
 79
     2
140
0.12
141
0.0
146
0.71
147
0.06
173
     1
176
   256
177
   256
178
     2
274
     4
284
     7
340
26
343
486
371
    -1
372
    -1
1001
ACAD_DSTYLE_DIMARC_LENGTH_SYMBOL
1070
   379
1070
     1
  0
ENDTAB
  0
TABLE
  2
BLOCK_RECORD
  5
1
330
0
100
AcDbSymbolTable
 70
    56
  0
BLOCK_RECORD
  5
36
330
1
100
AcDbSymbolTableRecord
100
AcDbBlockTableRecord
  2
*Model_Space
340
39
  0
BLOCK_RECORD
  5
32
330
1
100
AcDbSymbolTableRecord
100
AcDbBlockTableRecord
  2
*Paper_Space
340
35
  0
BLOCK_RECORD
  5
42
330
1
100
AcDbSymbolTableRecord
100
AcDbBlockTableRecord
  2
KOZU0001
340
0
102
{BLKREFS
331
3BB
102
}
  0
BLOCK_RECORD
  5
49
330
1
100
AcDbSymbolTableRecord
100
AcDbBlockTableRecord
  2
KOZU0002
340
0
102
{BLKREFS
331
3BC
102
}
  0
BLOCK_RECORD
  5
50
330
1
100
AcDbSymbolTableRecord
100
AcDbBlockTableRecord
  2
KOZU0003
340
0
102
{BLKREFS
331
3BD
102
}
  0
BLOCK_RECORD
  5
57
330
1
100
AcDbSymbolTableRecord
100
AcDbBlockTableRecord
  2
KOZU0004
340
0
102
{BLKREFS
331
3BE
102
}
  0
BLOCK_RECORD
  5
5E
330
1
100
AcDbSymbolTableRecord
100
AcDbBlockTableRecord
  2
KOZU0005
340
0
102
{BLKREFS
331
3BF
102
}
  0
BLOCK_RECORD
  5
65
330
1
100
AcDbSymbolTableRecord
100
AcDbBlockTableRecord
  2
KOZU0006
340
0
102
{BLKREFS
331
3C0
102
}
  0
BLOCK_RECORD
  5
6C
330
1
100
AcDbSymbolTableRecord
100
AcDbBlockTableRecord
  2
KOZU0007
340
0
102
{BLKREFS
331
3C1
102
}
  0
BLOCK_RECORD
  5
73
330
1
100
AcDbSymbolTableRecord
100
AcDbBlockTableRecord
  2
KOZU0008
340
0
102
{BLKREFS
331
3C2
102
}
  0
BLOCK_RECORD
  5
7A
330
1
100
AcDbSymbolTableRecord
100
AcDbBlockTableRecord
  2
KOZU0009
340
0
102
{BLKREFS
331
3C3
102
}
  0
BLOCK_RECORD
  5
81
330
1
100
AcDbSymbolTableRecord
100
AcDbBlockTableRecord
  2
KOZU0010
340
0
102
{BLKREFS
331
3C4
102
}
  0
BLOCK_RECORD
  5
88
330
1
100
AcDbSymbolTableRecord
100
AcDbBlockTableRecord
  2
KOZU0011
340
0
102
{BLKREFS
331
3C5
102
}
  0
BLOCK_RECORD
  5
8F
330
1
100
AcDbSymbolTableRecord
100
AcDbBlockTableRecord
  2
KOZU0012
340
0
102
{BLKREFS
331
3C6
102
}
  0
BLOCK_RECORD
  5
96
330
1
100
AcDbSymbolTableRecord
100
AcDbBlockTableRecord
  2
KOZU0013
340
0
102
{BLKREFS
331
3C7
102
}
  0
BLOCK_RECORD
  5
9D
330
1
100
AcDbSymbolTableRecord
100
AcDbBlockTableRecord
  2
KOZU0014
340
0
102
{BLKREFS
331
3C8
102
}
  0
BLOCK_RECORD
  5
A4
330
1
100
AcDbSymbolTableRecord
100
AcDbBlockTableRecord
  2
KOZU0015
340
0
102
{BLKREFS
331
3C9
102
}
  0
BLOCK_RECORD
  5
AB
330
1
100
AcDbSymbolTableRecord
100
AcDbBlockTableRecord
  2
KOZU0016
340
0
102
{BLKREFS
331
3CA
102
}
  0
BLOCK_RECORD
  5
B2
330
1
100
AcDbSymbolTableRecord
100
AcDbBlockTableRecord
  2
KOZU0017
340
0
102
{BLKREFS
331
3CB
102
}
  0
BLOCK_RECORD
  5
B9
330
1
100
AcDbSymbolTableRecord
100
AcDbBlockTableRecord
  2
KOZU0018
340
0
102
{BLKREFS
331
3CC
102
}
  0
BLOCK_RECORD
  5
C0
330
1
100
AcDbSymbolTableRecord
100
AcDbBlockTableRecord
  2
KOZU0019
340
0
102
{BLKREFS
331
3CD
102
}
  0
BLOCK_RECORD
  5
C7
330
1
100
AcDbSymbolTableRecord
100
AcDbBlockTableRecord
  2
KOZU0020
340
0
102
{BLKREFS
331
3CE
102
}
  0
BLOCK_RECORD
  5
CE
330
1
100
AcDbSymbolTableRecord
100
AcDbBlockTableRecord
  2
KOZU0021
340
0
102
{BLKREFS
331
3CF
102
}
  0
BLOCK_RECORD
  5
D5
330
1
100
AcDbSymbolTableRecord
100
AcDbBlockTableRecord
  2
KOZU0022
340
0
102
{BLKREFS
331
3D0
102
}
  0
BLOCK_RECORD
  5
DC
330
1
100
AcDbSymbolTableRecord
100
AcDbBlockTableRecord
  2
KOZU0023
340
0
102
{BLKREFS
331
3D1
102
}
  0
BLOCK_RECORD
  5
E3
330
1
100
AcDbSymbolTableRecord
100
AcDbBlockTableRecord
  2
KOZU0024
340
0
102
{BLKREFS
331
3D2
102
}
  0
BLOCK_RECORD
  5
EA
330
1
100
AcDbSymbolTableRecord
100
AcDbBlockTableRecord
  2
KOZU0025
340
0
102
{BLKREFS
331
3D3
102
}
  0
BLOCK_RECORD
  5
F1
330
1
100
AcDbSymbolTableRecord
100
AcDbBlockTableRecord
  2
KOZU0026
340
0
102
{BLKREFS
331
3D4
102
}
  0
BLOCK_RECORD
  5
F8
330
1
100
AcDbSymbolTableRecord
100
AcDbBlockTableRecord
  2
KOZU0027
340
0
102
{BLKREFS
331
3D5
102
}
  0
BLOCK_RECORD
  5
FF
330
1
100
AcDbSymbolTableRecord
100
AcDbBlockTableRecord
  2
KOZU0028
340
0
102
{BLKREFS
331
3D6
102
}
  0
BLOCK_RECORD
  5
106
330
1
100
AcDbSymbolTableRecord
100
AcDbBlockTableRecord
  2
KOZU0029
340
0
102
{BLKREFS
331
3D7
102
}
  0
BLOCK_RECORD
  5
10D
330
1
100
AcDbSymbolTableRecord
100
AcDbBlockTableRecord
  2
KOZU0030
340
0
102
{BLKREFS
331
3D8
102
}
  0
BLOCK_RECORD
  5
114
330
1
100
AcDbSymbolTableRecord
100
AcDbBlockTableRecord
  2
KOZU0031
340
0
102
{BLKREFS
331
3D9
102
}
  0
BLOCK_RECORD
  5
11B
330
1
100
AcDbSymbolTableRecord
100
AcDbBlockTableRecord
  2
KOZU0032
340
0
102
{BLKREFS
331
3DA
102
}
  0
BLOCK_RECORD
  5
122
330
1
100
AcDbSymbolTableRecord
100
AcDbBlockTableRecord
  2
KOZU0033
340
0
102
{BLKREFS
331
3DB
102
}
  0
BLOCK_RECORD
  5
129
330
1
100
AcDbSymbolTableRecord
100
AcDbBlockTableRecord
  2
KOZU0034
340
0
102
{BLKREFS
331
3DC
102
}
  0
BLOCK_RECORD
  5
130
330
1
100
AcDbSymbolTableRecord
100
AcDbBlockTableRecord
  2
KOZU0035
340
0
102
{BLKREFS
331
3DD
102
}
  0
BLOCK_RECORD
  5
137
330
1
100
AcDbSymbolTableRecord
100
AcDbBlockTableRecord
  2
KOZU0036
340
0
102
{BLKREFS
331
3DE
102
}
  0
BLOCK_RECORD
  5
13E
330
1
100
AcDbSymbolTableRecord
100
AcDbBlockTableRecord
  2
KOZU0037
340
0
102
{BLKREFS
331
3DF
102
}
  0
BLOCK_RECORD
  5
145
330
1
100
AcDbSymbolTableRecord
100
AcDbBlockTableRecord
  2
KOZU0038
340
0
102
{BLKREFS
331
3E0
102
}
  0
BLOCK_RECORD
  5
14C
330
1
100
AcDbSymbolTableRecord
100
AcDbBlockTableRecord
  2
KOZU0039
340
0
102
{BLKREFS
331
3E1
102
}
  0
BLOCK_RECORD
  5
153
330
1
100
AcDbSymbolTableRecord
100
AcDbBlockTableRecord
  2
KOZU0040
340
0
102
{BLKREFS
331
3E2
102
}
  0
BLOCK_RECORD
  5
15A
330
1
100
AcDbSymbolTableRecord
100
AcDbBlockTableRecord
  2
KOZU0041
340
0
102
{BLKREFS
331
3E3
102
}
  0
BLOCK_RECORD
  5
161
330
1
100
AcDbSymbolTableRecord
100
AcDbBlockTableRecord
  2
KOZU0042
340
0
102
{BLKREFS
331
3E4
102
}
  0
BLOCK_RECORD
  5
168
330
1
100
AcDbSymbolTableRecord
100
AcDbBlockTableRecord
  2
KOZU0043
340
0
102
{BLKREFS
331
3E5
102
}
  0
BLOCK_RECORD
  5
16F
330
1
100
AcDbSymbolTableRecord
100
AcDbBlockTableRecord
  2
KOZU0044
340
0
102
{BLKREFS
331
3E6
102
}
  0
BLOCK_RECORD
  5
176
330
1
100
AcDbSymbolTableRecord
100
AcDbBlockTableRecord
  2
KOZU0045
340
0
102
{BLKREFS
331
3E7
102
}
  0
BLOCK_RECORD
  5
17D
330
1
100
AcDbSymbolTableRecord
100
AcDbBlockTableRecord
  2
KOZU0046
340
0
102
{BLKREFS
331
3E8
102
}
  0
BLOCK_RECORD
  5
184
330
1
100
AcDbSymbolTableRecord
100
AcDbBlockTableRecord
  2
KOZU0047
340
0
102
{BLKREFS
331
3E9
102
}
  0
BLOCK_RECORD
  5
18B
330
1
100
AcDbSymbolTableRecord
100
AcDbBlockTableRecord
  2
KOZU0048
340
0
102
{BLKREFS
331
3EA
102
}
  0
BLOCK_RECORD
  5
192
330
1
100
AcDbSymbolTableRecord
100
AcDbBlockTableRecord
  2
KOZU0049
340
0
102
{BLKREFS
331
3EB
102
}
  0
BLOCK_RECORD
  5
199
330
1
100
AcDbSymbolTableRecord
100
AcDbBlockTableRecord
  2
KOZU0050
340
0
102
{BLKREFS
331
3EC
102
}
  0
BLOCK_RECORD
  5
1A0
330
1
100
AcDbSymbolTableRecord
100
AcDbBlockTableRecord
  2
KOZU0051
340
0
102
{BLKREFS
331
3ED
102
}
  0
BLOCK_RECORD
  5
1A7
330
1
100
AcDbSymbolTableRecord
100
AcDbBlockTableRecord
  2
KOZU0052
340
0
102
{BLKREFS
331
3EE
102
}
  0
BLOCK_RECORD
  5
1AE
330
1
100
AcDbSymbolTableRecord
100
AcDbBlockTableRecord
  2
KOZU0053
340
0
102
{BLKREFS
331
3EF
102
}
  0
BLOCK_RECORD
  5
1B5
330
1
100
AcDbSymbolTableRecord
100
AcDbBlockTableRecord
  2
KOZU0054
340
0
102
{BLKREFS
331
3F0
102
}
  0
BLOCK_RECORD
  5
486
330
1
100
AcDbSymbolTableRecord
100
AcDbBlockTableRecord
  2
GENAXEH
340
0
  0
ENDTAB
  0
ENDSEC
  0
SECTION
  2
BLOCKS
  0
BLOCK
  5
37
330
36
100
AcDbEntity
  8
0
100
AcDbBlockBegin
  2
*Model_Space
 70
     0
 10
0.0
 20
0.0
 30
0.0
  3
*Model_Space
  1

  0
ENDBLK
  5
38
330
36
100
AcDbEntity
  8
0
100
AcDbBlockEnd
  0
BLOCK
  5
33
330
32
100
AcDbEntity
 67
     1
  8
0
100
AcDbBlockBegin
  2
*Paper_Space
 70
     0
 10
0.0
 20
0.0
 30
0.0
  3
*Paper_Space
  1

  0
ENDBLK
  5
34
330
32
100
AcDbEntity
 67
     1
  8
0
100
AcDbBlockEnd
  0
BLOCK
  5
43
330
42
100
AcDbEntity
  8
0
100
AcDbBlockBegin
  2
KOZU0001
 70
     0
 10
0.0
 20
0.0
 30
0.0
  3
KOZU0001
  1

  0
POLYLINE
  5
44
330
42
100
AcDbEntity
  8
0
  6
Continuous
 62
     7
100
AcDb2dPolyline
 66
     1
 10
0.0
 20
0.0
 30
0.0
 70
     1
 40
0.4000000100000001
 41
0.4000000100000001
  0
VERTEX
  5
45
330
44
100
AcDbEntity
  8
0
  6
Continuous
 62
     7
100
AcDbVertex
100
AcDb2dVertex
 10
-0.2
 20
0.0
 30
0.0
 42
1.0
  0
VERTEX
  5
46
330
44
100
AcDbEntity
  8
0
  6
Continuous
 62
     7
100
AcDbVertex
100
AcDb2dVertex
 10
0.2
 20
0.0
 30
0.0
 42
1.0
  0
SEQEND
  5
47
330
44
100
AcDbEntity
  8
0
  6
Continuous
 62
     7
  0
ENDBLK
  5
48
330
42
100
AcDbEntity
  8
0
100
AcDbBlockEnd
  0
BLOCK
  5
4A
330
49
100
AcDbEntity
  8
0
100
AcDbBlockBegin
  2
KOZU0002
 70
     0
 10
0.0
 20
0.0
 30
0.0
  3
KOZU0002
  1

  0
POLYLINE
  5
4B
330
49
100
AcDbEntity
  8
0
  6
Continuous
 62
     7
100
AcDb2dPolyline
 66
     1
 10
0.0
 20
0.0
 30
0.0
 70
     1
 40
0.4000000100000001
 41
0.4000000100000001
  0
VERTEX
  5
4C
330
4B
100
AcDbEntity
  8
0
  6
Continuous
 62
     7
100
AcDbVertex
100
AcDb2dVertex
 10
-0.2
 20
0.0
 30
0.0
 42
1.0
  0
VERTEX
  5
4D
330
4B
100
AcDbEntity
  8
0
  6
Continuous
 62
     7
100
AcDbVertex
100
AcDb2dVertex
 10
0.2
 20
0.0
 30
0.0
 42
1.0
  0
SEQEND
  5
4E
330
4B
100
AcDbEntity
  8
0
  6
Continuous
 62
     7
  0
ENDBLK
  5
4F
330
49
100
AcDbEntity
  8
0
100
AcDbBlockEnd
  0
BLOCK
  5
51
330
50
100
AcDbEntity
  8
0
100
AcDbBlockBegin
  2
KOZU0003
 70
     0
 10
0.0
 20
0.0
 30
0.0
  3
KOZU0003
  1

  0
POLYLINE
  5
52
330
50
100
AcDbEntity
  8
0
  6
Continuous
 62
     7
100
AcDb2dPolyline
 66
     1
 10
0.0
 20
0.0
 30
0.0
 70
     1
 40
0.4000000100000001
 41
0.4000000100000001
  0
VERTEX
  5
53
330
52
100
AcDbEntity
  8
0
  6
Continuous
 62
     7
100
AcDbVertex
100
AcDb2dVertex
 10
-0.2
 20
0.0
 30
0.0
 42
1.0
  0
VERTEX
  5
54
330
52
100
AcDbEntity
  8
0
  6
Continuous
 62
     7
100
AcDbVertex
100
AcDb2dVertex
 10
0.2
 20
0.0
 30
0.0
 42
1.0
  0
SEQEND
  5
55
330
52
100
AcDbEntity
  8
0
  6
Continuous
 62
     7
  0
ENDBLK
  5
56
330
50
100
AcDbEntity
  8
0
100
AcDbBlockEnd
  0
BLOCK
  5
58
330
57
100
AcDbEntity
  8
0
100
AcDbBlockBegin
  2
KOZU0004
 70
     0
 10
0.0
 20
0.0
 30
0.0
  3
KOZU0004
  1

  0
POLYLINE
  5
59
330
57
100
AcDbEntity
  8
0
  6
Continuous
 62
     7
100
AcDb2dPolyline
 66
     1
 10
0.0
 20
0.0
 30
0.0
 70
     1
 40
0.4000000100000001
 41
0.4000000100000001
  0
VERTEX
  5
5A
330
59
100
AcDbEntity
  8
0
  6
Continuous
 62
     7
100
AcDbVertex
100
AcDb2dVertex
 10
-0.2
 20
0.0
 30
0.0
 42
1.0
  0
VERTEX
  5
5B
330
59
100
AcDbEntity
  8
0
  6
Continuous
 62
     7
100
AcDbVertex
100
AcDb2dVertex
 10
0.2
 20
0.0
 30
0.0
 42
1.0
  0
SEQEND
  5
5C
330
59
100
AcDbEntity
  8
0
  6
Continuous
 62
     7
  0
ENDBLK
  5
5D
330
57
100
AcDbEntity
  8
0
100
AcDbBlockEnd
  0
BLOCK
  5
5F
330
5E
100
AcDbEntity
  8
0
100
AcDbBlockBegin
  2
KOZU0005
 70
     0
 10
0.0
 20
0.0
 30
0.0
  3
KOZU0005
  1

  0
POLYLINE
  5
60
330
5E
100
AcDbEntity
  8
0
  6
Continuous
 62
     7
100
AcDb2dPolyline
 66
     1
 10
0.0
 20
0.0
 30
0.0
 70
     1
 40
0.4000000100000001
 41
0.4000000100000001
  0
VERTEX
  5
61
330
60
100
AcDbEntity
  8
0
  6
Continuous
 62
     7
100
AcDbVertex
100
AcDb2dVertex
 10
-0.2
 20
0.0
 30
0.0
 42
1.0
  0
VERTEX
  5
62
330
60
100
AcDbEntity
  8
0
  6
Continuous
 62
     7
100
AcDbVertex
100
AcDb2dVertex
 10
0.2
 20
0.0
 30
0.0
 42
1.0
  0
SEQEND
  5
63
330
60
100
AcDbEntity
  8
0
  6
Continuous
 62
     7
  0
ENDBLK
  5
64
330
5E
100
AcDbEntity
  8
0
100
AcDbBlockEnd
  0
BLOCK
  5
66
330
65
100
AcDbEntity
  8
0
100
AcDbBlockBegin
  2
KOZU0006
 70
     0
 10
0.0
 20
0.0
 30
0.0
  3
KOZU0006
  1

  0
POLYLINE
  5
67
330
65
100
AcDbEntity
  8
0
  6
Continuous
 62
     7
100
AcDb2dPolyline
 66
     1
 10
0.0
 20
0.0
 30
0.0
 70
     1
 40
0.4000000100000001
 41
0.4000000100000001
  0
VERTEX
  5
68
330
67
100
AcDbEntity
  8
0
  6
Continuous
 62
     7
100
AcDbVertex
100
AcDb2dVertex
 10
-0.2
 20
0.0
 30
0.0
 42
1.0
  0
VERTEX
  5
69
330
67
100
AcDbEntity
  8
0
  6
Continuous
 62
     7
100
AcDbVertex
100
AcDb2dVertex
 10
0.2
 20
0.0
 30
0.0
 42
1.0
  0
SEQEND
  5
6A
330
67
100
AcDbEntity
  8
0
  6
Continuous
 62
     7
  0
ENDBLK
  5
6B
330
65
100
AcDbEntity
  8
0
100
AcDbBlockEnd
  0
BLOCK
  5
6D
330
6C
100
AcDbEntity
  8
0
100
AcDbBlockBegin
  2
KOZU0007
 70
     0
 10
0.0
 20
0.0
 30
0.0
  3
KOZU0007
  1

  0
POLYLINE
  5
6E
330
6C
100
AcDbEntity
  8
0
  6
Continuous
 62
     7
100
AcDb2dPolyline
 66
     1
 10
0.0
 20
0.0
 30
0.0
 70
     1
 40
0.4000000100000001
 41
0.4000000100000001
  0
VERTEX
  5
6F
330
6E
100
AcDbEntity
  8
0
  6
Continuous
 62
     7
100
AcDbVertex
100
AcDb2dVertex
 10
-0.2
 20
0.0
 30
0.0
 42
1.0
  0
VERTEX
  5
70
330
6E
100
AcDbEntity
  8
0
  6
Continuous
 62
     7
100
AcDbVertex
100
AcDb2dVertex
 10
0.2
 20
0.0
 30
0.0
 42
1.0
  0
SEQEND
  5
71
330
6E
100
AcDbEntity
  8
0
  6
Continuous
 62
     7
  0
ENDBLK
  5
72
330
6C
100
AcDbEntity
  8
0
100
AcDbBlockEnd
  0
BLOCK
  5
74
330
73
100
AcDbEntity
  8
0
100
AcDbBlockBegin
  2
KOZU0008
 70
     0
 10
0.0
 20
0.0
 30
0.0
  3
KOZU0008
  1

  0
POLYLINE
  5
75
330
73
100
AcDbEntity
  8
0
  6
Continuous
 62
     7
100
AcDb2dPolyline
 66
     1
 10
0.0
 20
0.0
 30
0.0
 70
     1
 40
0.4000000100000001
 41
0.4000000100000001
  0
VERTEX
  5
76
330
75
100
AcDbEntity
  8
0
  6
Continuous
 62
     7
100
AcDbVertex
100
AcDb2dVertex
 10
-0.2
 20
0.0
 30
0.0
 42
1.0
  0
VERTEX
  5
77
330
75
100
AcDbEntity
  8
0
  6
Continuous
 62
     7
100
AcDbVertex
100
AcDb2dVertex
 10
0.2
 20
0.0
 30
0.0
 42
1.0
  0
SEQEND
  5
78
330
75
100
AcDbEntity
  8
0
  6
Continuous
 62
     7
  0
ENDBLK
  5
79
330
73
100
AcDbEntity
  8
0
100
AcDbBlockEnd
  0
BLOCK
  5
7B
330
7A
100
AcDbEntity
  8
0
100
AcDbBlockBegin
  2
KOZU0009
 70
     0
 10
0.0
 20
0.0
 30
0.0
  3
KOZU0009
  1

  0
POLYLINE
  5
7C
330
7A
100
AcDbEntity
  8
0
  6
Continuous
 62
     7
100
AcDb2dPolyline
 66
     1
 10
0.0
 20
0.0
 30
0.0
 70
     1
 40
0.4000000100000001
 41
0.4000000100000001
  0
VERTEX
  5
7D
330
7C
100
AcDbEntity
  8
0
  6
Continuous
 62
     7
100
AcDbVertex
100
AcDb2dVertex
 10
-0.2
 20
0.0
 30
0.0
 42
1.0
  0
VERTEX
  5
7E
330
7C
100
AcDbEntity
  8
0
  6
Continuous
 62
     7
100
AcDbVertex
100
AcDb2dVertex
 10
0.2
 20
0.0
 30
0.0
 42
1.0
  0
SEQEND
  5
7F
330
7C
100
AcDbEntity
  8
0
  6
Continuous
 62
     7
  0
ENDBLK
  5
80
330
7A
100
AcDbEntity
  8
0
100
AcDbBlockEnd
  0
BLOCK
  5
82
330
81
100
AcDbEntity
  8
0
100
AcDbBlockBegin
  2
KOZU0010
 70
     0
 10
0.0
 20
0.0
 30
0.0
  3
KOZU0010
  1

  0
POLYLINE
  5
83
330
81
100
AcDbEntity
  8
0
  6
Continuous
 62
     7
100
AcDb2dPolyline
 66
     1
 10
0.0
 20
0.0
 30
0.0
 70
     1
 40
0.4000000100000001
 41
0.4000000100000001
  0
VERTEX
  5
84
330
83
100
AcDbEntity
  8
0
  6
Continuous
 62
     7
100
AcDbVertex
100
AcDb2dVertex
 10
-0.2
 20
0.0
 30
0.0
 42
1.0
  0
VERTEX
  5
85
330
83
100
AcDbEntity
  8
0
  6
Continuous
 62
     7
100
AcDbVertex
100
AcDb2dVertex
 10
0.2
 20
0.0
 30
0.0
 42
1.0
  0
SEQEND
  5
86
330
83
100
AcDbEntity
  8
0
  6
Continuous
 62
     7
  0
ENDBLK
  5
87
330
81
100
AcDbEntity
  8
0
100
AcDbBlockEnd
  0
BLOCK
  5
89
330
88
100
AcDbEntity
  8
0
100
AcDbBlockBegin
  2
KOZU0011
 70
     0
 10
0.0
 20
0.0
 30
0.0
  3
KOZU0011
  1

  0
POLYLINE
  5
8A
330
88
100
AcDbEntity
  8
0
  6
Continuous
 62
     7
100
AcDb2dPolyline
 66
     1
 10
0.0
 20
0.0
 30
0.0
 70
     1
 40
0.4000000100000001
 41
0.4000000100000001
  0
VERTEX
  5
8B
330
8A
100
AcDbEntity
  8
0
  6
Continuous
 62
     7
100
AcDbVertex
100
AcDb2dVertex
 10
-0.2
 20
0.0
 30
0.0
 42
1.0
  0
VERTEX
  5
8C
330
8A
100
AcDbEntity
  8
0
  6
Continuous
 62
     7
100
AcDbVertex
100
AcDb2dVertex
 10
0.2
 20
0.0
 30
0.0
 42
1.0
  0
SEQEND
  5
8D
330
8A
100
AcDbEntity
  8
0
  6
Continuous
 62
     7
  0
ENDBLK
  5
8E
330
88
100
AcDbEntity
  8
0
100
AcDbBlockEnd
  0
BLOCK
  5
90
330
8F
100
AcDbEntity
  8
0
100
AcDbBlockBegin
  2
KOZU0012
 70
     0
 10
0.0
 20
0.0
 30
0.0
  3
KOZU0012
  1

  0
POLYLINE
  5
91
330
8F
100
AcDbEntity
  8
0
  6
Continuous
 62
     7
100
AcDb2dPolyline
 66
     1
 10
0.0
 20
0.0
 30
0.0
 70
     1
 40
0.4000000100000001
 41
0.4000000100000001
  0
VERTEX
  5
92
330
91
100
AcDbEntity
  8
0
  6
Continuous
 62
     7
100
AcDbVertex
100
AcDb2dVertex
 10
-0.2
 20
0.0
 30
0.0
 42
1.0
  0
VERTEX
  5
93
330
91
100
AcDbEntity
  8
0
  6
Continuous
 62
     7
100
AcDbVertex
100
AcDb2dVertex
 10
0.2
 20
0.0
 30
0.0
 42
1.0
  0
SEQEND
  5
94
330
91
100
AcDbEntity
  8
0
  6
Continuous
 62
     7
  0
ENDBLK
  5
95
330
8F
100
AcDbEntity
  8
0
100
AcDbBlockEnd
  0
BLOCK
  5
97
330
96
100
AcDbEntity
  8
0
100
AcDbBlockBegin
  2
KOZU0013
 70
     0
 10
0.0
 20
0.0
 30
0.0
  3
KOZU0013
  1

  0
POLYLINE
  5
98
330
96
100
AcDbEntity
  8
0
  6
Continuous
 62
     7
100
AcDb2dPolyline
 66
     1
 10
0.0
 20
0.0
 30
0.0
 70
     1
 40
0.4000000100000001
 41
0.4000000100000001
  0
VERTEX
  5
99
330
98
100
AcDbEntity
  8
0
  6
Continuous
 62
     7
100
AcDbVertex
100
AcDb2dVertex
 10
-0.2
 20
0.0
 30
0.0
 42
1.0
  0
VERTEX
  5
9A
330
98
100
AcDbEntity
  8
0
  6
Continuous
 62
     7
100
AcDbVertex
100
AcDb2dVertex
 10
0.2
 20
0.0
 30
0.0
 42
1.0
  0
SEQEND
  5
9B
330
98
100
AcDbEntity
  8
0
  6
Continuous
 62
     7
  0
ENDBLK
  5
9C
330
96
100
AcDbEntity
  8
0
100
AcDbBlockEnd
  0
BLOCK
  5
9E
330
9D
100
AcDbEntity
  8
0
100
AcDbBlockBegin
  2
KOZU0014
 70
     0
 10
0.0
 20
0.0
 30
0.0
  3
KOZU0014
  1

  0
POLYLINE
  5
9F
330
9D
100
AcDbEntity
  8
0
  6
Continuous
 62
     7
100
AcDb2dPolyline
 66
     1
 10
0.0
 20
0.0
 30
0.0
 70
     1
 40
0.4000000100000001
 41
0.4000000100000001
  0
VERTEX
  5
A0
330
9F
100
AcDbEntity
  8
0
  6
Continuous
 62
     7
100
AcDbVertex
100
AcDb2dVertex
 10
-0.2
 20
0.0
 30
0.0
 42
1.0
  0
VERTEX
  5
A1
330
9F
100
AcDbEntity
  8
0
  6
Continuous
 62
     7
100
AcDbVertex
100
AcDb2dVertex
 10
0.2
 20
0.0
 30
0.0
 42
1.0
  0
SEQEND
  5
A2
330
9F
100
AcDbEntity
  8
0
  6
Continuous
 62
     7
  0
ENDBLK
  5
A3
330
9D
100
AcDbEntity
  8
0
100
AcDbBlockEnd
  0
BLOCK
  5
A5
330
A4
100
AcDbEntity
  8
0
100
AcDbBlockBegin
  2
KOZU0015
 70
     0
 10
0.0
 20
0.0
 30
0.0
  3
KOZU0015
  1

  0
POLYLINE
  5
A6
330
A4
100
AcDbEntity
  8
0
  6
Continuous
 62
     7
100
AcDb2dPolyline
 66
     1
 10
0.0
 20
0.0
 30
0.0
 70
     1
 40
0.4000000100000001
 41
0.4000000100000001
  0
VERTEX
  5
A7
330
A6
100
AcDbEntity
  8
0
  6
Continuous
 62
     7
100
AcDbVertex
100
AcDb2dVertex
 10
-0.2
 20
0.0
 30
0.0
 42
1.0
  0
VERTEX
  5
A8
330
A6
100
AcDbEntity
  8
0
  6
Continuous
 62
     7
100
AcDbVertex
100
AcDb2dVertex
 10
0.2
 20
0.0
 30
0.0
 42
1.0
  0
SEQEND
  5
A9
330
A6
100
AcDbEntity
  8
0
  6
Continuous
 62
     7
  0
ENDBLK
  5
AA
330
A4
100
AcDbEntity
  8
0
100
AcDbBlockEnd
  0
BLOCK
  5
AC
330
AB
100
AcDbEntity
  8
0
100
AcDbBlockBegin
  2
KOZU0016
 70
     0
 10
0.0
 20
0.0
 30
0.0
  3
KOZU0016
  1

  0
POLYLINE
  5
AD
330
AB
100
AcDbEntity
  8
0
  6
Continuous
 62
     7
100
AcDb2dPolyline
 66
     1
 10
0.0
 20
0.0
 30
0.0
 70
     1
 40
0.4000000100000001
 41
0.4000000100000001
  0
VERTEX
  5
AE
330
AD
100
AcDbEntity
  8
0
  6
Continuous
 62
     7
100
AcDbVertex
100
AcDb2dVertex
 10
-0.2
 20
0.0
 30
0.0
 42
1.0
  0
VERTEX
  5
AF
330
AD
100
AcDbEntity
  8
0
  6
Continuous
 62
     7
100
AcDbVertex
100
AcDb2dVertex
 10
0.2
 20
0.0
 30
0.0
 42
1.0
  0
SEQEND
  5
B0
330
AD
100
AcDbEntity
  8
0
  6
Continuous
 62
     7
  0
ENDBLK
  5
B1
330
AB
100
AcDbEntity
  8
0
100
AcDbBlockEnd
  0
BLOCK
  5
B3
330
B2
100
AcDbEntity
  8
0
100
AcDbBlockBegin
  2
KOZU0017
 70
     0
 10
0.0
 20
0.0
 30
0.0
  3
KOZU0017
  1

  0
POLYLINE
  5
B4
330
B2
100
AcDbEntity
  8
0
  6
Continuous
 62
     7
100
AcDb2dPolyline
 66
     1
 10
0.0
 20
0.0
 30
0.0
 70
     1
 40
0.4000000100000001
 41
0.4000000100000001
  0
VERTEX
  5
B5
330
B4
100
AcDbEntity
  8
0
  6
Continuous
 62
     7
100
AcDbVertex
100
AcDb2dVertex
 10
-0.2
 20
0.0
 30
0.0
 42
1.0
  0
VERTEX
  5
B6
330
B4
100
AcDbEntity
  8
0
  6
Continuous
 62
     7
100
AcDbVertex
100
AcDb2dVertex
 10
0.2
 20
0.0
 30
0.0
 42
1.0
  0
SEQEND
  5
B7
330
B4
100
AcDbEntity
  8
0
  6
Continuous
 62
     7
  0
ENDBLK
  5
B8
330
B2
100
AcDbEntity
  8
0
100
AcDbBlockEnd
  0
BLOCK
  5
BA
330
B9
100
AcDbEntity
  8
0
100
AcDbBlockBegin
  2
KOZU0018
 70
     0
 10
0.0
 20
0.0
 30
0.0
  3
KOZU0018
  1

  0
POLYLINE
  5
BB
330
B9
100
AcDbEntity
  8
0
  6
Continuous
 62
     7
100
AcDb2dPolyline
 66
     1
 10
0.0
 20
0.0
 30
0.0
 70
     1
 40
0.4000000100000001
 41
0.4000000100000001
  0
VERTEX
  5
BC
330
BB
100
AcDbEntity
  8
0
  6
Continuous
 62
     7
100
AcDbVertex
100
AcDb2dVertex
 10
-0.2
 20
0.0
 30
0.0
 42
1.0
  0
VERTEX
  5
BD
330
BB
100
AcDbEntity
  8
0
  6
Continuous
 62
     7
100
AcDbVertex
100
AcDb2dVertex
 10
0.2
 20
0.0
 30
0.0
 42
1.0
  0
SEQEND
  5
BE
330
BB
100
AcDbEntity
  8
0
  6
Continuous
 62
     7
  0
ENDBLK
  5
BF
330
B9
100
AcDbEntity
  8
0
100
AcDbBlockEnd
  0
BLOCK
  5
C1
330
C0
100
AcDbEntity
  8
0
100
AcDbBlockBegin
  2
KOZU0019
 70
     0
 10
0.0
 20
0.0
 30
0.0
  3
KOZU0019
  1

  0
POLYLINE
  5
C2
330
C0
100
AcDbEntity
  8
0
  6
Continuous
 62
     7
100
AcDb2dPolyline
 66
     1
 10
0.0
 20
0.0
 30
0.0
 70
     1
 40
0.4000000100000001
 41
0.4000000100000001
  0
VERTEX
  5
C3
330
C2
100
AcDbEntity
  8
0
  6
Continuous
 62
     7
100
AcDbVertex
100
AcDb2dVertex
 10
-0.2
 20
0.0
 30
0.0
 42
1.0
  0
VERTEX
  5
C4
330
C2
100
AcDbEntity
  8
0
  6
Continuous
 62
     7
100
AcDbVertex
100
AcDb2dVertex
 10
0.2
 20
0.0
 30
0.0
 42
1.0
  0
SEQEND
  5
C5
330
C2
100
AcDbEntity
  8
0
  6
Continuous
 62
     7
  0
ENDBLK
  5
C6
330
C0
100
AcDbEntity
  8
0
100
AcDbBlockEnd
  0
BLOCK
  5
C8
330
C7
100
AcDbEntity
  8
0
100
AcDbBlockBegin
  2
KOZU0020
 70
     0
 10
0.0
 20
0.0
 30
0.0
  3
KOZU0020
  1

  0
POLYLINE
  5
C9
330
C7
100
AcDbEntity
  8
0
  6
Continuous
 62
     7
100
AcDb2dPolyline
 66
     1
 10
0.0
 20
0.0
 30
0.0
 70
     1
 40
0.4000000100000001
 41
0.4000000100000001
  0
VERTEX
  5
CA
330
C9
100
AcDbEntity
  8
0
  6
Continuous
 62
     7
100
AcDbVertex
100
AcDb2dVertex
 10
-0.2
 20
0.0
 30
0.0
 42
1.0
  0
VERTEX
  5
CB
330
C9
100
AcDbEntity
  8
0
  6
Continuous
 62
     7
100
AcDbVertex
100
AcDb2dVertex
 10
0.2
 20
0.0
 30
0.0
 42
1.0
  0
SEQEND
  5
CC
330
C9
100
AcDbEntity
  8
0
  6
Continuous
 62
     7
  0
ENDBLK
  5
CD
330
C7
100
AcDbEntity
  8
0
100
AcDbBlockEnd
  0
BLOCK
  5
CF
330
CE
100
AcDbEntity
  8
0
100
AcDbBlockBegin
  2
KOZU0021
 70
     0
 10
0.0
 20
0.0
 30
0.0
  3
KOZU0021
  1

  0
POLYLINE
  5
D0
330
CE
100
AcDbEntity
  8
0
  6
Continuous
 62
     7
100
AcDb2dPolyline
 66
     1
 10
0.0
 20
0.0
 30
0.0
 70
     1
 40
0.4000000100000001
 41
0.4000000100000001
  0
VERTEX
  5
D1
330
D0
100
AcDbEntity
  8
0
  6
Continuous
 62
     7
100
AcDbVertex
100
AcDb2dVertex
 10
-0.2
 20
0.0
 30
0.0
 42
1.0
  0
VERTEX
  5
D2
330
D0
100
AcDbEntity
  8
0
  6
Continuous
 62
     7
100
AcDbVertex
100
AcDb2dVertex
 10
0.2
 20
0.0
 30
0.0
 42
1.0
  0
SEQEND
  5
D3
330
D0
100
AcDbEntity
  8
0
  6
Continuous
 62
     7
  0
ENDBLK
  5
D4
330
CE
100
AcDbEntity
  8
0
100
AcDbBlockEnd
  0
BLOCK
  5
D6
330
D5
100
AcDbEntity
  8
0
100
AcDbBlockBegin
  2
KOZU0022
 70
     0
 10
0.0
 20
0.0
 30
0.0
  3
KOZU0022
  1

  0
POLYLINE
  5
D7
330
D5
100
AcDbEntity
  8
0
  6
Continuous
 62
     7
100
AcDb2dPolyline
 66
     1
 10
0.0
 20
0.0
 30
0.0
 70
     1
 40
0.4000000100000001
 41
0.4000000100000001
  0
VERTEX
  5
D8
330
D7
100
AcDbEntity
  8
0
  6
Continuous
 62
     7
100
AcDbVertex
100
AcDb2dVertex
 10
-0.2
 20
0.0
 30
0.0
 42
1.0
  0
VERTEX
  5
D9
330
D7
100
AcDbEntity
  8
0
  6
Continuous
 62
     7
100
AcDbVertex
100
AcDb2dVertex
 10
0.2
 20
0.0
 30
0.0
 42
1.0
  0
SEQEND
  5
DA
330
D7
100
AcDbEntity
  8
0
  6
Continuous
 62
     7
  0
ENDBLK
  5
DB
330
D5
100
AcDbEntity
  8
0
100
AcDbBlockEnd
  0
BLOCK
  5
DD
330
DC
100
AcDbEntity
  8
0
100
AcDbBlockBegin
  2
KOZU0023
 70
     0
 10
0.0
 20
0.0
 30
0.0
  3
KOZU0023
  1

  0
POLYLINE
  5
DE
330
DC
100
AcDbEntity
  8
0
  6
Continuous
 62
     7
100
AcDb2dPolyline
 66
     1
 10
0.0
 20
0.0
 30
0.0
 70
     1
 40
0.4000000100000001
 41
0.4000000100000001
  0
VERTEX
  5
DF
330
DE
100
AcDbEntity
  8
0
  6
Continuous
 62
     7
100
AcDbVertex
100
AcDb2dVertex
 10
-0.2
 20
0.0
 30
0.0
 42
1.0
  0
VERTEX
  5
E0
330
DE
100
AcDbEntity
  8
0
  6
Continuous
 62
     7
100
AcDbVertex
100
AcDb2dVertex
 10
0.2
 20
0.0
 30
0.0
 42
1.0
  0
SEQEND
  5
E1
330
DE
100
AcDbEntity
  8
0
  6
Continuous
 62
     7
  0
ENDBLK
  5
E2
330
DC
100
AcDbEntity
  8
0
100
AcDbBlockEnd
  0
BLOCK
  5
E4
330
E3
100
AcDbEntity
  8
0
100
AcDbBlockBegin
  2
KOZU0024
 70
     0
 10
0.0
 20
0.0
 30
0.0
  3
KOZU0024
  1

  0
POLYLINE
  5
E5
330
E3
100
AcDbEntity
  8
0
  6
Continuous
 62
     7
100
AcDb2dPolyline
 66
     1
 10
0.0
 20
0.0
 30
0.0
 70
     1
 40
0.4000000100000001
 41
0.4000000100000001
  0
VERTEX
  5
E6
330
E5
100
AcDbEntity
  8
0
  6
Continuous
 62
     7
100
AcDbVertex
100
AcDb2dVertex
 10
-0.2
 20
0.0
 30
0.0
 42
1.0
  0
VERTEX
  5
E7
330
E5
100
AcDbEntity
  8
0
  6
Continuous
 62
     7
100
AcDbVertex
100
AcDb2dVertex
 10
0.2
 20
0.0
 30
0.0
 42
1.0
  0
SEQEND
  5
E8
330
E5
100
AcDbEntity
  8
0
  6
Continuous
 62
     7
  0
ENDBLK
  5
E9
330
E3
100
AcDbEntity
  8
0
100
AcDbBlockEnd
  0
BLOCK
  5
EB
330
EA
100
AcDbEntity
  8
0
100
AcDbBlockBegin
  2
KOZU0025
 70
     0
 10
0.0
 20
0.0
 30
0.0
  3
KOZU0025
  1

  0
POLYLINE
  5
EC
330
EA
100
AcDbEntity
  8
0
  6
Continuous
 62
     7
100
AcDb2dPolyline
 66
     1
 10
0.0
 20
0.0
 30
0.0
 70
     1
 40
0.4000000100000001
 41
0.4000000100000001
  0
VERTEX
  5
ED
330
EC
100
AcDbEntity
  8
0
  6
Continuous
 62
     7
100
AcDbVertex
100
AcDb2dVertex
 10
-0.2
 20
0.0
 30
0.0
 42
1.0
  0
VERTEX
  5
EE
330
EC
100
AcDbEntity
  8
0
  6
Continuous
 62
     7
100
AcDbVertex
100
AcDb2dVertex
 10
0.2
 20
0.0
 30
0.0
 42
1.0
  0
SEQEND
  5
EF
330
EC
100
AcDbEntity
  8
0
  6
Continuous
 62
     7
  0
ENDBLK
  5
F0
330
EA
100
AcDbEntity
  8
0
100
AcDbBlockEnd
  0
BLOCK
  5
F2
330
F1
100
AcDbEntity
  8
0
100
AcDbBlockBegin
  2
KOZU0026
 70
     0
 10
0.0
 20
0.0
 30
0.0
  3
KOZU0026
  1

  0
POLYLINE
  5
F3
330
F1
100
AcDbEntity
  8
0
  6
Continuous
 62
     7
100
AcDb2dPolyline
 66
     1
 10
0.0
 20
0.0
 30
0.0
 70
     1
 40
0.4000000100000001
 41
0.4000000100000001
  0
VERTEX
  5
F4
330
F3
100
AcDbEntity
  8
0
  6
Continuous
 62
     7
100
AcDbVertex
100
AcDb2dVertex
 10
-0.2
 20
0.0
 30
0.0
 42
1.0
  0
VERTEX
  5
F5
330
F3
100
AcDbEntity
  8
0
  6
Continuous
 62
     7
100
AcDbVertex
100
AcDb2dVertex
 10
0.2
 20
0.0
 30
0.0
 42
1.0
  0
SEQEND
  5
F6
330
F3
100
AcDbEntity
  8
0
  6
Continuous
 62
     7
  0
ENDBLK
  5
F7
330
F1
100
AcDbEntity
  8
0
100
AcDbBlockEnd
  0
BLOCK
  5
F9
330
F8
100
AcDbEntity
  8
0
100
AcDbBlockBegin
  2
KOZU0027
 70
     0
 10
0.0
 20
0.0
 30
0.0
  3
KOZU0027
  1

  0
POLYLINE
  5
FA
330
F8
100
AcDbEntity
  8
0
  6
Continuous
 62
     7
100
AcDb2dPolyline
 66
     1
 10
0.0
 20
0.0
 30
0.0
 70
     1
 40
0.4000000100000001
 41
0.4000000100000001
  0
VERTEX
  5
FB
330
FA
100
AcDbEntity
  8
0
  6
Continuous
 62
     7
100
AcDbVertex
100
AcDb2dVertex
 10
-0.2
 20
0.0
 30
0.0
 42
1.0
  0
VERTEX
  5
FC
330
FA
100
AcDbEntity
  8
0
  6
Continuous
 62
     7
100
AcDbVertex
100
AcDb2dVertex
 10
0.2
 20
0.0
 30
0.0
 42
1.0
  0
SEQEND
  5
FD
330
FA
100
AcDbEntity
  8
0
  6
Continuous
 62
     7
  0
ENDBLK
  5
FE
330
F8
100
AcDbEntity
  8
0
100
AcDbBlockEnd
  0
BLOCK
  5
100
330
FF
100
AcDbEntity
  8
0
100
AcDbBlockBegin
  2
KOZU0028
 70
     0
 10
0.0
 20
0.0
 30
0.0
  3
KOZU0028
  1

  0
POLYLINE
  5
101
330
FF
100
AcDbEntity
  8
0
  6
Continuous
 62
     7
100
AcDb2dPolyline
 66
     1
 10
0.0
 20
0.0
 30
0.0
 70
     1
 40
0.4000000100000001
 41
0.4000000100000001
  0
VERTEX
  5
102
330
101
100
AcDbEntity
  8
0
  6
Continuous
 62
     7
100
AcDbVertex
100
AcDb2dVertex
 10
-0.2
 20
0.0
 30
0.0
 42
1.0
  0
VERTEX
  5
103
330
101
100
AcDbEntity
  8
0
  6
Continuous
 62
     7
100
AcDbVertex
100
AcDb2dVertex
 10
0.2
 20
0.0
 30
0.0
 42
1.0
  0
SEQEND
  5
104
330
101
100
AcDbEntity
  8
0
  6
Continuous
 62
     7
  0
ENDBLK
  5
105
330
FF
100
AcDbEntity
  8
0
100
AcDbBlockEnd
  0
BLOCK
  5
107
330
106
100
AcDbEntity
  8
0
100
AcDbBlockBegin
  2
KOZU0029
 70
     0
 10
0.0
 20
0.0
 30
0.0
  3
KOZU0029
  1

  0
POLYLINE
  5
108
330
106
100
AcDbEntity
  8
0
  6
Continuous
 62
     7
100
AcDb2dPolyline
 66
     1
 10
0.0
 20
0.0
 30
0.0
 70
     1
 40
0.4000000100000001
 41
0.4000000100000001
  0
VERTEX
  5
109
330
108
100
AcDbEntity
  8
0
  6
Continuous
 62
     7
100
AcDbVertex
100
AcDb2dVertex
 10
-0.2
 20
0.0
 30
0.0
 42
1.0
  0
VERTEX
  5
10A
330
108
100
AcDbEntity
  8
0
  6
Continuous
 62
     7
100
AcDbVertex
100
AcDb2dVertex
 10
0.2
 20
0.0
 30
0.0
 42
1.0
  0
SEQEND
  5
10B
330
108
100
AcDbEntity
  8
0
  6
Continuous
 62
     7
  0
ENDBLK
  5
10C
330
106
100
AcDbEntity
  8
0
100
AcDbBlockEnd
  0
BLOCK
  5
10E
330
10D
100
AcDbEntity
  8
0
100
AcDbBlockBegin
  2
KOZU0030
 70
     0
 10
0.0
 20
0.0
 30
0.0
  3
KOZU0030
  1

  0
POLYLINE
  5
10F
330
10D
100
AcDbEntity
  8
0
  6
Continuous
 62
     7
100
AcDb2dPolyline
 66
     1
 10
0.0
 20
0.0
 30
0.0
 70
     1
 40
0.4000000100000001
 41
0.4000000100000001
  0
VERTEX
  5
110
330
10F
100
AcDbEntity
  8
0
  6
Continuous
 62
     7
100
AcDbVertex
100
AcDb2dVertex
 10
-0.2
 20
0.0
 30
0.0
 42
1.0
  0
VERTEX
  5
111
330
10F
100
AcDbEntity
  8
0
  6
Continuous
 62
     7
100
AcDbVertex
100
AcDb2dVertex
 10
0.2
 20
0.0
 30
0.0
 42
1.0
  0
SEQEND
  5
112
330
10F
100
AcDbEntity
  8
0
  6
Continuous
 62
     7
  0
ENDBLK
  5
113
330
10D
100
AcDbEntity
  8
0
100
AcDbBlockEnd
  0
BLOCK
  5
115
330
114
100
AcDbEntity
  8
0
100
AcDbBlockBegin
  2
KOZU0031
 70
     0
 10
0.0
 20
0.0
 30
0.0
  3
KOZU0031
  1

  0
POLYLINE
  5
116
330
114
100
AcDbEntity
  8
0
  6
Continuous
 62
     7
100
AcDb2dPolyline
 66
     1
 10
0.0
 20
0.0
 30
0.0
 70
     1
 40
0.4000000100000001
 41
0.4000000100000001
  0
VERTEX
  5
117
330
116
100
AcDbEntity
  8
0
  6
Continuous
 62
     7
100
AcDbVertex
100
AcDb2dVertex
 10
-0.2
 20
0.0
 30
0.0
 42
1.0
  0
VERTEX
  5
118
330
116
100
AcDbEntity
  8
0
  6
Continuous
 62
     7
100
AcDbVertex
100
AcDb2dVertex
 10
0.2
 20
0.0
 30
0.0
 42
1.0
  0
SEQEND
  5
119
330
116
100
AcDbEntity
  8
0
  6
Continuous
 62
     7
  0
ENDBLK
  5
11A
330
114
100
AcDbEntity
  8
0
100
AcDbBlockEnd
  0
BLOCK
  5
11C
330
11B
100
AcDbEntity
  8
0
100
AcDbBlockBegin
  2
KOZU0032
 70
     0
 10
0.0
 20
0.0
 30
0.0
  3
KOZU0032
  1

  0
POLYLINE
  5
11D
330
11B
100
AcDbEntity
  8
0
  6
Continuous
 62
     7
100
AcDb2dPolyline
 66
     1
 10
0.0
 20
0.0
 30
0.0
 70
     1
 40
0.4000000100000001
 41
0.4000000100000001
  0
VERTEX
  5
11E
330
11D
100
AcDbEntity
  8
0
  6
Continuous
 62
     7
100
AcDbVertex
100
AcDb2dVertex
 10
-0.2
 20
0.0
 30
0.0
 42
1.0
  0
VERTEX
  5
11F
330
11D
100
AcDbEntity
  8
0
  6
Continuous
 62
     7
100
AcDbVertex
100
AcDb2dVertex
 10
0.2
 20
0.0
 30
0.0
 42
1.0
  0
SEQEND
  5
120
330
11D
100
AcDbEntity
  8
0
  6
Continuous
 62
     7
  0
ENDBLK
  5
121
330
11B
100
AcDbEntity
  8
0
100
AcDbBlockEnd
  0
BLOCK
  5
123
330
122
100
AcDbEntity
  8
0
100
AcDbBlockBegin
  2
KOZU0033
 70
     0
 10
0.0
 20
0.0
 30
0.0
  3
KOZU0033
  1

  0
POLYLINE
  5
124
330
122
100
AcDbEntity
  8
0
  6
Continuous
 62
     7
100
AcDb2dPolyline
 66
     1
 10
0.0
 20
0.0
 30
0.0
 70
     1
 40
0.4000000100000001
 41
0.4000000100000001
  0
VERTEX
  5
125
330
124
100
AcDbEntity
  8
0
  6
Continuous
 62
     7
100
AcDbVertex
100
AcDb2dVertex
 10
-0.2
 20
0.0
 30
0.0
 42
1.0
  0
VERTEX
  5
126
330
124
100
AcDbEntity
  8
0
  6
Continuous
 62
     7
100
AcDbVertex
100
AcDb2dVertex
 10
0.2
 20
0.0
 30
0.0
 42
1.0
  0
SEQEND
  5
127
330
124
100
AcDbEntity
  8
0
  6
Continuous
 62
     7
  0
ENDBLK
  5
128
330
122
100
AcDbEntity
  8
0
100
AcDbBlockEnd
  0
BLOCK
  5
12A
330
129
100
AcDbEntity
  8
0
100
AcDbBlockBegin
  2
KOZU0034
 70
     0
 10
0.0
 20
0.0
 30
0.0
  3
KOZU0034
  1

  0
POLYLINE
  5
12B
330
129
100
AcDbEntity
  8
0
  6
Continuous
 62
     7
100
AcDb2dPolyline
 66
     1
 10
0.0
 20
0.0
 30
0.0
 70
     1
 40
0.4000000100000001
 41
0.4000000100000001
  0
VERTEX
  5
12C
330
12B
100
AcDbEntity
  8
0
  6
Continuous
 62
     7
100
AcDbVertex
100
AcDb2dVertex
 10
-0.2
 20
0.0
 30
0.0
 42
1.0
  0
VERTEX
  5
12D
330
12B
100
AcDbEntity
  8
0
  6
Continuous
 62
     7
100
AcDbVertex
100
AcDb2dVertex
 10
0.2
 20
0.0
 30
0.0
 42
1.0
  0
SEQEND
  5
12E
330
12B
100
AcDbEntity
  8
0
  6
Continuous
 62
     7
  0
ENDBLK
  5
12F
330
129
100
AcDbEntity
  8
0
100
AcDbBlockEnd
  0
BLOCK
  5
131
330
130
100
AcDbEntity
  8
0
100
AcDbBlockBegin
  2
KOZU0035
 70
     0
 10
0.0
 20
0.0
 30
0.0
  3
KOZU0035
  1

  0
POLYLINE
  5
132
330
130
100
AcDbEntity
  8
0
  6
Continuous
 62
     7
100
AcDb2dPolyline
 66
     1
 10
0.0
 20
0.0
 30
0.0
 70
     1
 40
0.4000000100000001
 41
0.4000000100000001
  0
VERTEX
  5
133
330
132
100
AcDbEntity
  8
0
  6
Continuous
 62
     7
100
AcDbVertex
100
AcDb2dVertex
 10
-0.2
 20
0.0
 30
0.0
 42
1.0
  0
VERTEX
  5
134
330
132
100
AcDbEntity
  8
0
  6
Continuous
 62
     7
100
AcDbVertex
100
AcDb2dVertex
 10
0.2
 20
0.0
 30
0.0
 42
1.0
  0
SEQEND
  5
135
330
132
100
AcDbEntity
  8
0
  6
Continuous
 62
     7
  0
ENDBLK
  5
136
330
130
100
AcDbEntity
  8
0
100
AcDbBlockEnd
  0
BLOCK
  5
138
330
137
100
AcDbEntity
  8
0
100
AcDbBlockBegin
  2
KOZU0036
 70
     0
 10
0.0
 20
0.0
 30
0.0
  3
KOZU0036
  1

  0
POLYLINE
  5
139
330
137
100
AcDbEntity
  8
0
  6
Continuous
 62
     7
100
AcDb2dPolyline
 66
     1
 10
0.0
 20
0.0
 30
0.0
 70
     1
 40
0.4000000100000001
 41
0.4000000100000001
  0
VERTEX
  5
13A
330
139
100
AcDbEntity
  8
0
  6
Continuous
 62
     7
100
AcDbVertex
100
AcDb2dVertex
 10
-0.2
 20
0.0
 30
0.0
 42
1.0
  0
VERTEX
  5
13B
330
139
100
AcDbEntity
  8
0
  6
Continuous
 62
     7
100
AcDbVertex
100
AcDb2dVertex
 10
0.2
 20
0.0
 30
0.0
 42
1.0
  0
SEQEND
  5
13C
330
139
100
AcDbEntity
  8
0
  6
Continuous
 62
     7
  0
ENDBLK
  5
13D
330
137
100
AcDbEntity
  8
0
100
AcDbBlockEnd
  0
BLOCK
  5
13F
330
13E
100
AcDbEntity
  8
0
100
AcDbBlockBegin
  2
KOZU0037
 70
     0
 10
0.0
 20
0.0
 30
0.0
  3
KOZU0037
  1

  0
POLYLINE
  5
140
330
13E
100
AcDbEntity
  8
0
  6
Continuous
 62
     7
100
AcDb2dPolyline
 66
     1
 10
0.0
 20
0.0
 30
0.0
 70
     1
 40
0.4000000100000001
 41
0.4000000100000001
  0
VERTEX
  5
141
330
140
100
AcDbEntity
  8
0
  6
Continuous
 62
     7
100
AcDbVertex
100
AcDb2dVertex
 10
-0.2
 20
0.0
 30
0.0
 42
1.0
  0
VERTEX
  5
142
330
140
100
AcDbEntity
  8
0
  6
Continuous
 62
     7
100
AcDbVertex
100
AcDb2dVertex
 10
0.2
 20
0.0
 30
0.0
 42
1.0
  0
SEQEND
  5
143
330
140
100
AcDbEntity
  8
0
  6
Continuous
 62
     7
  0
ENDBLK
  5
144
330
13E
100
AcDbEntity
  8
0
100
AcDbBlockEnd
  0
BLOCK
  5
146
330
145
100
AcDbEntity
  8
0
100
AcDbBlockBegin
  2
KOZU0038
 70
     0
 10
0.0
 20
0.0
 30
0.0
  3
KOZU0038
  1

  0
POLYLINE
  5
147
330
145
100
AcDbEntity
  8
0
  6
Continuous
 62
     7
100
AcDb2dPolyline
 66
     1
 10
0.0
 20
0.0
 30
0.0
 70
     1
 40
0.4000000100000001
 41
0.4000000100000001
  0
VERTEX
  5
148
330
147
100
AcDbEntity
  8
0
  6
Continuous
 62
     7
100
AcDbVertex
100
AcDb2dVertex
 10
-0.2
 20
0.0
 30
0.0
 42
1.0
  0
VERTEX
  5
149
330
147
100
AcDbEntity
  8
0
  6
Continuous
 62
     7
100
AcDbVertex
100
AcDb2dVertex
 10
0.2
 20
0.0
 30
0.0
 42
1.0
  0
SEQEND
  5
14A
330
147
100
AcDbEntity
  8
0
  6
Continuous
 62
     7
  0
ENDBLK
  5
14B
330
145
100
AcDbEntity
  8
0
100
AcDbBlockEnd
  0
BLOCK
  5
14D
330
14C
100
AcDbEntity
  8
0
100
AcDbBlockBegin
  2
KOZU0039
 70
     0
 10
0.0
 20
0.0
 30
0.0
  3
KOZU0039
  1

  0
POLYLINE
  5
14E
330
14C
100
AcDbEntity
  8
0
  6
Continuous
 62
     7
100
AcDb2dPolyline
 66
     1
 10
0.0
 20
0.0
 30
0.0
 70
     1
 40
0.4000000100000001
 41
0.4000000100000001
  0
VERTEX
  5
14F
330
14E
100
AcDbEntity
  8
0
  6
Continuous
 62
     7
100
AcDbVertex
100
AcDb2dVertex
 10
-0.2
 20
0.0
 30
0.0
 42
1.0
  0
VERTEX
  5
150
330
14E
100
AcDbEntity
  8
0
  6
Continuous
 62
     7
100
AcDbVertex
100
AcDb2dVertex
 10
0.2
 20
0.0
 30
0.0
 42
1.0
  0
SEQEND
  5
151
330
14E
100
AcDbEntity
  8
0
  6
Continuous
 62
     7
  0
ENDBLK
  5
152
330
14C
100
AcDbEntity
  8
0
100
AcDbBlockEnd
  0
BLOCK
  5
154
330
153
100
AcDbEntity
  8
0
100
AcDbBlockBegin
  2
KOZU0040
 70
     0
 10
0.0
 20
0.0
 30
0.0
  3
KOZU0040
  1

  0
POLYLINE
  5
155
330
153
100
AcDbEntity
  8
0
  6
Continuous
 62
     7
100
AcDb2dPolyline
 66
     1
 10
0.0
 20
0.0
 30
0.0
 70
     1
 40
0.4000000100000001
 41
0.4000000100000001
  0
VERTEX
  5
156
330
155
100
AcDbEntity
  8
0
  6
Continuous
 62
     7
100
AcDbVertex
100
AcDb2dVertex
 10
-0.2
 20
0.0
 30
0.0
 42
1.0
  0
VERTEX
  5
157
330
155
100
AcDbEntity
  8
0
  6
Continuous
 62
     7
100
AcDbVertex
100
AcDb2dVertex
 10
0.2
 20
0.0
 30
0.0
 42
1.0
  0
SEQEND
  5
158
330
155
100
AcDbEntity
  8
0
  6
Continuous
 62
     7
  0
ENDBLK
  5
159
330
153
100
AcDbEntity
  8
0
100
AcDbBlockEnd
  0
BLOCK
  5
15B
330
15A
100
AcDbEntity
  8
0
100
AcDbBlockBegin
  2
KOZU0041
 70
     0
 10
0.0
 20
0.0
 30
0.0
  3
KOZU0041
  1

  0
POLYLINE
  5
15C
330
15A
100
AcDbEntity
  8
0
  6
Continuous
 62
     7
100
AcDb2dPolyline
 66
     1
 10
0.0
 20
0.0
 30
0.0
 70
     1
 40
0.4000000100000001
 41
0.4000000100000001
  0
VERTEX
  5
15D
330
15C
100
AcDbEntity
  8
0
  6
Continuous
 62
     7
100
AcDbVertex
100
AcDb2dVertex
 10
-0.2
 20
0.0
 30
0.0
 42
1.0
  0
VERTEX
  5
15E
330
15C
100
AcDbEntity
  8
0
  6
Continuous
 62
     7
100
AcDbVertex
100
AcDb2dVertex
 10
0.2
 20
0.0
 30
0.0
 42
1.0
  0
SEQEND
  5
15F
330
15C
100
AcDbEntity
  8
0
  6
Continuous
 62
     7
  0
ENDBLK
  5
160
330
15A
100
AcDbEntity
  8
0
100
AcDbBlockEnd
  0
BLOCK
  5
162
330
161
100
AcDbEntity
  8
0
100
AcDbBlockBegin
  2
KOZU0042
 70
     0
 10
0.0
 20
0.0
 30
0.0
  3
KOZU0042
  1

  0
POLYLINE
  5
163
330
161
100
AcDbEntity
  8
0
  6
Continuous
 62
     7
100
AcDb2dPolyline
 66
     1
 10
0.0
 20
0.0
 30
0.0
 70
     1
 40
0.4000000100000001
 41
0.4000000100000001
  0
VERTEX
  5
164
330
163
100
AcDbEntity
  8
0
  6
Continuous
 62
     7
100
AcDbVertex
100
AcDb2dVertex
 10
-0.2
 20
0.0
 30
0.0
 42
1.0
  0
VERTEX
  5
165
330
163
100
AcDbEntity
  8
0
  6
Continuous
 62
     7
100
AcDbVertex
100
AcDb2dVertex
 10
0.2
 20
0.0
 30
0.0
 42
1.0
  0
SEQEND
  5
166
330
163
100
AcDbEntity
  8
0
  6
Continuous
 62
     7
  0
ENDBLK
  5
167
330
161
100
AcDbEntity
  8
0
100
AcDbBlockEnd
  0
BLOCK
  5
169
330
168
100
AcDbEntity
  8
0
100
AcDbBlockBegin
  2
KOZU0043
 70
     0
 10
0.0
 20
0.0
 30
0.0
  3
KOZU0043
  1

  0
POLYLINE
  5
16A
330
168
100
AcDbEntity
  8
0
  6
Continuous
 62
     7
100
AcDb2dPolyline
 66
     1
 10
0.0
 20
0.0
 30
0.0
 70
     1
 40
0.4000000100000001
 41
0.4000000100000001
  0
VERTEX
  5
16B
330
16A
100
AcDbEntity
  8
0
  6
Continuous
 62
     7
100
AcDbVertex
100
AcDb2dVertex
 10
-0.2
 20
0.0
 30
0.0
 42
1.0
  0
VERTEX
  5
16C
330
16A
100
AcDbEntity
  8
0
  6
Continuous
 62
     7
100
AcDbVertex
100
AcDb2dVertex
 10
0.2
 20
0.0
 30
0.0
 42
1.0
  0
SEQEND
  5
16D
330
16A
100
AcDbEntity
  8
0
  6
Continuous
 62
     7
  0
ENDBLK
  5
16E
330
168
100
AcDbEntity
  8
0
100
AcDbBlockEnd
  0
BLOCK
  5
170
330
16F
100
AcDbEntity
  8
0
100
AcDbBlockBegin
  2
KOZU0044
 70
     0
 10
0.0
 20
0.0
 30
0.0
  3
KOZU0044
  1

  0
POLYLINE
  5
171
330
16F
100
AcDbEntity
  8
0
  6
Continuous
 62
     7
100
AcDb2dPolyline
 66
     1
 10
0.0
 20
0.0
 30
0.0
 70
     1
 40
0.4000000100000001
 41
0.4000000100000001
  0
VERTEX
  5
172
330
171
100
AcDbEntity
  8
0
  6
Continuous
 62
     7
100
AcDbVertex
100
AcDb2dVertex
 10
-0.2
 20
0.0
 30
0.0
 42
1.0
  0
VERTEX
  5
173
330
171
100
AcDbEntity
  8
0
  6
Continuous
 62
     7
100
AcDbVertex
100
AcDb2dVertex
 10
0.2
 20
0.0
 30
0.0
 42
1.0
  0
SEQEND
  5
174
330
171
100
AcDbEntity
  8
0
  6
Continuous
 62
     7
  0
ENDBLK
  5
175
330
16F
100
AcDbEntity
  8
0
100
AcDbBlockEnd
  0
BLOCK
  5
177
330
176
100
AcDbEntity
  8
0
100
AcDbBlockBegin
  2
KOZU0045
 70
     0
 10
0.0
 20
0.0
 30
0.0
  3
KOZU0045
  1

  0
POLYLINE
  5
178
330
176
100
AcDbEntity
  8
0
  6
Continuous
 62
     7
100
AcDb2dPolyline
 66
     1
 10
0.0
 20
0.0
 30
0.0
 70
     1
 40
0.4000000100000001
 41
0.4000000100000001
  0
VERTEX
  5
179
330
178
100
AcDbEntity
  8
0
  6
Continuous
 62
     7
100
AcDbVertex
100
AcDb2dVertex
 10
-0.2
 20
0.0
 30
0.0
 42
1.0
  0
VERTEX
  5
17A
330
178
100
AcDbEntity
  8
0
  6
Continuous
 62
     7
100
AcDbVertex
100
AcDb2dVertex
 10
0.2
 20
0.0
 30
0.0
 42
1.0
  0
SEQEND
  5
17B
330
178
100
AcDbEntity
  8
0
  6
Continuous
 62
     7
  0
ENDBLK
  5
17C
330
176
100
AcDbEntity
  8
0
100
AcDbBlockEnd
  0
BLOCK
  5
17E
330
17D
100
AcDbEntity
  8
0
100
AcDbBlockBegin
  2
KOZU0046
 70
     0
 10
0.0
 20
0.0
 30
0.0
  3
KOZU0046
  1

  0
POLYLINE
  5
17F
330
17D
100
AcDbEntity
  8
0
  6
Continuous
 62
     7
100
AcDb2dPolyline
 66
     1
 10
0.0
 20
0.0
 30
0.0
 70
     1
 40
0.4000000100000001
 41
0.4000000100000001
  0
VERTEX
  5
180
330
17F
100
AcDbEntity
  8
0
  6
Continuous
 62
     7
100
AcDbVertex
100
AcDb2dVertex
 10
-0.2
 20
0.0
 30
0.0
 42
1.0
  0
VERTEX
  5
181
330
17F
100
AcDbEntity
  8
0
  6
Continuous
 62
     7
100
AcDbVertex
100
AcDb2dVertex
 10
0.2
 20
0.0
 30
0.0
 42
1.0
  0
SEQEND
  5
182
330
17F
100
AcDbEntity
  8
0
  6
Continuous
 62
     7
  0
ENDBLK
  5
183
330
17D
100
AcDbEntity
  8
0
100
AcDbBlockEnd
  0
BLOCK
  5
185
330
184
100
AcDbEntity
  8
0
100
AcDbBlockBegin
  2
KOZU0047
 70
     0
 10
0.0
 20
0.0
 30
0.0
  3
KOZU0047
  1

  0
POLYLINE
  5
186
330
184
100
AcDbEntity
  8
0
  6
Continuous
 62
     7
100
AcDb2dPolyline
 66
     1
 10
0.0
 20
0.0
 30
0.0
 70
     1
 40
0.4000000100000001
 41
0.4000000100000001
  0
VERTEX
  5
187
330
186
100
AcDbEntity
  8
0
  6
Continuous
 62
     7
100
AcDbVertex
100
AcDb2dVertex
 10
-0.2
 20
0.0
 30
0.0
 42
1.0
  0
VERTEX
  5
188
330
186
100
AcDbEntity
  8
0
  6
Continuous
 62
     7
100
AcDbVertex
100
AcDb2dVertex
 10
0.2
 20
0.0
 30
0.0
 42
1.0
  0
SEQEND
  5
189
330
186
100
AcDbEntity
  8
0
  6
Continuous
 62
     7
  0
ENDBLK
  5
18A
330
184
100
AcDbEntity
  8
0
100
AcDbBlockEnd
  0
BLOCK
  5
18C
330
18B
100
AcDbEntity
  8
0
100
AcDbBlockBegin
  2
KOZU0048
 70
     0
 10
0.0
 20
0.0
 30
0.0
  3
KOZU0048
  1

  0
POLYLINE
  5
18D
330
18B
100
AcDbEntity
  8
0
  6
Continuous
 62
     7
100
AcDb2dPolyline
 66
     1
 10
0.0
 20
0.0
 30
0.0
 70
     1
 40
0.4000000100000001
 41
0.4000000100000001
  0
VERTEX
  5
18E
330
18D
100
AcDbEntity
  8
0
  6
Continuous
 62
     7
100
AcDbVertex
100
AcDb2dVertex
 10
-0.2
 20
0.0
 30
0.0
 42
1.0
  0
VERTEX
  5
18F
330
18D
100
AcDbEntity
  8
0
  6
Continuous
 62
     7
100
AcDbVertex
100
AcDb2dVertex
 10
0.2
 20
0.0
 30
0.0
 42
1.0
  0
SEQEND
  5
190
330
18D
100
AcDbEntity
  8
0
  6
Continuous
 62
     7
  0
ENDBLK
  5
191
330
18B
100
AcDbEntity
  8
0
100
AcDbBlockEnd
  0
BLOCK
  5
193
330
192
100
AcDbEntity
  8
0
100
AcDbBlockBegin
  2
KOZU0049
 70
     0
 10
0.0
 20
0.0
 30
0.0
  3
KOZU0049
  1

  0
POLYLINE
  5
194
330
192
100
AcDbEntity
  8
0
  6
Continuous
 62
     7
100
AcDb2dPolyline
 66
     1
 10
0.0
 20
0.0
 30
0.0
 70
     1
 40
0.4000000100000001
 41
0.4000000100000001
  0
VERTEX
  5
195
330
194
100
AcDbEntity
  8
0
  6
Continuous
 62
     7
100
AcDbVertex
100
AcDb2dVertex
 10
-0.2
 20
0.0
 30
0.0
 42
1.0
  0
VERTEX
  5
196
330
194
100
AcDbEntity
  8
0
  6
Continuous
 62
     7
100
AcDbVertex
100
AcDb2dVertex
 10
0.2
 20
0.0
 30
0.0
 42
1.0
  0
SEQEND
  5
197
330
194
100
AcDbEntity
  8
0
  6
Continuous
 62
     7
  0
ENDBLK
  5
198
330
192
100
AcDbEntity
  8
0
100
AcDbBlockEnd
  0
BLOCK
  5
19A
330
199
100
AcDbEntity
  8
0
100
AcDbBlockBegin
  2
KOZU0050
 70
     0
 10
0.0
 20
0.0
 30
0.0
  3
KOZU0050
  1

  0
POLYLINE
  5
19B
330
199
100
AcDbEntity
  8
0
  6
Continuous
 62
     7
100
AcDb2dPolyline
 66
     1
 10
0.0
 20
0.0
 30
0.0
 70
     1
 40
0.4000000100000001
 41
0.4000000100000001
  0
VERTEX
  5
19C
330
19B
100
AcDbEntity
  8
0
  6
Continuous
 62
     7
100
AcDbVertex
100
AcDb2dVertex
 10
-0.2
 20
0.0
 30
0.0
 42
1.0
  0
VERTEX
  5
19D
330
19B
100
AcDbEntity
  8
0
  6
Continuous
 62
     7
100
AcDbVertex
100
AcDb2dVertex
 10
0.2
 20
0.0
 30
0.0
 42
1.0
  0
SEQEND
  5
19E
330
19B
100
AcDbEntity
  8
0
  6
Continuous
 62
     7
  0
ENDBLK
  5
19F
330
199
100
AcDbEntity
  8
0
100
AcDbBlockEnd
  0
BLOCK
  5
1A1
330
1A0
100
AcDbEntity
  8
0
100
AcDbBlockBegin
  2
KOZU0051
 70
     0
 10
0.0
 20
0.0
 30
0.0
  3
KOZU0051
  1

  0
POLYLINE
  5
1A2
330
1A0
100
AcDbEntity
  8
0
  6
Continuous
 62
     7
100
AcDb2dPolyline
 66
     1
 10
0.0
 20
0.0
 30
0.0
 70
     1
 40
0.4000000100000001
 41
0.4000000100000001
  0
VERTEX
  5
1A3
330
1A2
100
AcDbEntity
  8
0
  6
Continuous
 62
     7
100
AcDbVertex
100
AcDb2dVertex
 10
-0.2
 20
0.0
 30
0.0
 42
1.0
  0
VERTEX
  5
1A4
330
1A2
100
AcDbEntity
  8
0
  6
Continuous
 62
     7
100
AcDbVertex
100
AcDb2dVertex
 10
0.2
 20
0.0
 30
0.0
 42
1.0
  0
SEQEND
  5
1A5
330
1A2
100
AcDbEntity
  8
0
  6
Continuous
 62
     7
  0
ENDBLK
  5
1A6
330
1A0
100
AcDbEntity
  8
0
100
AcDbBlockEnd
  0
BLOCK
  5
1A8
330
1A7
100
AcDbEntity
  8
0
100
AcDbBlockBegin
  2
KOZU0052
 70
     0
 10
0.0
 20
0.0
 30
0.0
  3
KOZU0052
  1

  0
POLYLINE
  5
1A9
330
1A7
100
AcDbEntity
  8
0
  6
Continuous
 62
     7
100
AcDb2dPolyline
 66
     1
 10
0.0
 20
0.0
 30
0.0
 70
     1
 40
0.4000000100000001
 41
0.4000000100000001
  0
VERTEX
  5
1AA
330
1A9
100
AcDbEntity
  8
0
  6
Continuous
 62
     7
100
AcDbVertex
100
AcDb2dVertex
 10
-0.2
 20
0.0
 30
0.0
 42
1.0
  0
VERTEX
  5
1AB
330
1A9
100
AcDbEntity
  8
0
  6
Continuous
 62
     7
100
AcDbVertex
100
AcDb2dVertex
 10
0.2
 20
0.0
 30
0.0
 42
1.0
  0
SEQEND
  5
1AC
330
1A9
100
AcDbEntity
  8
0
  6
Continuous
 62
     7
  0
ENDBLK
  5
1AD
330
1A7
100
AcDbEntity
  8
0
100
AcDbBlockEnd
  0
BLOCK
  5
1AF
330
1AE
100
AcDbEntity
  8
0
100
AcDbBlockBegin
  2
KOZU0053
 70
     0
 10
0.0
 20
0.0
 30
0.0
  3
KOZU0053
  1

  0
POLYLINE
  5
1B0
330
1AE
100
AcDbEntity
  8
0
  6
Continuous
 62
     7
100
AcDb2dPolyline
 66
     1
 10
0.0
 20
0.0
 30
0.0
 70
     1
 40
0.4000000100000001
 41
0.4000000100000001
  0
VERTEX
  5
1B1
330
1B0
100
AcDbEntity
  8
0
  6
Continuous
 62
     7
100
AcDbVertex
100
AcDb2dVertex
 10
-0.2
 20
0.0
 30
0.0
 42
1.0
  0
VERTEX
  5
1B2
330
1B0
100
AcDbEntity
  8
0
  6
Continuous
 62
     7
100
AcDbVertex
100
AcDb2dVertex
 10
0.2
 20
0.0
 30
0.0
 42
1.0
  0
SEQEND
  5
1B3
330
1B0
100
AcDbEntity
  8
0
  6
Continuous
 62
     7
  0
ENDBLK
  5
1B4
330
1AE
100
AcDbEntity
  8
0
100
AcDbBlockEnd
  0
BLOCK
  5
1B6
330
1B5
100
AcDbEntity
  8
0
100
AcDbBlockBegin
  2
KOZU0054
 70
     0
 10
0.0
 20
0.0
 30
0.0
  3
KOZU0054
  1

  0
POLYLINE
  5
1B7
330
1B5
100
AcDbEntity
  8
0
  6
Continuous
 62
     7
100
AcDb2dPolyline
 66
     1
 10
0.0
 20
0.0
 30
0.0
 70
     1
 40
0.4000000100000001
 41
0.4000000100000001
  0
VERTEX
  5
1B8
330
1B7
100
AcDbEntity
  8
0
  6
Continuous
 62
     7
100
AcDbVertex
100
AcDb2dVertex
 10
-0.2
 20
0.0
 30
0.0
 42
1.0
  0
VERTEX
  5
1B9
330
1B7
100
AcDbEntity
  8
0
  6
Continuous
 62
     7
100
AcDbVertex
100
AcDb2dVertex
 10
0.2
 20
0.0
 30
0.0
 42
1.0
  0
SEQEND
  5
1BA
330
1B7
100
AcDbEntity
  8
0
  6
Continuous
 62
     7
  0
ENDBLK
  5
1BB
330
1B5
100
AcDbEntity
  8
0
100
AcDbBlockEnd
  0
BLOCK
  5
488
330
486
100
AcDbEntity
  8
0
100
AcDbBlockBegin
  2
GENAXEH
 70
     0
 10
0.0
 20
0.0
 30
0.0
  3
GENAXEH
  1

  0
LINE
  5
487
330
486
100
AcDbEntity
  8
0
100
AcDbLine
 10
-1.0
 20
0.0
 30
0.0
 11
1.0
 21
0.0
 31
0.0
  0
ENDBLK
  5
489
330
486
100
AcDbEntity
  8
0
100
AcDbBlockEnd
  0
ENDSEC
  0
SECTION
  2
ENTITIES
  0
POINT
  5
1BC
330
36
100
AcDbEntity
  8
0
  6
Continuous
 62
     3
100
AcDbPoint
 10
613.6377599999999
 20
534.4082599999999
 30
0.0
  0
POINT
  5
1BD
330
36
100
AcDbEntity
  8
0
  6
Continuous
 62
     3
100
AcDbPoint
 10
591.4077099999999
 20
504.40826
 30
0.0
  0
POINT
  5
1BE
330
36
100
AcDbEntity
  8
0
  6
Continuous
 62
     3
100
AcDbPoint
 10
644.13776
 20
504.40826
 30
0.0
  0
POINT
  5
1BF
330
36
100
AcDbEntity
  8
0
  6
Continuous
 62
     3
100
AcDbPoint
 10
596.7236299999999
 20
524.4082599999999
 30
0.0
  0
POINT
  5
1C0
330
36
100
AcDbEntity
  8
0
  6
Continuous
 62
     3
100
AcDbPoint
 10
591.4077099999999
 20
504.40826
 30
0.0
  0
POINT
  5
1C1
330
36
100
AcDbEntity
  8
0
  6
Continuous
 62
     3
100
AcDbPoint
 10
629.1377599999999
 20
504.40826
 30
0.0
  0
POINT
  5
1C2
330
36
100
AcDbEntity
  8
0
  6
Continuous
 62
     3
100
AcDbPoint
 10
614.1377599999999
 20
534.4082599999999
 30
0.0
  0
POINT
  5
1C3
330
36
100
AcDbEntity
  8
0
  6
Continuous
 62
     3
100
AcDbPoint
 10
596.7236299999999
 20
524.4082599999999
 30
0.0
  0
POINT
  5
1C4
330
36
100
AcDbEntity
  8
0
  6
Continuous
 62
     3
100
AcDbPoint
 10
629.1377599999999
 20
524.4082599999999
 30
0.0
  0
POINT
  5
1C5
330
36
100
AcDbEntity
  8
0
  6
Continuous
 62
     3
100
AcDbPoint
 10
455.63773
 20
417.75546
 30
0.0
  0
POINT
  5
1C6
330
36
100
AcDbEntity
  8
0
  6
Continuous
 62
     3
100
AcDbPoint
 10
613.6377599999999
 20
416.37915
 30
0.0
  0
POINT
  5
1C7
330
36
100
AcDbEntity
  8
0
  6
Continuous
 62
     3
100
AcDbPoint
 10
613.6377599999999
 20
447.7554599999999
 30
0.0
  0
POINT
  5
1C8
330
36
100
AcDbEntity
  8
0
  6
Continuous
 62
     3
100
AcDbPoint
 10
608.1377599999999
 20
420.5907599999999
 30
0.0
  0
POINT
  5
1C9
330
36
100
AcDbEntity
  8
0
  6
Continuous
 62
     3
100
AcDbPoint
 10
613.6377599999999
 20
417.75546
 30
0.0
  0
POINT
  5
1CA
330
36
100
AcDbEntity
  8
0
  6
Continuous
 62
     3
100
AcDbPoint
 10
613.6377599999999
 20
437.7554599999999
 30
0.0
  0
POINT
  5
1CB
330
36
100
AcDbEntity
  8
0
  6
Continuous
 62
     3
100
AcDbPoint
 10
583.1377599999999
 20
414.75546
 30
0.0
  0
POINT
  5
1CC
330
36
100
AcDbEntity
  8
0
  6
Continuous
 62
     3
100
AcDbPoint
 10
613.6377599999999
 20
417.75546
 30
0.0
  0
POINT
  5
1CD
330
36
100
AcDbEntity
  8
0
  6
Continuous
 62
     3
100
AcDbPoint
 10
613.6377599999999
 20
427.75546
 30
0.0
  0
POINT
  5
1CE
330
36
100
AcDbEntity
  8
0
  6
Continuous
 62
     3
100
AcDbPoint
 10
461.1377599999999
 20
420.5907599999999
 30
0.0
  0
POINT
  5
1CF
330
36
100
AcDbEntity
  8
0
  6
Continuous
 62
     3
100
AcDbPoint
 10
608.1377599999999
 20
420.5907599999999
 30
0.0
  0
POINT
  5
1D0
330
36
100
AcDbEntity
  8
0
  6
Continuous
 62
     3
100
AcDbPoint
 10
608.1377599999999
 20
437.7554599999999
 30
0.0
  0
POINT
  5
1D1
330
36
100
AcDbEntity
  8
0
  6
Continuous
 62
     3
100
AcDbPoint
 10
486.13773
 20
414.75546
 30
0.0
  0
POINT
  5
1D2
330
36
100
AcDbEntity
  8
0
  6
Continuous
 62
     3
100
AcDbPoint
 10
583.1377599999999
 20
414.75546
 30
0.0
  0
POINT
  5
1D3
330
36
100
AcDbEntity
  8
0
  6
Continuous
 62
     3
100
AcDbPoint
 10
583.1377599999999
 20
427.75546
 30
0.0
  0
POINT
  5
1D4
330
36
100
AcDbEntity
  8
0
  6
Continuous
 62
     3
100
AcDbPoint
 10
455.63773
 20
417.75546
 30
0.0
  0
POINT
  5
1D5
330
36
100
AcDbEntity
  8
0
  6
Continuous
 62
     3
100
AcDbPoint
 10
486.13773
 20
414.75546
 30
0.0
  0
POINT
  5
1D6
330
36
100
AcDbEntity
  8
0
  6
Continuous
 62
     3
100
AcDbPoint
 10
486.13773
 20
427.75546
 30
0.0
  0
POINT
  5
1D7
330
36
100
AcDbEntity
  8
0
  6
Continuous
 62
     3
100
AcDbPoint
 10
455.63773
 20
417.75546
 30
0.0
  0
POINT
  5
1D8
330
36
100
AcDbEntity
  8
0
  6
Continuous
 62
     3
100
AcDbPoint
 10
461.1377599999999
 20
420.5907599999999
 30
0.0
  0
POINT
  5
1D9
330
36
100
AcDbEntity
  8
0
  6
Continuous
 62
     3
100
AcDbPoint
 10
461.1377599999999
 20
437.7554599999999
 30
0.0
  0
POINT
  5
1DA
330
36
100
AcDbEntity
  8
0
  6
Continuous
 62
     3
100
AcDbPoint
 10
759.5382099999999
 20
429.17917
 30
0.0
  0
POINT
  5
1DB
330
36
100
AcDbEntity
  8
0
  6
Continuous
 62
     3
100
AcDbPoint
 10
768.5382099999999
 20
467.6791699999999
 30
0.0
  0
POINT
  5
1DC
330
36
100
AcDbEntity
  8
0
  6
Continuous
 62
     3
100
AcDbPoint
 10
768.5382099999999
 20
514.1792
 30
0.0
  0
POINT
  5
1DD
330
36
100
AcDbEntity
  8
0
  6
Continuous
 62
     3
100
AcDbPoint
 10
759.5382099999999
 20
429.17917
 30
0.0
  0
POINT
  5
1DE
330
36
100
AcDbEntity
  8
0
  6
Continuous
 62
     3
100
AcDbPoint
 10
762.0382099999999
 20
484.1791699999999
 30
0.0
  0
POINT
  5
1DF
330
36
100
AcDbEntity
  8
0
  6
Continuous
 62
     3
100
AcDbPoint
 10
762.0382099999999
 20
499.17917
 30
0.0
  0
POINT
  5
1E0
330
36
100
AcDbEntity
  8
0
  6
Continuous
 62
     3
100
AcDbPoint
 10
707.4499499999999
 20
485.1791699999999
 30
0.0
  0
POINT
  5
1E1
330
36
100
AcDbEntity
  8
0
  6
Continuous
 62
     3
100
AcDbPoint
 10
700.1999499999999
 20
389.17917
 30
0.0
  0
POINT
  5
1E2
330
36
100
AcDbEntity
  8
0
  6
Continuous
 62
     3
100
AcDbPoint
 10
737.1999499999999
 20
389.17917
 30
0.0
  0
POINT
  5
1E3
330
36
100
AcDbEntity
  8
0
  6
Continuous
 62
     3
100
AcDbPoint
 10
705.1999499999999
 20
462.17917
 30
0.0
  0
POINT
  5
1E4
330
36
100
AcDbEntity
  8
0
  6
Continuous
 62
     3
100
AcDbPoint
 10
705.1999499999999
 20
447.1791699999999
 30
0.0
  0
POINT
  5
1E5
330
36
100
AcDbEntity
  8
0
  6
Continuous
 62
     3
100
AcDbPoint
 10
722.1999499999999
 20
447.1791699999999
 30
0.0
  0
POINT
  5
1E6
330
36
100
AcDbEntity
  8
0
  6
Continuous
 62
     3
100
AcDbPoint
 10
612.4727199999999
 20
417.75546
 30
0.0
  0
POINT
  5
1E7
330
36
100
AcDbEntity
  8
0
  6
Continuous
 62
     3
100
AcDbPoint
 10
612.4727199999999
 20
391.75546
 30
0.0
  0
POINT
  5
1E8
330
36
100
AcDbEntity
  8
0
  6
Continuous
 62
     3
100
AcDbPoint
 10
639.1377599999999
 20
391.75546
 30
0.0
  0
POINT
  5
1E9
330
36
100
AcDbEntity
  8
0
  6
Continuous
 62
     3
100
AcDbPoint
 10
613.1377599999999
 20
411.75546
 30
0.0
  0
POINT
  5
1EA
330
36
100
AcDbEntity
  8
0
  6
Continuous
 62
     3
100
AcDbPoint
 10
613.1377599999999
 20
397.75546
 30
0.0
  0
POINT
  5
1EB
330
36
100
AcDbEntity
  8
0
  6
Continuous
 62
     3
100
AcDbPoint
 10
629.1377599999999
 20
397.75546
 30
0.0
  0
POINT
  5
1EC
330
36
100
AcDbEntity
  8
0
  6
Continuous
 62
     3
100
AcDbPoint
 10
612.4727199999999
 20
417.75546
 30
0.0
  0
POINT
  5
1ED
330
36
100
AcDbEntity
  8
0
  6
Continuous
 62
     3
100
AcDbPoint
 10
613.1377599999999
 20
411.75546
 30
0.0
  0
POINT
  5
1EE
330
36
100
AcDbEntity
  8
0
  6
Continuous
 62
     3
100
AcDbPoint
 10
629.1377599999999
 20
411.75546
 30
0.0
  0
POINT
  5
1EF
330
36
100
AcDbEntity
  8
0
  6
Continuous
 62
     3
100
AcDbPoint
 10
613.1377599999999
 20
397.75546
 30
0.0
  0
POINT
  5
1F0
330
36
100
AcDbEntity
  8
0
  6
Continuous
 62
     3
100
AcDbPoint
 10
612.4727199999999
 20
391.75546
 30
0.0
  0
POINT
  5
1F1
330
36
100
AcDbEntity
  8
0
  6
Continuous
 62
     3
100
AcDbPoint
 10
629.1377599999999
 20
391.75546
 30
0.0
  0
POINT
  5
1F2
330
36
100
AcDbEntity
  8
0
  6
Continuous
 62
     3
100
AcDbPoint
 10
705.1999499999999
 20
411.17917
 30
0.0
  0
POINT
  5
1F3
330
36
100
AcDbEntity
  8
0
  6
Continuous
 62
     3
100
AcDbPoint
 10
705.1999499999999
 20
396.17917
 30
0.0
  0
POINT
  5
1F4
330
36
100
AcDbEntity
  8
0
  6
Continuous
 62
     3
100
AcDbPoint
 10
722.1999499999999
 20
396.17917
 30
0.0
  0
POINT
  5
1F5
330
36
100
AcDbEntity
  8
0
  6
Continuous
 62
     3
100
AcDbPoint
 10
705.1999499999999
 20
447.1791699999999
 30
0.0
  0
POINT
  5
1F6
330
36
100
AcDbEntity
  8
0
  6
Continuous
 62
     3
100
AcDbPoint
 10
705.1999499999999
 20
411.17917
 30
0.0
  0
POINT
  5
1F7
330
36
100
AcDbEntity
  8
0
  6
Continuous
 62
     3
100
AcDbPoint
 10
722.1999499999999
 20
411.17917
 30
0.0
  0
POINT
  5
1F8
330
36
100
AcDbEntity
  8
0
  6
Continuous
 62
     3
100
AcDbPoint
 10
705.1999499999999
 20
396.17917
 30
0.0
  0
POINT
  5
1F9
330
36
100
AcDbEntity
  8
0
  6
Continuous
 62
     3
100
AcDbPoint
 10
700.1999499999999
 20
389.17917
 30
0.0
  0
POINT
  5
1FA
330
36
100
AcDbEntity
  8
0
  6
Continuous
 62
     3
100
AcDbPoint
 10
722.1999499999999
 20
389.17917
 30
0.0
  0
POINT
  5
1FB
330
36
100
AcDbEntity
  8
0
  6
Continuous
 62
     3
100
AcDbPoint
 10
692.9499499999999
 20
485.1791699999999
 30
0.0
  0
POINT
  5
1FC
330
36
100
AcDbEntity
  8
0
  6
Continuous
 62
     3
100
AcDbPoint
 10
707.4499499999999
 20
485.1791699999999
 30
0.0
  0
POINT
  5
1FD
330
36
100
AcDbEntity
  8
0
  6
Continuous
 62
     3
100
AcDbPoint
 10
707.4499499999999
 20
514.1792
 30
0.0
  0
POINT
  5
1FE
330
36
100
AcDbEntity
  8
0
  6
Continuous
 62
     3
100
AcDbPoint
 10
707.4499499999999
 20
485.1791699999999
 30
0.0
  0
POINT
  5
1FF
330
36
100
AcDbEntity
  8
0
  6
Continuous
 62
     3
100
AcDbPoint
 10
705.1999499999999
 20
462.17917
 30
0.0
  0
POINT
  5
200
330
36
100
AcDbEntity
  8
0
  6
Continuous
 62
     3
100
AcDbPoint
 10
722.1999499999999
 20
462.17917
 30
0.0
  0
POINT
  5
201
330
36
100
AcDbEntity
  8
0
  6
Continuous
 62
     3
100
AcDbPoint
 10
762.0382099999999
 20
484.1791699999999
 30
0.0
  0
POINT
  5
202
330
36
100
AcDbEntity
  8
0
  6
Continuous
 62
     3
100
AcDbPoint
 10
768.5382099999999
 20
467.6791699999999
 30
0.0
  0
POINT
  5
203
330
36
100
AcDbEntity
  8
0
  6
Continuous
 62
     3
100
AcDbPoint
 10
768.5382099999999
 20
499.17917
 30
0.0
  0
POINT
  5
204
330
36
100
AcDbEntity
  8
0
  6
Continuous
 62
     3
100
AcDbPoint
 10
462.65213
 20
395.64203
 30
0.0
  0
POINT
  5
205
330
36
100
AcDbEntity
  8
0
  6
Continuous
 62
     3
100
AcDbPoint
 10
459.62335
 20
399.8689
 30
0.0
  0
POINT
  5
207
330
36
100
AcDbEntity
  8
0
  6
Continuous
 62
     3
100
AcDbPoint
 10
767.0382099999999
 20
389.17917
 30
0.0
  0
POINT
  5
208
330
36
100
AcDbEntity
  8
0
  6
Continuous
 62
     3
100
AcDbPoint
 10
768.5382099999999
 20
389.17917
 30
0.0
  0
POINT
  5
209
330
36
100
AcDbEntity
  8
0
  6
Continuous
 62
     3
100
AcDbPoint
 10
768.5382099999999
 20
374.17917
 30
0.0
  0
POINT
  5
20A
330
36
100
AcDbEntity
  8
0
  6
Continuous
 62
     3
100
AcDbPoint
 10
702.0389999999999
 20
394.13458
 30
0.0
  0
POINT
  5
20B
330
36
100
AcDbEntity
  8
0
  6
Continuous
 62
     3
100
AcDbPoint
 10
698.3609
 20
398.22379
 30
0.0
  0
LINE
  5
20C
330
36
100
AcDbEntity
  8
0
  6
Continuous
 62
     7
100
AcDbLine
 10
601.1507599999999
 20
533.07629
 30
0.0
 11
613.6377599999999
 21
533.07629
 31
0.0
  0
LINE
  5
20D
330
36
100
AcDbEntity
  8
0
  6
Continuous
 62
     3
100
AcDbLine
 10
594.6999499999999
 20
363.22324
 30
0.0
 11
617.1059599999999
 21
363.22324
 31
0.0
  0
LINE
  5
20E
330
36
100
AcDbEntity
  8
0
  6
Continuous
 62
     7
100
AcDbLine
 10
592.6785899999999
 20
391.75546
 30
0.0
 11
609.6377599999999
 21
391.75546
 31
0.0
  0
LINE
  5
20F
330
36
100
AcDbEntity
  8
0
  6
CENTER
 62
     4
100
AcDbLine
 10
613.1377599999999
 20
397.75546
 30
0.0
 11
603.1377599999999
 21
397.75546
 31
0.0
  0
LINE
  5
210
330
36
100
AcDbEntity
  8
0
  6
CENTER
 62
     4
100
AcDbLine
 10
613.1377599999999
 20
411.75546
 30
0.0
 11
603.1377599999999
 21
411.75546
 31
0.0
  0
LINE
  5
211
330
36
100
AcDbEntity
  8
0
  6
CENTER
 62
     4
100
AcDbLine
 10
448.93597
 20
404.75546
 30
0.0
 11
619.0546900000001
 21
404.75546
 31
0.0
  0
LINE
  5
212
330
36
100
AcDbEntity
  8
0
  6
Continuous
 62
     7
100
AcDbLine
 10
459.6377299999999
 20
417.75546
 30
0.0
 11
609.6377599999999
 21
417.75546
 31
0.0
  0
LINE
  5
213
330
36
100
AcDbEntity
  8
0
  6
Continuous
 62
     7
100
AcDbLine
 10
455.63773
 20
534.4082599999999
 30
0.0
 11
614.1377599999999
 21
534.4082599999999
 31
0.0
  0
LINE
  5
214
330
36
100
AcDbEntity
  8
0
  6
Continuous
 62
     3
100
AcDbLine
 10
614.63776
 20
534.4082599999999
 30
0.0
 11
645.1377599999999
 21
534.4082599999999
 31
0.0
  0
LINE
  5
215
330
36
100
AcDbEntity
  8
0
  6
Continuous
 62
     3
100
AcDbLine
 10
592.4077099999999
 20
504.40826
 30
0.0
 11
645.1377599999999
 21
504.40826
 31
0.0
  0
LINE
  5
216
330
36
100
AcDbEntity
  8
0
  6
Continuous
 62
     3
100
AcDbLine
 10
644.13776
 20
533.60828
 30
0.0
 11
644.13776
 21
505.2082799999999
 31
0.0
  0
LINE
  5
217
330
36
100
AcDbEntity
  8
0
  6
Continuous
 62
     7
100
AcDbLine
 10
644.13776
 20
534.0082999999999
 30
0.0
 11
644.13776
 21
533.60828
 31
0.0
  0
LINE
  5
218
330
36
100
AcDbEntity
  8
0
  6
Continuous
 62
     7
100
AcDbLine
 10
644.13776
 20
504.80829
 30
0.0
 11
644.13776
 21
505.2082799999999
 31
0.0
  0
LINE
  5
219
330
36
100
AcDbEntity
  8
0
  6
Continuous
 62
     3
100
AcDbLine
 10
597.7236299999999
 20
524.4082599999999
 30
0.0
 11
630.1377599999999
 21
524.4082599999999
 31
0.0
  0
LINE
  5
21A
330
36
100
AcDbEntity
  8
0
  6
Continuous
 62
     3
100
AcDbLine
 10
592.4077099999999
 20
504.40826
 30
0.0
 11
630.1377599999999
 21
504.40826
 31
0.0
  0
LINE
  5
21B
330
36
100
AcDbEntity
  8
0
  6
Continuous
 62
     3
100
AcDbLine
 10
629.1377599999999
 20
523.60828
 30
0.0
 11
629.1377599999999
 21
505.2082799999999
 31
0.0
  0
LINE
  5
21C
330
36
100
AcDbEntity
  8
0
  6
Continuous
 62
     7
100
AcDbLine
 10
629.1377599999999
 20
524.0082999999999
 30
0.0
 11
629.1377599999999
 21
523.60828
 31
0.0
  0
LINE
  5
21D
330
36
100
AcDbEntity
  8
0
  6
Continuous
 62
     7
100
AcDbLine
 10
629.1377599999999
 20
504.80829
 30
0.0
 11
629.1377599999999
 21
505.2082799999999
 31
0.0
  0
LINE
  5
21E
330
36
100
AcDbEntity
  8
0
  6
Continuous
 62
     3
100
AcDbLine
 10
615.13776
 20
534.4082599999999
 30
0.0
 11
630.1377599999999
 21
534.4082599999999
 31
0.0
  0
LINE
  5
21F
330
36
100
AcDbEntity
  8
0
  6
Continuous
 62
     3
100
AcDbLine
 10
597.7236299999999
 20
524.4082599999999
 30
0.0
 11
630.1377599999999
 21
524.4082599999999
 31
0.0
  0
LINE
  5
220
330
36
100
AcDbEntity
  8
0
  6
Continuous
 62
     3
100
AcDbLine
 10
629.1377599999999
 20
533.60828
 30
0.0
 11
629.1377599999999
 21
525.20825
 31
0.0
  0
LINE
  5
221
330
36
100
AcDbEntity
  8
0
  6
Continuous
 62
     7
100
AcDbLine
 10
629.1377599999999
 20
534.0082999999999
 30
0.0
 11
629.1377599999999
 21
533.60828
 31
0.0
  0
LINE
  5
222
330
36
100
AcDbEntity
  8
0
  6
Continuous
 62
     7
100
AcDbLine
 10
629.1377599999999
 20
524.80829
 30
0.0
 11
629.1377599999999
 21
525.20825
 31
0.0
  0
LINE
  5
223
330
36
100
AcDbEntity
  8
0
  6
Continuous
 62
     3
100
AcDbLine
 10
455.63773
 20
418.75546
 30
0.0
 11
455.63773
 21
448.75546
 31
0.0
  0
LINE
  5
224
330
36
100
AcDbEntity
  8
0
  6
Continuous
 62
     3
100
AcDbLine
 10
613.6377599999999
 20
417.37915
 30
0.0
 11
613.6377599999999
 21
448.75546
 31
0.0
  0
LINE
  5
225
330
36
100
AcDbEntity
  8
0
  6
Continuous
 62
     3
100
AcDbLine
 10
456.43774
 20
447.7554599999999
 30
0.0
 11
612.8377699999999
 21
447.7554599999999
 31
0.0
  0
LINE
  5
226
330
36
100
AcDbEntity
  8
0
  6
Continuous
 62
     7
100
AcDbLine
 10
456.03775
 20
447.7554599999999
 30
0.0
 11
456.43774
 21
447.7554599999999
 31
0.0
  0
LINE
  5
227
330
36
100
AcDbEntity
  8
0
  6
Continuous
 62
     7
100
AcDbLine
 10
613.2377299999999
 20
447.7554599999999
 30
0.0
 11
612.8377699999999
 21
447.7554599999999
 31
0.0
  0
LINE
  5
228
330
36
100
AcDbEntity
  8
0
  6
Continuous
 62
     3
100
AcDbLine
 10
608.1377599999999
 20
421.5907599999999
 30
0.0
 11
608.1377599999999
 21
438.7554599999999
 31
0.0
  0
LINE
  5
229
330
36
100
AcDbEntity
  8
0
  6
Continuous
 62
     3
100
AcDbLine
 10
613.6377599999999
 20
418.75546
 30
0.0
 11
613.6377599999999
 21
438.7554599999999
 31
0.0
  0
LINE
  5
22A
330
36
100
AcDbEntity
  8
0
  6
Continuous
 62
     3
100
AcDbLine
 10
608.93774
 20
437.7554599999999
 30
0.0
 11
612.8377699999999
 21
437.7554599999999
 31
0.0
  0
LINE
  5
22B
330
36
100
AcDbEntity
  8
0
  6
Continuous
 62
     7
100
AcDbLine
 10
608.53772
 20
437.7554599999999
 30
0.0
 11
608.93774
 21
437.7554599999999
 31
0.0
  0
LINE
  5
22C
330
36
100
AcDbEntity
  8
0
  6
Continuous
 62
     7
100
AcDbLine
 10
613.2377299999999
 20
437.7554599999999
 30
0.0
 11
612.8377699999999
 21
437.7554599999999
 31
0.0
  0
LINE
  5
22D
330
36
100
AcDbEntity
  8
0
  6
Continuous
 62
     3
100
AcDbLine
 10
583.1377599999999
 20
415.75546
 30
0.0
 11
583.1377599999999
 21
428.7554599999999
 31
0.0
  0
LINE
  5
22E
330
36
100
AcDbEntity
  8
0
  6
Continuous
 62
     3
100
AcDbLine
 10
613.6377599999999
 20
418.75546
 30
0.0
 11
613.6377599999999
 21
428.7554599999999
 31
0.0
  0
LINE
  5
22F
330
36
100
AcDbEntity
  8
0
  6
Continuous
 62
     3
100
AcDbLine
 10
583.93774
 20
427.75546
 30
0.0
 11
612.8377699999999
 21
427.75546
 31
0.0
  0
LINE
  5
230
330
36
100
AcDbEntity
  8
0
  6
Continuous
 62
     7
100
AcDbLine
 10
583.53772
 20
427.75546
 30
0.0
 11
583.93774
 21
427.75546
 31
0.0
  0
LINE
  5
231
330
36
100
AcDbEntity
  8
0
  6
Continuous
 62
     7
100
AcDbLine
 10
613.2377299999999
 20
427.75546
 30
0.0
 11
612.8377699999999
 21
427.75546
 31
0.0
  0
LINE
  5
232
330
36
100
AcDbEntity
  8
0
  6
Continuous
 62
     7
100
AcDbLine
 10
491.74774
 20
401.12546
 30
0.0
 11
572.55774
 21
401.12546
 31
0.0
  0
LINE
  5
233
330
36
100
AcDbEntity
  8
0
  6
Continuous
 62
     7
100
AcDbLine
 10
491.74774
 20
408.3854699999999
 30
0.0
 11
572.55774
 21
408.3854699999999
 31
0.0
  0
LINE
  5
234
330
36
100
AcDbEntity
  8
0
  6
Continuous
 62
     7
100
AcDbLine
 10
474.7627599999999
 20
392.87546
 30
0.0
 11
573.08374
 21
392.87546
 31
0.0
  0
LINE
  5
235
330
36
100
AcDbEntity
  8
0
  6
Continuous
 62
     7
100
AcDbLine
 10
474.7627599999999
 20
416.63547
 30
0.0
 11
594.5127599999999
 21
416.63547
 31
0.0
  0
LINE
  5
236
330
36
100
AcDbEntity
  8
0
  6
Continuous
 62
     7
100
AcDbLine
 10
459.6377299999999
 20
391.75546
 30
0.0
 11
573.5189799999999
 21
391.75546
 31
0.0
  0
LINE
  5
237
330
36
100
AcDbEntity
  8
0
  6
Continuous
 62
     3
100
AcDbLine
 10
461.1377599999999
 20
421.5907599999999
 30
0.0
 11
461.1377599999999
 21
438.7554599999999
 31
0.0
  0
LINE
  5
238
330
36
100
AcDbEntity
  8
0
  6
Continuous
 62
     3
100
AcDbLine
 10
608.1377599999999
 20
421.5907599999999
 30
0.0
 11
608.1377599999999
 21
438.7554599999999
 31
0.0
  0
LINE
  5
239
330
36
100
AcDbEntity
  8
0
  6
Continuous
 62
     3
100
AcDbLine
 10
461.93774
 20
437.7554599999999
 30
0.0
 11
607.3377699999999
 21
437.7554599999999
 31
0.0
  0
LINE
  5
23A
330
36
100
AcDbEntity
  8
0
  6
Continuous
 62
     7
100
AcDbLine
 10
461.53775
 20
437.7554599999999
 30
0.0
 11
461.93774
 21
437.7554599999999
 31
0.0
  0
LINE
  5
23B
330
36
100
AcDbEntity
  8
0
  6
Continuous
 62
     7
100
AcDbLine
 10
607.7377299999999
 20
437.7554599999999
 30
0.0
 11
607.3377699999999
 21
437.7554599999999
 31
0.0
  0
LINE
  5
23C
330
36
100
AcDbEntity
  8
0
  6
Continuous
 62
     3
100
AcDbLine
 10
486.13773
 20
415.75546
 30
0.0
 11
486.13773
 21
428.7554599999999
 31
0.0
  0
LINE
  5
23D
330
36
100
AcDbEntity
  8
0
  6
Continuous
 62
     3
100
AcDbLine
 10
583.1377599999999
 20
415.75546
 30
0.0
 11
583.1377599999999
 21
428.7554599999999
 31
0.0
  0
LINE
  5
23E
330
36
100
AcDbEntity
  8
0
  6
Continuous
 62
     3
100
AcDbLine
 10
486.93774
 20
427.75546
 30
0.0
 11
582.3377699999999
 21
427.75546
 31
0.0
  0
LINE
  5
23F
330
36
100
AcDbEntity
  8
0
  6
Continuous
 62
     7
100
AcDbLine
 10
486.53775
 20
427.75546
 30
0.0
 11
486.93774
 21
427.75546
 31
0.0
  0
LINE
  5
240
330
36
100
AcDbEntity
  8
0
  6
Continuous
 62
     7
100
AcDbLine
 10
582.7377299999999
 20
427.75546
 30
0.0
 11
582.3377699999999
 21
427.75546
 31
0.0
  0
LINE
  5
241
330
36
100
AcDbEntity
  8
0
  6
CENTER
 62
     4
100
AcDbLine
 10
486.13773
 20
414.75546
 30
0.0
 11
486.13773
 21
394.7554600000001
 31
0.0
  0
LINE
  5
242
330
36
100
AcDbEntity
  8
0
  6
Continuous
 62
     7
100
AcDbLine
 10
472.7627599999999
 20
414.6354699999999
 30
0.0
 11
472.7627599999999
 21
394.87546
 31
0.0
  0
LINE
  5
243
330
36
100
AcDbEntity
  8
0
  6
Continuous
 62
     7
100
AcDbLine
 10
466.6377299999999
 20
417.75546
 30
0.0
 11
466.6377299999999
 21
391.75546
 31
0.0
  0
LINE
  5
244
330
36
100
AcDbEntity
  8
0
  6
CENTER
 62
     4
100
AcDbLine
 10
461.1377599999999
 20
420.5907599999999
 30
0.0
 11
461.1377599999999
 21
387.37711
 31
0.0
  0
LINE
  5
245
330
36
100
AcDbEntity
  8
0
  6
Continuous
 62
     7
100
AcDbLine
 10
455.63773
 20
413.75546
 30
0.0
 11
455.63773
 21
395.75546
 31
0.0
  0
LINE
  5
246
330
36
100
AcDbEntity
  8
0
  6
CENTER
 62
     4
100
AcDbLine
 10
456.1377599999999
 20
397.75546
 30
0.0
 11
466.1377599999999
 21
397.75546
 31
0.0
  0
LINE
  5
247
330
36
100
AcDbEntity
  8
0
  6
CENTER
 62
     4
100
AcDbLine
 10
456.1377599999999
 20
411.75546
 30
0.0
 11
466.1377599999999
 21
411.75546
 31
0.0
  0
LINE
  5
248
330
36
100
AcDbEntity
  8
0
  6
Continuous
 62
     3
100
AcDbLine
 10
455.63773
 20
418.75546
 30
0.0
 11
455.63773
 21
428.7554599999999
 31
0.0
  0
LINE
  5
249
330
36
100
AcDbEntity
  8
0
  6
Continuous
 62
     3
100
AcDbLine
 10
486.13773
 20
415.75546
 30
0.0
 11
486.13773
 21
428.7554599999999
 31
0.0
  0
LINE
  5
24A
330
36
100
AcDbEntity
  8
0
  6
Continuous
 62
     3
100
AcDbLine
 10
456.43774
 20
427.75546
 30
0.0
 11
485.33774
 21
427.75546
 31
0.0
  0
LINE
  5
24B
330
36
100
AcDbEntity
  8
0
  6
Continuous
 62
     7
100
AcDbLine
 10
456.03775
 20
427.75546
 30
0.0
 11
456.43774
 21
427.75546
 31
0.0
  0
LINE
  5
24C
330
36
100
AcDbEntity
  8
0
  6
Continuous
 62
     7
100
AcDbLine
 10
485.73773
 20
427.75546
 30
0.0
 11
485.33774
 21
427.75546
 31
0.0
  0
LINE
  5
24D
330
36
100
AcDbEntity
  8
0
  6
Continuous
 62
     3
100
AcDbLine
 10
455.63773
 20
418.75546
 30
0.0
 11
455.63773
 21
438.7554599999999
 31
0.0
  0
LINE
  5
24E
330
36
100
AcDbEntity
  8
0
  6
Continuous
 62
     3
100
AcDbLine
 10
461.1377599999999
 20
421.5907599999999
 30
0.0
 11
461.1377599999999
 21
438.7554599999999
 31
0.0
  0
LINE
  5
24F
330
36
100
AcDbEntity
  8
0
  6
Continuous
 62
     3
100
AcDbLine
 10
456.43774
 20
437.7554599999999
 30
0.0
 11
460.33774
 21
437.7554599999999
 31
0.0
  0
LINE
  5
250
330
36
100
AcDbEntity
  8
0
  6
Continuous
 62
     7
100
AcDbLine
 10
456.03775
 20
437.7554599999999
 30
0.0
 11
456.43774
 21
437.7554599999999
 31
0.0
  0
LINE
  5
251
330
36
100
AcDbEntity
  8
0
  6
Continuous
 62
     7
100
AcDbLine
 10
460.73773
 20
437.7554599999999
 30
0.0
 11
460.33774
 21
437.7554599999999
 31
0.0
  0
LINE
  5
252
330
36
100
AcDbEntity
  8
0
  6
CENTER
 62
     4
100
AcDbLine
 10
583.1377599999999
 20
414.75546
 30
0.0
 11
583.1377599999999
 21
394.7554600000001
 31
0.0
  0
LINE
  5
253
330
36
100
AcDbEntity
  8
0
  6
Continuous
 62
     7
100
AcDbLine
 10
596.5127599999999
 20
414.6354699999999
 30
0.0
 11
596.5127599999999
 21
394.87546
 31
0.0
  0
LINE
  5
254
330
36
100
AcDbEntity
  8
0
  6
Continuous
 62
     7
100
AcDbLine
 10
601.1507599999999
 20
417.75546
 30
0.0
 11
601.1507599999999
 21
391.75546
 31
0.0
  0
LINE
  5
255
330
36
100
AcDbEntity
  8
0
  6
CENTER
 62
     4
100
AcDbLine
 10
608.1377599999999
 20
420.5907599999999
 30
0.0
 11
608.1377599999999
 21
387.37711
 31
0.0
  0
LINE
  5
256
330
36
100
AcDbEntity
  8
0
  6
Continuous
 62
     7
100
AcDbLine
 10
575.50464
 20
391.75546
 30
0.0
 11
590.69415
 21
391.75546
 31
0.0
  0
LINE
  5
257
330
36
100
AcDbEntity
  8
0
  6
Continuous
 62
     7
100
AcDbLine
 10
575.0676900000001
 20
392.87546
 30
0.0
 11
591.1366
 21
392.87546
 31
0.0
  0
LINE
  5
258
330
36
100
AcDbEntity
  8
0
  6
Continuous
 62
     7
100
AcDbLine
 10
574.53772
 20
394.23386
 30
0.0
 11
578.09479
 21
385.11646
 31
0.0
  0
LINE
  5
259
330
36
100
AcDbEntity
  8
0
  6
Continuous
 62
     7
100
AcDbLine
 10
572.5578
 20
394.22888
 30
0.0
 11
576.34644
 21
384.4801
 31
0.0
  0
LINE
  5
25A
330
36
100
AcDbEntity
  8
0
  6
Continuous
 62
     7
100
AcDbLine
 10
574.53772
 20
408.7154499999999
 30
0.0
 11
574.53772
 21
394.23386
 31
0.0
  0
LINE
  5
25B
330
36
100
AcDbEntity
  8
0
  6
Continuous
 62
     7
100
AcDbLine
 10
572.55774
 20
408.7154499999999
 30
0.0
 11
572.55774
 21
394.22888
 31
0.0
  0
LINE
  5
25C
330
36
100
AcDbEntity
  8
0
  6
Continuous
 62
     7
100
AcDbLine
 10
574.53772
 20
401.12546
 30
0.0
 11
576.47205
 21
401.12546
 31
0.0
  0
LINE
  5
25D
330
36
100
AcDbEntity
  8
0
  6
Continuous
 62
     7
100
AcDbLine
 10
574.53772
 20
408.7154499999999
 30
0.0
 11
572.55774
 21
408.7154499999999
 31
0.0
  0
LINE
  5
25E
330
36
100
AcDbEntity
  8
0
  6
Continuous
 62
     7
100
AcDbLine
 10
589.81964
 20
384.4801
 30
0.0
 11
593.50775
 21
393.86545
 31
0.0
  0
LINE
  5
25F
330
36
100
AcDbEntity
  8
0
  6
Continuous
 62
     7
100
AcDbLine
 10
588.0712299999999
 20
385.11646
 30
0.0
 11
591.5277099999999
 21
393.86548
 31
0.0
  0
LINE
  5
260
330
36
100
AcDbEntity
  8
0
  6
Continuous
 62
     7
100
AcDbLine
 10
584.9653299999999
 20
374.80804
 30
0.0
 11
589.04047
 21
372.83374
 31
0.0
  0
LINE
  5
261
330
36
100
AcDbEntity
  8
0
  6
Continuous
 62
     7
100
AcDbLine
 10
585.547
 20
371.8363
 30
0.0
 11
588.1291499999999
 21
370.72202
 31
0.0
  0
LINE
  5
262
330
36
100
AcDbEntity
  8
0
  6
Continuous
 62
     7
100
AcDbLine
 10
587.0806299999999
 20
373.89517
 30
0.0
 11
588.28265
 21
376.28946
 31
0.0
  0
LINE
  5
263
330
36
100
AcDbEntity
  8
0
  6
Continuous
 62
     7
100
AcDbLine
 10
583.4316999999999
 20
372.74905
 30
0.0
 11
582.72968
 21
370.3548
 31
0.0
  0
LINE
  5
264
330
36
100
AcDbEntity
  8
0
  6
Continuous
 62
     7
100
AcDbLine
 10
585.547
 20
371.83627
 30
0.0
 11
581.47192
 21
373.81058
 31
0.0
  0
LINE
  5
265
330
36
100
AcDbEntity
  8
0
  6
Continuous
 62
     7
100
AcDbLine
 10
585.547
 20
371.83624
 30
0.0
 11
584.78522
 21
369.32288
 31
0.0
  0
LINE
  5
266
330
36
100
AcDbEntity
  8
0
  6
Continuous
 62
     7
100
AcDbLine
 10
584.9653299999999
 20
374.80804
 30
0.0
 11
582.3831799999999
 21
375.9223
 31
0.0
  0
LINE
  5
267
330
36
100
AcDbEntity
  8
0
  6
Continuous
 62
     7
100
AcDbLine
 10
584.96539
 20
374.80801
 30
0.0
 11
586.2271699999999
 21
377.32138
 31
0.0
  0
LINE
  5
268
330
36
100
AcDbEntity
  8
0
  6
Continuous
 62
     7
100
AcDbLine
 10
593.50775
 20
408.7154499999999
 30
0.0
 11
593.50775
 21
393.86545
 31
0.0
  0
LINE
  5
269
330
36
100
AcDbEntity
  8
0
  6
Continuous
 62
     7
100
AcDbLine
 10
591.5277099999999
 20
408.7154499999999
 30
0.0
 11
591.5277099999999
 21
393.86545
 31
0.0
  0
LINE
  5
26A
330
36
100
AcDbEntity
  8
0
  6
Continuous
 62
     7
100
AcDbLine
 10
591.5277099999999
 20
408.7154499999999
 30
0.0
 11
593.50775
 21
408.7154499999999
 31
0.0
  0
LINE
  5
26B
330
36
100
AcDbEntity
  8
0
  6
Continuous
 62
     7
100
AcDbLine
 10
472.5518499999999
 20
524.4082599999999
 30
0.0
 11
596.7236299999999
 21
524.4082599999999
 31
0.0
  0
LINE
  5
26C
330
36
100
AcDbEntity
  8
0
  6
Continuous
 62
     7
100
AcDbLine
 10
455.63773
 20
533.07629
 30
0.0
 11
466.6377299999999
 21
533.07629
 31
0.0
  0
LINE
  5
26D
330
36
100
AcDbEntity
  8
0
  6
Continuous
 62
     7
100
AcDbLine
 10
455.63773
 20
534.4082599999999
 30
0.0
 11
455.63773
 21
533.07629
 31
0.0
  0
LINE
  5
26E
330
36
100
AcDbEntity
  8
0
  6
Continuous
 62
     7
100
AcDbLine
 10
466.6377299999999
 20
533.07629
 30
0.0
 11
472.7627299999999
 21
524.4082599999999
 31
0.0
  0
LINE
  5
26F
330
36
100
AcDbEntity
  8
0
  6
Continuous
 62
     7
100
AcDbLine
 10
577.71271
 20
510.76828
 30
0.0
 11
592.56274
 21
510.76828
 31
0.0
  0
LINE
  5
270
330
36
100
AcDbEntity
  8
0
  6
Continuous
 62
     7
100
AcDbLine
 10
576.55774
 20
523.08826
 30
0.0
 11
593.71771
 21
523.08826
 31
0.0
  0
LINE
  5
271
330
36
100
AcDbEntity
  8
0
  6
Continuous
 62
     7
100
AcDbLine
 10
580.86774
 20
504.40826
 30
0.0
 11
589.4077099999999
 21
504.40826
 31
0.0
  0
LINE
  5
272
330
36
100
AcDbEntity
  8
0
  6
Continuous
 62
     7
100
AcDbLine
 10
576.7227199999999
 20
521.43829
 30
0.0
 11
576.7227199999999
 21
515.1782799999999
 31
0.0
  0
LINE
  5
273
330
36
100
AcDbEntity
  8
0
  6
Continuous
 62
     7
100
AcDbLine
 10
574.74274
 20
521.43829
 30
0.0
 11
574.74274
 21
515.1782799999999
 31
0.0
  0
LINE
  5
274
330
36
100
AcDbEntity
  8
0
  6
Continuous
 62
     7
100
AcDbLine
 10
577.71271
 20
523.08826
 30
0.0
 11
577.71271
 21
510.76828
 31
0.0
  0
LINE
  5
275
330
36
100
AcDbEntity
  8
0
  6
Continuous
 62
     7
100
AcDbLine
 10
578.86774
 20
510.76828
 30
0.0
 11
578.86774
 21
506.4082599999999
 31
0.0
  0
LINE
  5
276
330
36
100
AcDbEntity
  8
0
  6
Continuous
 62
     7
100
AcDbLine
 10
577.71271
 20
516.33325
 30
0.0
 11
576.7227199999999
 21
516.33325
 31
0.0
  0
LINE
  5
277
330
36
100
AcDbEntity
  8
0
  6
Continuous
 62
     7
100
AcDbLine
 10
574.74274
 20
515.1782799999999
 30
0.0
 11
576.7227199999999
 21
515.1782799999999
 31
0.0
  0
LINE
  5
278
330
36
100
AcDbEntity
  8
0
  6
Continuous
 62
     7
100
AcDbLine
 10
577.71271
 20
520.2832599999999
 30
0.0
 11
576.7227199999999
 21
520.2832599999999
 31
0.0
  0
LINE
  5
279
330
36
100
AcDbEntity
  8
0
  6
Continuous
 62
     7
100
AcDbLine
 10
574.74274
 20
521.43829
 30
0.0
 11
576.7227199999999
 21
521.43829
 31
0.0
  0
LINE
  5
27A
330
36
100
AcDbEntity
  8
0
  6
Continuous
 62
     7
100
AcDbLine
 10
576.55774
 20
524.4082599999999
 30
0.0
 11
576.55774
 21
523.08826
 31
0.0
  0
LINE
  5
27B
330
36
100
AcDbEntity
  8
0
  6
Continuous
 62
     7
100
AcDbLine
 10
593.55273
 20
521.43829
 30
0.0
 11
593.55273
 21
515.1782799999999
 31
0.0
  0
LINE
  5
27C
330
36
100
AcDbEntity
  8
0
  6
Continuous
 62
     7
100
AcDbLine
 10
595.5327099999999
 20
521.43829
 30
0.0
 11
595.5327099999999
 21
515.1782799999999
 31
0.0
  0
LINE
  5
27D
330
36
100
AcDbEntity
  8
0
  6
Continuous
 62
     7
100
AcDbLine
 10
592.56274
 20
523.08826
 30
0.0
 11
592.56274
 21
510.76828
 31
0.0
  0
LINE
  5
27E
330
36
100
AcDbEntity
  8
0
  6
CENTER
 62
     4
100
AcDbLine
 10
585.1377599999999
 20
537.4032599999999
 30
0.0
 11
585.1377599999999
 21
500.6644599999999
 31
0.0
  0
LINE
  5
27F
330
36
100
AcDbEntity
  8
0
  6
Continuous
 62
     7
100
AcDbLine
 10
591.4077099999999
 20
510.76828
 30
0.0
 11
591.4077099999999
 21
506.4082599999999
 31
0.0
  0
LINE
  5
280
330
36
100
AcDbEntity
  8
0
  6
Continuous
 62
     7
100
AcDbLine
 10
592.56274
 20
516.33325
 30
0.0
 11
593.55273
 21
516.33325
 31
0.0
  0
LINE
  5
281
330
36
100
AcDbEntity
  8
0
  6
Continuous
 62
     7
100
AcDbLine
 10
593.55273
 20
515.1782799999999
 30
0.0
 11
595.5327099999999
 21
515.1782799999999
 31
0.0
  0
LINE
  5
282
330
36
100
AcDbEntity
  8
0
  6
Continuous
 62
     7
100
AcDbLine
 10
592.56274
 20
520.2832599999999
 30
0.0
 11
593.55273
 21
520.2832599999999
 31
0.0
  0
LINE
  5
283
330
36
100
AcDbEntity
  8
0
  6
Continuous
 62
     7
100
AcDbLine
 10
593.55273
 20
521.43829
 30
0.0
 11
595.5327099999999
 21
521.43829
 31
0.0
  0
LINE
  5
284
330
36
100
AcDbEntity
  8
0
  6
Continuous
 62
     7
100
AcDbLine
 10
593.71771
 20
524.4082599999999
 30
0.0
 11
593.71771
 21
523.08826
 31
0.0
  0
LINE
  5
285
330
36
100
AcDbEntity
  8
0
  6
Continuous
 62
     7
100
AcDbLine
 10
596.7236299999999
 20
524.4082599999999
 30
0.0
 11
601.1507599999999
 21
533.07629
 31
0.0
  0
LINE
  5
286
330
36
100
AcDbEntity
  8
0
  6
Continuous
 62
     7
100
AcDbLine
 10
767.0382099999999
 20
467.3491799999999
 30
0.0
 11
767.0382099999999
 21
440.3591599999999
 31
0.0
  0
LINE
  5
287
330
36
100
AcDbEntity
  8
0
  6
Continuous
 62
     7
100
AcDbLine
 10
768.5382099999999
 20
467.6791699999999
 30
0.0
 11
768.5382099999999
 21
440.16162
 31
0.0
  0
LINE
  5
288
330
36
100
AcDbEntity
  8
0
  6
Continuous
 62
     7
100
AcDbLine
 10
692.9499499999999
 20
485.1791699999999
 30
0.0
 11
692.9499499999999
 21
440.3591599999999
 31
0.0
  0
LINE
  5
289
330
36
100
AcDbEntity
  8
0
  6
CENTER
 62
     4
100
AcDbLine
 10
700.1999499999999
 20
485.1791699999999
 30
0.0
 11
700.1999499999999
 21
384.40512
 31
0.0
  0
LINE
  5
28A
330
36
100
AcDbEntity
  8
0
  6
Continuous
 62
     7
100
AcDbLine
 10
707.4499499999999
 20
485.1791699999999
 30
0.0
 11
707.4499499999999
 21
440.3591599999999
 31
0.0
  0
LINE
  5
28B
330
36
100
AcDbEntity
  8
0
  6
Continuous
 62
     3
100
AcDbLine
 10
759.5382099999999
 20
430.1791699999999
 30
0.0
 11
759.5382099999999
 21
515.1792
 31
0.0
  0
LINE
  5
28C
330
36
100
AcDbEntity
  8
0
  6
Continuous
 62
     3
100
AcDbLine
 10
768.5382099999999
 20
468.6791699999999
 30
0.0
 11
768.5382099999999
 21
515.1792
 31
0.0
  0
LINE
  5
28D
330
36
100
AcDbEntity
  8
0
  6
Continuous
 62
     3
100
AcDbLine
 10
760.3382
 20
514.1792
 30
0.0
 11
767.7382200000001
 21
514.1792
 31
0.0
  0
LINE
  5
28E
330
36
100
AcDbEntity
  8
0
  6
Continuous
 62
     7
100
AcDbLine
 10
759.93823
 20
514.1792
 30
0.0
 11
760.3382
 21
514.1792
 31
0.0
  0
LINE
  5
28F
330
36
100
AcDbEntity
  8
0
  6
Continuous
 62
     7
100
AcDbLine
 10
768.13818
 20
514.1792
 30
0.0
 11
767.7382200000001
 21
514.1792
 31
0.0
  0
LINE
  5
290
330
36
100
AcDbEntity
  8
0
  6
Continuous
 62
     3
100
AcDbLine
 10
759.5382099999999
 20
430.1791699999999
 30
0.0
 11
759.5382099999999
 21
500.17917
 31
0.0
  0
LINE
  5
291
330
36
100
AcDbEntity
  8
0
  6
Continuous
 62
     3
100
AcDbLine
 10
762.0382099999999
 20
485.1791699999999
 30
0.0
 11
762.0382099999999
 21
500.17917
 31
0.0
  0
LINE
  5
292
330
36
100
AcDbEntity
  8
0
  6
Continuous
 62
     3
100
AcDbLine
 10
762.8382
 20
499.17917
 30
0.0
 11
763.63818
 21
499.17917
 31
0.0
  0
LINE
  5
293
330
36
100
AcDbEntity
  8
0
  6
Continuous
 62
     3
100
AcDbLine
 10
758.73822
 20
499.17917
 30
0.0
 11
750.2443799999999
 21
499.17917
 31
0.0
  0
LINE
  5
294
330
36
100
AcDbEntity
  8
0
  6
Continuous
 62
     3
100
AcDbLine
 10
762.0382099999999
 20
499.17917
 30
0.0
 11
759.5382099999999
 21
499.17917
 31
0.0
  0
LINE
  5
295
330
36
100
AcDbEntity
  8
0
  6
Continuous
 62
     7
100
AcDbLine
 10
762.4382299999999
 20
499.17917
 30
0.0
 11
762.8382
 21
499.17917
 31
0.0
  0
LINE
  5
296
330
36
100
AcDbEntity
  8
0
  6
Continuous
 62
     7
100
AcDbLine
 10
759.13818
 20
499.17917
 30
0.0
 11
758.73822
 21
499.17917
 31
0.0
  0
LINE
  5
297
330
36
100
AcDbEntity
  8
0
  6
Continuous
 62
     3
100
AcDbLine
 10
708.4499499999999
 20
485.1791699999999
 30
0.0
 11
738.1999499999999
 21
485.1791699999999
 31
0.0
  0
LINE
  5
298
330
36
100
AcDbEntity
  8
0
  6
Continuous
 62
     3
100
AcDbLine
 10
701.1999499999999
 20
389.17917
 30
0.0
 11
738.1999499999999
 21
389.17917
 31
0.0
  0
LINE
  5
299
330
36
100
AcDbEntity
  8
0
  6
Continuous
 62
     3
100
AcDbLine
 10
737.1999499999999
 20
484.3791799999999
 30
0.0
 11
737.1999499999999
 21
389.97919
 31
0.0
  0
LINE
  5
29A
330
36
100
AcDbEntity
  8
0
  6
Continuous
 62
     7
100
AcDbLine
 10
737.1999499999999
 20
484.77917
 30
0.0
 11
737.1999499999999
 21
484.3791799999999
 31
0.0
  0
LINE
  5
29B
330
36
100
AcDbEntity
  8
0
  6
Continuous
 62
     7
100
AcDbLine
 10
737.1999499999999
 20
389.57916
 30
0.0
 11
737.1999499999999
 21
389.97919
 31
0.0
  0
LINE
  5
29C
330
36
100
AcDbEntity
  8
0
  6
Continuous
 62
     3
100
AcDbLine
 10
706.1999499999999
 20
462.17917
 30
0.0
 11
723.1999499999999
 21
462.17917
 31
0.0
  0
LINE
  5
29D
330
36
100
AcDbEntity
  8
0
  6
Continuous
 62
     3
100
AcDbLine
 10
706.1999499999999
 20
447.1791699999999
 30
0.0
 11
723.1999499999999
 21
447.1791699999999
 31
0.0
  0
LINE
  5
29E
330
36
100
AcDbEntity
  8
0
  6
Continuous
 62
     3
100
AcDbLine
 10
722.1999499999999
 20
461.3791799999999
 30
0.0
 11
722.1999499999999
 21
447.97919
 31
0.0
  0
LINE
  5
29F
330
36
100
AcDbEntity
  8
0
  6
Continuous
 62
     7
100
AcDbLine
 10
722.1999499999999
 20
461.77917
 30
0.0
 11
722.1999499999999
 21
461.3791799999999
 31
0.0
  0
LINE
  5
2A0
330
36
100
AcDbEntity
  8
0
  6
Continuous
 62
     7
100
AcDbLine
 10
722.1999499999999
 20
447.5791599999999
 30
0.0
 11
722.1999499999999
 21
447.97919
 31
0.0
  0
LINE
  5
2A1
330
36
100
AcDbEntity
  8
0
  6
Continuous
 62
     7
100
AcDbLine
 10
613.6377599999999
 20
413.75546
 30
0.0
 11
613.6377599999999
 21
395.75546
 31
0.0
  0
LINE
  5
2A2
330
36
100
AcDbEntity
  8
0
  6
Continuous
 62
     3
100
AcDbLine
 10
613.47272
 20
417.75546
 30
0.0
 11
640.13776
 21
417.75546
 31
0.0
  0
LINE
  5
2A3
330
36
100
AcDbEntity
  8
0
  6
Continuous
 62
     3
100
AcDbLine
 10
613.47272
 20
391.75546
 30
0.0
 11
640.13776
 21
391.75546
 31
0.0
  0
LINE
  5
2A4
330
36
100
AcDbEntity
  8
0
  6
Continuous
 62
     3
100
AcDbLine
 10
639.1377599999999
 20
416.9554399999999
 30
0.0
 11
639.1377599999999
 21
392.55545
 31
0.0
  0
LINE
  5
2A5
330
36
100
AcDbEntity
  8
0
  6
Continuous
 62
     7
100
AcDbLine
 10
639.1377599999999
 20
417.35547
 30
0.0
 11
639.1377599999999
 21
416.9554399999999
 31
0.0
  0
LINE
  5
2A6
330
36
100
AcDbEntity
  8
0
  6
Continuous
 62
     7
100
AcDbLine
 10
639.1377599999999
 20
392.15546
 30
0.0
 11
639.1377599999999
 21
392.55545
 31
0.0
  0
LINE
  5
2A7
330
36
100
AcDbEntity
  8
0
  6
Continuous
 62
     3
100
AcDbLine
 10
614.1377599999999
 20
411.75546
 30
0.0
 11
630.1377599999999
 21
411.75546
 31
0.0
  0
LINE
  5
2A8
330
36
100
AcDbEntity
  8
0
  6
Continuous
 62
     3
100
AcDbLine
 10
614.1377599999999
 20
397.75546
 30
0.0
 11
630.1377599999999
 21
397.75546
 31
0.0
  0
LINE
  5
2A9
330
36
100
AcDbEntity
  8
0
  6
Continuous
 62
     3
100
AcDbLine
 10
629.1377599999999
 20
410.95544
 30
0.0
 11
629.1377599999999
 21
398.55545
 31
0.0
  0
LINE
  5
2AA
330
36
100
AcDbEntity
  8
0
  6
Continuous
 62
     7
100
AcDbLine
 10
629.1377599999999
 20
411.3554699999999
 30
0.0
 11
629.1377599999999
 21
410.95544
 31
0.0
  0
LINE
  5
2AB
330
36
100
AcDbEntity
  8
0
  6
Continuous
 62
     7
100
AcDbLine
 10
629.1377599999999
 20
398.15546
 30
0.0
 11
629.1377599999999
 21
398.55545
 31
0.0
  0
LINE
  5
2AC
330
36
100
AcDbEntity
  8
0
  6
Continuous
 62
     3
100
AcDbLine
 10
613.47272
 20
417.75546
 30
0.0
 11
630.1377599999999
 21
417.75546
 31
0.0
  0
LINE
  5
2AD
330
36
100
AcDbEntity
  8
0
  6
Continuous
 62
     3
100
AcDbLine
 10
614.1377599999999
 20
411.75546
 30
0.0
 11
630.1377599999999
 21
411.75546
 31
0.0
  0
LINE
  5
2AE
330
36
100
AcDbEntity
  8
0
  6
Continuous
 62
     3
100
AcDbLine
 10
629.1377599999999
 20
416.9554399999999
 30
0.0
 11
629.1377599999999
 21
412.5554499999999
 31
0.0
  0
LINE
  5
2AF
330
36
100
AcDbEntity
  8
0
  6
Continuous
 62
     7
100
AcDbLine
 10
629.1377599999999
 20
417.35547
 30
0.0
 11
629.1377599999999
 21
416.9554399999999
 31
0.0
  0
LINE
  5
2B0
330
36
100
AcDbEntity
  8
0
  6
Continuous
 62
     7
100
AcDbLine
 10
629.1377599999999
 20
412.15546
 30
0.0
 11
629.1377599999999
 21
412.5554499999999
 31
0.0
  0
LINE
  5
2B1
330
36
100
AcDbEntity
  8
0
  6
Continuous
 62
     3
100
AcDbLine
 10
614.1377599999999
 20
397.75546
 30
0.0
 11
630.1377599999999
 21
397.75546
 31
0.0
  0
LINE
  5
2B2
330
36
100
AcDbEntity
  8
0
  6
Continuous
 62
     3
100
AcDbLine
 10
613.47272
 20
391.75546
 30
0.0
 11
630.1377599999999
 21
391.75546
 31
0.0
  0
LINE
  5
2B3
330
36
100
AcDbEntity
  8
0
  6
Continuous
 62
     3
100
AcDbLine
 10
629.1377599999999
 20
396.95544
 30
0.0
 11
629.1377599999999
 21
392.55545
 31
0.0
  0
LINE
  5
2B4
330
36
100
AcDbEntity
  8
0
  6
Continuous
 62
     7
100
AcDbLine
 10
629.1377599999999
 20
397.35547
 30
0.0
 11
629.1377599999999
 21
396.95544
 31
0.0
  0
LINE
  5
2B5
330
36
100
AcDbEntity
  8
0
  6
Continuous
 62
     7
100
AcDbLine
 10
629.1377599999999
 20
392.15546
 30
0.0
 11
629.1377599999999
 21
392.55545
 31
0.0
  0
LINE
  5
2B6
330
36
100
AcDbEntity
  8
0
  6
Continuous
 62
     7
100
AcDbLine
 10
693.04034
 20
412.44714
 30
0.0
 11
694.4646
 21
407.6721199999999
 31
0.0
  0
LINE
  5
2B7
330
36
100
AcDbEntity
  8
0
  6
Continuous
 62
     7
100
AcDbLine
 10
690.7981599999999
 20
411.9174199999999
 30
0.0
 11
688.1908599999999
 21
411.30148
 31
0.0
  0
LINE
  5
2B8
330
36
100
AcDbEntity
  8
0
  6
Continuous
 62
     7
100
AcDbLine
 10
691.45667
 20
409.70972
 30
0.0
 11
690.0324099999998
 21
414.4847099999999
 31
0.0
  0
LINE
  5
2B9
330
36
100
AcDbEntity
  8
0
  6
Continuous
 62
     7
100
AcDbLine
 10
707.4499499999999
 20
417.66312
 30
0.0
 11
707.4499499999999
 21
396.17917
 31
0.0
  0
LINE
  5
2BA
330
36
100
AcDbEntity
  8
0
  6
Continuous
 62
     3
100
AcDbLine
 10
706.1999499999999
 20
411.17917
 30
0.0
 11
723.1999499999999
 21
411.17917
 31
0.0
  0
LINE
  5
2BB
330
36
100
AcDbEntity
  8
0
  6
Continuous
 62
     3
100
AcDbLine
 10
706.1999499999999
 20
396.17917
 30
0.0
 11
723.1999499999999
 21
396.17917
 31
0.0
  0
LINE
  5
2BC
330
36
100
AcDbEntity
  8
0
  6
Continuous
 62
     3
100
AcDbLine
 10
722.1999499999999
 20
410.3791799999999
 30
0.0
 11
722.1999499999999
 21
396.97919
 31
0.0
  0
LINE
  5
2BD
330
36
100
AcDbEntity
  8
0
  6
Continuous
 62
     7
100
AcDbLine
 10
722.1999499999999
 20
410.7791699999999
 30
0.0
 11
722.1999499999999
 21
410.3791799999999
 31
0.0
  0
LINE
  5
2BE
330
36
100
AcDbEntity
  8
0
  6
Continuous
 62
     7
100
AcDbLine
 10
722.1999499999999
 20
396.57916
 30
0.0
 11
722.1999499999999
 21
396.97919
 31
0.0
  0
LINE
  5
2BF
330
36
100
AcDbEntity
  8
0
  6
Continuous
 62
     3
100
AcDbLine
 10
706.1999499999999
 20
447.1791699999999
 30
0.0
 11
723.1999499999999
 21
447.1791699999999
 31
0.0
  0
LINE
  5
2C0
330
36
100
AcDbEntity
  8
0
  6
Continuous
 62
     3
100
AcDbLine
 10
706.1999499999999
 20
411.17917
 30
0.0
 11
723.1999499999999
 21
411.17917
 31
0.0
  0
LINE
  5
2C1
330
36
100
AcDbEntity
  8
0
  6
Continuous
 62
     3
100
AcDbLine
 10
722.1999499999999
 20
446.37918
 30
0.0
 11
722.1999499999999
 21
411.97919
 31
0.0
  0
LINE
  5
2C2
330
36
100
AcDbEntity
  8
0
  6
Continuous
 62
     7
100
AcDbLine
 10
722.1999499999999
 20
446.77917
 30
0.0
 11
722.1999499999999
 21
446.37918
 31
0.0
  0
LINE
  5
2C3
330
36
100
AcDbEntity
  8
0
  6
Continuous
 62
     7
100
AcDbLine
 10
722.1999499999999
 20
411.5791599999999
 30
0.0
 11
722.1999499999999
 21
411.97919
 31
0.0
  0
LINE
  5
2C4
330
36
100
AcDbEntity
  8
0
  6
CENTER
 62
     4
100
AcDbLine
 10
695.1999499999999
 20
411.17917
 30
0.0
 11
705.1999499999999
 21
411.17917
 31
0.0
  0
LINE
  5
2C5
330
36
100
AcDbEntity
  8
0
  6
CENTER
 62
     4
100
AcDbLine
 10
695.1999499999999
 20
396.17917
 30
0.0
 11
705.1999499999999
 21
396.17917
 31
0.0
  0
LINE
  5
2C6
330
36
100
AcDbEntity
  8
0
  6
Continuous
 62
     3
100
AcDbLine
 10
706.1999499999999
 20
396.17917
 30
0.0
 11
723.1999499999999
 21
396.17917
 31
0.0
  0
LINE
  5
2C7
330
36
100
AcDbEntity
  8
0
  6
Continuous
 62
     3
100
AcDbLine
 10
701.1999499999999
 20
389.17917
 30
0.0
 11
723.1999499999999
 21
389.17917
 31
0.0
  0
LINE
  5
2C8
330
36
100
AcDbEntity
  8
0
  6
Continuous
 62
     3
100
AcDbLine
 10
722.1999499999999
 20
395.37918
 30
0.0
 11
722.1999499999999
 21
389.97919
 31
0.0
  0
LINE
  5
2C9
330
36
100
AcDbEntity
  8
0
  6
Continuous
 62
     7
100
AcDbLine
 10
722.1999499999999
 20
395.7791700000001
 30
0.0
 11
722.1999499999999
 21
395.37918
 31
0.0
  0
LINE
  5
2CA
330
36
100
AcDbEntity
  8
0
  6
Continuous
 62
     7
100
AcDbLine
 10
722.1999499999999
 20
389.57916
 30
0.0
 11
722.1999499999999
 21
389.97919
 31
0.0
  0
LINE
  5
2CB
330
36
100
AcDbEntity
  8
0
  6
Continuous
 62
     7
100
AcDbLine
 10
684.61853
 20
397.45731
 30
0.0
 11
686.0427900000001
 21
392.68231
 31
0.0
  0
LINE
  5
2CC
330
36
100
AcDbEntity
  8
0
  6
Continuous
 62
     7
100
AcDbLine
 10
684.61847
 20
397.45724
 30
0.0
 11
687.10541
 21
398.10382
 31
0.0
  0
LINE
  5
2CD
330
36
100
AcDbEntity
  8
0
  6
Continuous
 62
     7
100
AcDbLine
 10
685.27692
 20
395.24954
 30
0.0
 11
687.63422
 21
395.86548
 31
0.0
  0
LINE
  5
2CE
330
36
100
AcDbEntity
  8
0
  6
Continuous
 62
     7
100
AcDbLine
 10
683.03485
 20
394.71988
 30
0.0
 11
681.6105999999999
 21
399.4949
 31
0.0
  0
LINE
  5
2CF
330
36
100
AcDbEntity
  8
0
  6
Continuous
 62
     7
100
AcDbLine
 10
683.03479
 20
394.71985
 30
0.0
 11
680.29785
 21
394.07327
 31
0.0
  0
LINE
  5
2D0
330
36
100
AcDbEntity
  8
0
  6
Continuous
 62
     7
100
AcDbLine
 10
683.03485
 20
394.71985
 30
0.0
 11
683.8386799999999
 21
392.02487
 31
0.0
  0
LINE
  5
2D1
330
36
100
AcDbEntity
  8
0
  6
Continuous
 62
     7
100
AcDbLine
 10
682.37634
 20
396.92758
 30
0.0
 11
679.76904
 21
396.31165
 31
0.0
  0
LINE
  5
2D2
330
36
100
AcDbEntity
  8
0
  6
Continuous
 62
     7
100
AcDbLine
 10
684.61853
 20
397.45731
 30
0.0
 11
683.8147
 21
400.15228
 31
0.0
  0
LINE
  5
2D3
330
36
100
AcDbEntity
  8
0
  6
Continuous
 62
     7
100
AcDbLine
 10
692.9499499999999
 20
402.25012
 30
0.0
 11
692.9499499999999
 21
396.17917
 31
0.0
  0
LINE
  5
2D4
330
36
100
AcDbEntity
  8
0
  6
Continuous
 62
     7
100
AcDbLine
 10
691.4565999999999
 20
409.7096899999999
 30
0.0
 11
688.71967
 21
409.0631399999999
 31
0.0
  0
LINE
  5
2D5
330
36
100
AcDbEntity
  8
0
  6
Continuous
 62
     7
100
AcDbLine
 10
691.45667
 20
409.70972
 30
0.0
 11
692.2604999999999
 21
407.01474
 31
0.0
  0
LINE
  5
2D6
330
36
100
AcDbEntity
  8
0
  6
Continuous
 62
     7
100
AcDbLine
 10
693.6987299999999
 20
410.2393799999999
 30
0.0
 11
696.5560299999999
 21
410.85532
 31
0.0
  0
LINE
  5
2D7
330
36
100
AcDbEntity
  8
0
  6
Continuous
 62
     7
100
AcDbLine
 10
692.9499499999999
 20
440.3591599999999
 30
0.0
 11
707.4499499999999
 21
440.3591599999999
 31
0.0
  0
LINE
  5
2D8
330
36
100
AcDbEntity
  8
0
  6
CENTER
 62
     4
100
AcDbLine
 10
695.1999499999999
 20
447.1791699999999
 30
0.0
 11
705.1999499999999
 21
447.1791699999999
 31
0.0
  0
LINE
  5
2D9
330
36
100
AcDbEntity
  8
0
  6
Continuous
 62
     7
100
AcDbLine
 10
693.0402199999999
 20
412.44711
 30
0.0
 11
696.02722
 21
413.09369
 31
0.0
  0
LINE
  5
2DA
330
36
100
AcDbEntity
  8
0
  6
Continuous
 62
     7
100
AcDbLine
 10
693.04034
 20
412.44714
 30
0.0
 11
692.2365099999999
 21
415.14212
 31
0.0
  0
LINE
  5
2DB
330
36
100
AcDbEntity
  8
0
  6
Continuous
 62
     7
100
AcDbLine
 10
768.5382099999999
 20
418.0979599999999
 30
0.0
 11
768.5382099999999
 21
389.17917
 31
0.0
  0
LINE
  5
2DC
330
36
100
AcDbEntity
  8
0
  6
Continuous
 62
     7
100
AcDbLine
 10
767.0382099999999
 20
417.70291
 30
0.0
 11
767.0382099999999
 21
389.17917
 31
0.0
  0
LINE
  5
2DD
330
36
100
AcDbEntity
  8
0
  6
Continuous
 62
     7
100
AcDbLine
 10
767.0382099999999
 20
389.17917
 30
0.0
 11
768.5382099999999
 21
389.17917
 31
0.0
  0
LINE
  5
2DE
330
36
100
AcDbEntity
  8
0
  6
Continuous
 62
     7
100
AcDbLine
 10
766.87549
 20
418.24677
 30
0.0
 11
760.01495
 21
428.45404
 31
0.0
  0
LINE
  5
2DF
330
36
100
AcDbEntity
  8
0
  6
Continuous
 62
     7
100
AcDbLine
 10
767.0382099999999
 20
440.3591599999999
 30
0.0
 11
760.01495
 21
429.90433
 31
0.0
  0
LINE
  5
2E0
330
36
100
AcDbEntity
  8
0
  6
Continuous
 62
     7
100
AcDbLine
 10
768.3754299999999
 20
439.6178299999999
 30
0.0
 11
761.75122
 21
429.54175
 31
0.0
  0
LINE
  5
2E1
330
36
100
AcDbEntity
  8
0
  6
Continuous
 62
     7
100
AcDbLine
 10
768.3211700000001
 20
418.82312
 30
0.0
 11
761.75122
 21
428.8166499999999
 31
0.0
  0
LINE
  5
2E2
330
36
100
AcDbEntity
  8
0
  6
Continuous
 62
     7
100
AcDbLine
 10
613.6377599999999
 20
534.4082599999999
 30
0.0
 11
613.6377599999999
 21
533.07629
 31
0.0
  0
LINE
  5
2E3
330
36
100
AcDbEntity
  8
0
  6
Continuous
 62
     3
100
AcDbLine
 10
692.9499499999999
 20
486.17917
 30
0.0
 11
692.9499499999999
 21
515.1792
 31
0.0
  0
LINE
  5
2E4
330
36
100
AcDbEntity
  8
0
  6
Continuous
 62
     3
100
AcDbLine
 10
707.4499499999999
 20
486.17917
 30
0.0
 11
707.4499499999999
 21
515.1792
 31
0.0
  0
LINE
  5
2E5
330
36
100
AcDbEntity
  8
0
  6
Continuous
 62
     3
100
AcDbLine
 10
693.75
 20
514.1792
 30
0.0
 11
706.64996
 21
514.1792
 31
0.0
  0
LINE
  5
2E6
330
36
100
AcDbEntity
  8
0
  6
Continuous
 62
     7
100
AcDbLine
 10
693.3499799999999
 20
514.1792
 30
0.0
 11
693.75
 21
514.1792
 31
0.0
  0
LINE
  5
2E7
330
36
100
AcDbEntity
  8
0
  6
Continuous
 62
     7
100
AcDbLine
 10
707.0499900000001
 20
514.1792
 30
0.0
 11
706.64996
 21
514.1792
 31
0.0
  0
LINE
  5
2E8
330
36
100
AcDbEntity
  8
0
  6
Continuous
 62
     7
100
AcDbLine
 10
692.9499499999999
 20
470.17917
 30
0.0
 11
707.4499499999999
 21
470.17917
 31
0.0
  0
LINE
  5
2E9
330
36
100
AcDbEntity
  8
0
  6
CENTER
 62
     4
100
AcDbLine
 10
695.1999499999999
 20
462.17917
 30
0.0
 11
705.1999499999999
 21
462.17917
 31
0.0
  0
LINE
  5
2EA
330
36
100
AcDbEntity
  8
0
  6
Continuous
 62
     7
100
AcDbLine
 10
692.9499499999999
 20
485.1791699999999
 30
0.0
 11
696.0749499999999
 21
485.1791699999999
 31
0.0
  0
LINE
  5
2EB
330
36
100
AcDbEntity
  8
0
  6
Continuous
 62
     7
100
AcDbLine
 10
696.0749499999999
 20
485.1791699999999
 30
0.0
 11
696.0749499999999
 21
479.07419
 31
0.0
  0
LINE
  5
2EC
330
36
100
AcDbEntity
  8
0
  6
Continuous
 62
     3
100
AcDbLine
 10
708.4499499999999
 20
485.1791699999999
 30
0.0
 11
723.1999499999999
 21
485.1791699999999
 31
0.0
  0
LINE
  5
2ED
330
36
100
AcDbEntity
  8
0
  6
Continuous
 62
     3
100
AcDbLine
 10
706.1999499999999
 20
462.17917
 30
0.0
 11
723.1999499999999
 21
462.17917
 31
0.0
  0
LINE
  5
2EE
330
36
100
AcDbEntity
  8
0
  6
Continuous
 62
     3
100
AcDbLine
 10
722.1999499999999
 20
484.3791799999999
 30
0.0
 11
722.1999499999999
 21
462.9791899999999
 31
0.0
  0
LINE
  5
2EF
330
36
100
AcDbEntity
  8
0
  6
Continuous
 62
     7
100
AcDbLine
 10
722.1999499999999
 20
484.77917
 30
0.0
 11
722.1999499999999
 21
484.3791799999999
 31
0.0
  0
LINE
  5
2F0
330
36
100
AcDbEntity
  8
0
  6
Continuous
 62
     7
100
AcDbLine
 10
722.1999499999999
 20
462.5791599999999
 30
0.0
 11
722.1999499999999
 21
462.9791899999999
 31
0.0
  0
LINE
  5
2F1
330
36
100
AcDbEntity
  8
0
  6
Continuous
 62
     7
100
AcDbLine
 10
704.3249499999999
 20
485.1791699999999
 30
0.0
 11
704.3249499999999
 21
479.07419
 31
0.0
  0
LINE
  5
2F2
330
36
100
AcDbEntity
  8
0
  6
Continuous
 62
     7
100
AcDbLine
 10
704.3249499999999
 20
485.1791699999999
 30
0.0
 11
707.4499499999999
 21
485.1791699999999
 31
0.0
  0
LINE
  5
2F3
330
36
100
AcDbEntity
  8
0
  6
Continuous
 62
     3
100
AcDbLine
 10
762.0382099999999
 20
485.1791699999999
 30
0.0
 11
762.0382099999999
 21
500.17917
 31
0.0
  0
LINE
  5
2F4
330
36
100
AcDbEntity
  8
0
  6
Continuous
 62
     3
100
AcDbLine
 10
768.5382099999999
 20
468.6791699999999
 30
0.0
 11
768.5382099999999
 21
500.17917
 31
0.0
  0
LINE
  5
2F5
330
36
100
AcDbEntity
  8
0
  6
Continuous
 62
     3
100
AcDbLine
 10
762.8382
 20
499.17917
 30
0.0
 11
767.7382200000001
 21
499.17917
 31
0.0
  0
LINE
  5
2F6
330
36
100
AcDbEntity
  8
0
  6
Continuous
 62
     7
100
AcDbLine
 10
762.4382299999999
 20
499.17917
 30
0.0
 11
762.8382
 21
499.17917
 31
0.0
  0
LINE
  5
2F7
330
36
100
AcDbEntity
  8
0
  6
Continuous
 62
     7
100
AcDbLine
 10
768.13818
 20
499.17917
 30
0.0
 11
767.7382200000001
 21
499.17917
 31
0.0
  0
LINE
  5
2F8
330
36
100
AcDbEntity
  8
0
  6
Continuous
 62
     7
100
AcDbLine
 10
763.5382099999999
 20
484.1791699999999
 30
0.0
 11
763.5382099999999
 21
468.9991799999999
 31
0.0
  0
LINE
  5
2F9
330
36
100
AcDbEntity
  8
0
  6
Continuous
 62
     7
100
AcDbLine
 10
762.0382099999999
 20
484.1791699999999
 30
0.0
 11
762.0382099999999
 21
468.6691599999999
 31
0.0
  0
LINE
  5
2FA
330
36
100
AcDbEntity
  8
0
  6
Continuous
 62
     7
100
AcDbLine
 10
763.3582200000001
 20
467.3491799999999
 30
0.0
 11
767.0382099999999
 21
467.3491799999999
 31
0.0
  0
LINE
  5
2FB
330
36
100
AcDbEntity
  8
0
  6
Continuous
 62
     7
100
AcDbLine
 10
763.5382099999999
 20
468.9991799999999
 30
0.0
 11
767.2182
 21
468.9991799999999
 31
0.0
  0
LINE
  5
2FC
330
36
100
AcDbEntity
  8
0
  6
Continuous
 62
     7
100
AcDbLine
 10
762.0382099999999
 20
484.1791699999999
 30
0.0
 11
763.5382099999999
 21
484.1791699999999
 31
0.0
  0
LINE
  5
2FD
330
36
100
AcDbEntity
  8
0
  6
Continuous
 62
     3
100
AcDbLine
 10
460.0893599999999
 20
399.21863
 30
0.0
 11
462.1861899999999
 21
396.29233
 31
0.0
  0
LINE
  5
2FE
330
36
100
AcDbEntity
  8
0
  6
Continuous
 62
     3
100
AcDbLine
 10
462.65216
 20
395.64203
 30
0.0
 11
476.1853599999999
 21
376.75546
 31
0.0
  0
LINE
  5
2FF
330
36
100
AcDbEntity
  8
0
  6
Continuous
 62
     3
100
AcDbLine
 10
476.1853299999999
 20
376.75546
 30
0.0
 11
490.0375099999999
 21
376.75546
 31
0.0
  0
LINE
  5
300
330
36
100
AcDbEntity
  8
0
  6
Continuous
 62
     7
100
AcDbLine
 10
459.8563799999999
 20
399.54376
 30
0.0
 11
460.0893599999999
 21
399.21863
 31
0.0
  0
LINE
  5
301
330
36
100
AcDbEntity
  8
0
  6
Continuous
 62
     7
100
AcDbLine
 10
462.41919
 20
395.96716
 30
0.0
 11
462.1861899999999
 21
396.29233
 31
0.0
  0
LINE
  5
302
330
36
100
AcDbEntity
  8
0
  6
Continuous
 62
     7
100
AcDbLine
 10
345.26651
 20
293.3318799999999
 30
0.0
 11
939.26654
 21
293.3318799999999
 31
0.0
  0
LINE
  5
303
330
36
100
AcDbEntity
  8
0
  6
Continuous
 62
     7
100
AcDbLine
 10
345.26651
 20
713.33191
 30
0.0
 11
345.26651
 21
293.3318799999999
 31
0.0
  0
LINE
  5
304
330
36
100
AcDbEntity
  8
0
  6
Continuous
 62
     7
100
AcDbLine
 10
919.7665400000001
 20
306.08188
 30
0.0
 11
919.7665400000001
 21
700.58191
 31
0.0
  0
LINE
  5
305
330
36
100
AcDbEntity
  8
0
  6
Continuous
 62
     7
100
AcDbLine
 10
364.76651
 20
604.58191
 30
0.0
 11
364.76651
 21
306.08188
 31
0.0
  0
LINE
  5
306
330
36
100
AcDbEntity
  8
0
  6
Continuous
 62
     7
100
AcDbLine
 10
919.7665400000001
 20
700.58191
 30
0.0
 11
474.7665099999999
 21
700.58191
 31
0.0
  0
LINE
  5
307
330
36
100
AcDbEntity
  8
0
  6
Continuous
 62
     7
100
AcDbLine
 10
364.76651
 20
306.08188
 30
0.0
 11
919.7665400000001
 21
306.08188
 31
0.0
  0
LINE
  5
308
330
36
100
AcDbEntity
  8
0
  6
Continuous
 62
     7
100
AcDbLine
 10
939.26654
 20
713.33191
 30
0.0
 11
939.26654
 21
293.3318799999999
 31
0.0
  0
LINE
  5
309
330
36
100
AcDbEntity
  8
0
  6
Continuous
 62
     7
100
AcDbLine
 10
345.26651
 20
713.33191
 30
0.0
 11
939.26654
 21
713.33191
 31
0.0
  0
LINE
  5
30A
330
36
100
AcDbEntity
  8
0
  6
Continuous
 62
     7
100
AcDbLine
 10
364.76651
 20
700.58191
 30
0.0
 11
474.7665099999999
 21
700.58191
 31
0.0
  0
LINE
  5
30B
330
36
100
AcDbEntity
  8
0
  6
Continuous
 62
     7
100
AcDbLine
 10
364.76651
 20
700.58191
 30
0.0
 11
364.76651
 21
604.58191
 31
0.0
  0
LINE
  5
30C
330
36
100
AcDbEntity
  8
0
  6
Continuous
 62
     7
100
AcDbLine
 10
384.76651
 20
700.58191
 30
0.0
 11
384.76651
 21
604.58191
 31
0.0
  0
LINE
  5
30D
330
36
100
AcDbEntity
  8
0
  6
Continuous
 62
     7
100
AcDbLine
 10
364.76651
 20
692.58191
 30
0.0
 11
474.7665099999999
 21
692.58191
 31
0.0
  0
LINE
  5
30E
330
36
100
AcDbEntity
  8
0
  6
Continuous
 62
     7
100
AcDbLine
 10
364.76651
 20
684.5819099999999
 30
0.0
 11
474.7665099999999
 21
684.5819099999999
 31
0.0
  0
LINE
  5
30F
330
36
100
AcDbEntity
  8
0
  6
Continuous
 62
     7
100
AcDbLine
 10
364.76651
 20
676.5819099999999
 30
0.0
 11
474.7665099999999
 21
676.5819099999999
 31
0.0
  0
LINE
  5
310
330
36
100
AcDbEntity
  8
0
  6
Continuous
 62
     7
100
AcDbLine
 10
364.76651
 20
668.5819099999999
 30
0.0
 11
474.7665099999999
 21
668.5819099999999
 31
0.0
  0
LINE
  5
311
330
36
100
AcDbEntity
  8
0
  6
Continuous
 62
     7
100
AcDbLine
 10
384.76651
 20
644.58191
 30
0.0
 11
474.7665099999999
 21
644.58191
 31
0.0
  0
LINE
  5
312
330
36
100
AcDbEntity
  8
0
  6
Continuous
 62
     7
100
AcDbLine
 10
384.76651
 20
636.58191
 30
0.0
 11
474.7665099999999
 21
636.58191
 31
0.0
  0
LINE
  5
313
330
36
100
AcDbEntity
  8
0
  6
Continuous
 62
     7
100
AcDbLine
 10
364.76651
 20
628.58191
 30
0.0
 11
474.7665099999999
 21
628.58191
 31
0.0
  0
LINE
  5
314
330
36
100
AcDbEntity
  8
0
  6
Continuous
 62
     7
100
AcDbLine
 10
384.76651
 20
620.58191
 30
0.0
 11
474.7665099999999
 21
620.58191
 31
0.0
  0
LINE
  5
315
330
36
100
AcDbEntity
  8
0
  6
Continuous
 62
     7
100
AcDbLine
 10
384.76651
 20
612.58191
 30
0.0
 11
474.7665099999999
 21
612.58191
 31
0.0
  0
LINE
  5
316
330
36
100
AcDbEntity
  8
0
  6
Continuous
 62
     7
100
AcDbLine
 10
364.76651
 20
604.58191
 30
0.0
 11
474.7665099999999
 21
604.58191
 31
0.0
  0
LINE
  5
317
330
36
100
AcDbEntity
  8
0
  6
Continuous
 62
     7
100
AcDbLine
 10
364.76651
 20
700.58191
 30
0.0
 11
364.76651
 21
604.58191
 31
0.0
  0
LINE
  5
318
330
36
100
AcDbEntity
  8
0
  6
Continuous
 62
     7
100
AcDbLine
 10
364.76651
 20
700.58191
 30
0.0
 11
474.7665099999999
 21
700.58191
 31
0.0
  0
LINE
  5
319
330
36
100
AcDbEntity
  8
0
  6
Continuous
 62
     7
100
AcDbLine
 10
474.7665099999999
 20
700.58191
 30
0.0
 11
474.7665099999999
 21
604.58191
 31
0.0
  0
LINE
  5
31A
330
36
100
AcDbEntity
  8
0
  6
Continuous
 62
     7
100
AcDbLine
 10
364.76651
 20
660.5819099999999
 30
0.0
 11
474.7665099999999
 21
660.5819099999999
 31
0.0
  0
LINE
  5
31B
330
36
100
AcDbEntity
  8
0
  6
Continuous
 62
     7
100
AcDbLine
 10
364.76651
 20
652.5819099999999
 30
0.0
 11
474.7665099999999
 21
652.5819099999999
 31
0.0
  0
LINE
  5
31C
330
36
100
AcDbEntity
  8
0
  6
Continuous
 62
     7
100
AcDbLine
 10
384.76651
 20
644.58191
 30
0.0
 11
474.7665099999999
 21
644.58191
 31
0.0
  0
LINE
  5
31D
330
36
100
AcDbEntity
  8
0
  6
Continuous
 62
     3
100
AcDbLine
 10
767.0382099999999
 20
388.17917
 30
0.0
 11
767.0382099999999
 21
373.17917
 31
0.0
  0
LINE
  5
31E
330
36
100
AcDbEntity
  8
0
  6
Continuous
 62
     3
100
AcDbLine
 10
768.5382099999999
 20
388.17917
 30
0.0
 11
768.5382099999999
 21
373.17917
 31
0.0
  0
LINE
  5
31F
330
36
100
AcDbEntity
  8
0
  6
Continuous
 62
     3
100
AcDbLine
 10
766.23822
 20
374.17917
 30
0.0
 11
765.4382299999999
 21
374.17917
 31
0.0
  0
LINE
  5
320
330
36
100
AcDbEntity
  8
0
  6
Continuous
 62
     3
100
AcDbLine
 10
769.3382
 20
374.17917
 30
0.0
 11
777.11078
 21
374.17917
 31
0.0
  0
LINE
  5
321
330
36
100
AcDbEntity
  8
0
  6
Continuous
 62
     3
100
AcDbLine
 10
767.0382099999999
 20
374.17917
 30
0.0
 11
768.5382099999999
 21
374.17917
 31
0.0
  0
LINE
  5
322
330
36
100
AcDbEntity
  8
0
  6
Continuous
 62
     7
100
AcDbLine
 10
766.63818
 20
374.17917
 30
0.0
 11
766.23822
 21
374.17917
 31
0.0
  0
LINE
  5
323
330
36
100
AcDbEntity
  8
0
  6
Continuous
 62
     7
100
AcDbLine
 10
768.93823
 20
374.17917
 30
0.0
 11
769.3382
 21
374.17917
 31
0.0
  0
LINE
  5
324
330
36
100
AcDbEntity
  8
0
  6
CENTER
 62
     4
100
AcDbLine
 10
534.6377599999999
 20
420.7554599999999
 30
0.0
 11
534.6377599999999
 21
365.15912
 31
0.0
  0
LINE
  5
325
330
36
100
AcDbEntity
  8
0
  6
Continuous
 62
     7
100
AcDbLine
 10
574.53772
 20
408.3854699999999
 30
0.0
 11
576.47205
 21
408.3854699999999
 31
0.0
  0
LINE
  5
326
330
36
100
AcDbEntity
  8
0
  6
Continuous
 62
     3
100
AcDbLine
 10
698.8959399999999
 20
397.62897
 30
0.0
 11
701.5040299999999
 21
394.72937
 31
0.0
  0
LINE
  5
327
330
36
100
AcDbEntity
  8
0
  6
Continuous
 62
     3
100
AcDbLine
 10
702.0389999999999
 20
394.13458
 30
0.0
 11
719.92352
 21
374.25101
 31
0.0
  0
LINE
  5
328
330
36
100
AcDbEntity
  8
0
  6
Continuous
 62
     3
100
AcDbLine
 10
719.92358
 20
374.25104
 30
0.0
 11
733.7161299999999
 21
374.25104
 31
0.0
  0
LINE
  5
329
330
36
100
AcDbEntity
  8
0
  6
Continuous
 62
     7
100
AcDbLine
 10
698.62842
 20
397.92639
 30
0.0
 11
698.8959399999999
 21
397.62897
 31
0.0
  0
LINE
  5
32A
330
36
100
AcDbEntity
  8
0
  6
Continuous
 62
     7
100
AcDbLine
 10
701.77148
 20
394.43198
 30
0.0
 11
701.5040299999999
 21
394.72937
 31
0.0
  0
LINE
  5
32B
330
36
100
AcDbEntity
  8
0
  6
Continuous
 62
     7
100
AcDbLine
 10
593.1187099999999
 20
392.87546
 30
0.0
 11
594.9657
 21
392.87546
 31
0.0
  0
ARC
  5
32C
330
36
100
AcDbEntity
  8
0
  6
Continuous
 62
     7
100
AcDbCircle
 10
474.7627599999999
 20
394.87546
 30
0.0
 40
2.0
100
AcDbArc
 50
180.0
 51
270.0
  0
ARC
  5
32D
330
36
100
AcDbEntity
  8
0
  6
Continuous
 62
     7
100
AcDbCircle
 10
486.13773
 20
404.75546
 30
0.0
 40
5.610000099999999
100
AcDbArc
 50
27.816432
 51
332.18342
  0
ARC
  5
32E
330
36
100
AcDbEntity
  8
0
  6
Continuous
 62
     7
100
AcDbCircle
 10
486.13773
 20
404.75546
 30
0.0
 40
3.6300001
100
AcDbArc
 50
33.055874
 51
326.94413
  0
ARC
  5
32F
330
36
100
AcDbEntity
  8
0
  6
Continuous
 62
     7
100
AcDbCircle
 10
489.44437
 20
400.36386
 30
0.0
 40
2.426019399999999
100
AcDbArc
 50
18.296147
 51
96.251128
  0
ARC
  5
330
330
36
100
AcDbEntity
  8
0
  6
Continuous
 62
     7
100
AcDbCircle
 10
489.44437
 20
409.14706
 30
0.0
 40
2.426019399999999
100
AcDbArc
 50
263.74816
 51
341.70385
  0
ARC
  5
331
330
36
100
AcDbEntity
  8
0
  6
Continuous
 62
     7
100
AcDbCircle
 10
474.7627599999999
 20
414.6354699999999
 30
0.0
 40
2.0
100
AcDbArc
 50
90.0
 51
180.0
  0
ARC
  5
332
330
36
100
AcDbEntity
  8
0
  6
Continuous
 62
     7
100
AcDbCircle
 10
587.44843
 20
367.98584
 30
0.0
 40
5.280000199999999
100
AcDbArc
 50
153.34194
 51
319.97454
  0
ARC
  5
333
330
36
100
AcDbEntity
  8
0
  6
Continuous
 62
     7
100
AcDbCircle
 10
587.44843
 20
367.98584
 30
0.0
 40
2.980000299999999
100
AcDbArc
 50
153.34153
 51
290.00005
  0
ARC
  5
334
330
36
100
AcDbEntity
  8
0
  6
Continuous
 62
     7
100
AcDbCircle
 10
589.4868799999999
 20
362.38525
 30
0.0
 40
5.280000199999999
100
AcDbArc
 50
348.35456
 51
139.97454
  0
ARC
  5
335
330
36
100
AcDbEntity
  8
0
  6
Continuous
 62
     7
100
AcDbCircle
 10
587.0049999999999
 20
367.5162
 30
0.0
 40
3.3971205
100
AcDbArc
 50
1.1679526
 51
70.675825
  0
ARC
  5
336
330
36
100
AcDbEntity
  8
0
  6
Continuous
 62
     7
100
AcDbCircle
 10
587.03699
 20
367.60086
 30
0.0
 40
5.603265299999999
100
AcDbArc
 50
350.50259
 51
69.049866
  0
ARC
  5
337
330
36
100
AcDbEntity
  8
0
  6
Continuous
 62
     7
100
AcDbCircle
 10
589.4868799999999
 20
362.38525
 30
0.0
 40
2.980000299999999
100
AcDbArc
 50
172.27907
 51
257.44777
  0
ARC
  5
338
330
36
100
AcDbEntity
  8
0
  6
Continuous
 62
     7
100
AcDbCircle
 10
589.4868799999999
 20
362.38525
 30
0.0
 40
5.280000199999999
100
AcDbArc
 50
165.63975
 51
220.61214
  0
ARC
  5
339
330
36
100
AcDbEntity
  8
0
  6
Continuous
 62
     7
100
AcDbCircle
 10
589.4868799999999
 20
362.38525
 30
0.0
 40
2.980000299999999
100
AcDbArc
 50
322.11215
 51
110.00005
  0
CIRCLE
  5
33A
330
36
100
AcDbEntity
  8
0
  6
Continuous
 62
     7
100
AcDbCircle
 10
583.1377599999999
 20
404.75546
 30
0.0
 40
7.5900002
  0
ARC
  5
33B
330
36
100
AcDbEntity
  8
0
  6
Continuous
 62
     7
100
AcDbCircle
 10
583.5638999999999
 20
378.65839
 30
0.0
 40
5.280000199999999
100
AcDbArc
 50
152.25511
 51
246.65796
  0
ARC
  5
33C
330
36
100
AcDbEntity
  8
0
  6
Continuous
 62
     7
100
AcDbCircle
 10
583.0830099999999
 20
386.93204
 30
0.0
 40
5.308967099999999
100
AcDbArc
 50
200.0000200000001
 51
273.32637
  0
ARC
  5
33D
330
36
100
AcDbEntity
  8
0
  6
Continuous
 62
     7
100
AcDbCircle
 10
583.0830099999999
 20
386.93204
 30
0.0
 40
7.1689672
100
AcDbArc
 50
200.00001
 51
293.96913
  0
CIRCLE
  5
33E
330
36
100
AcDbEntity
  8
0
  6
Continuous
 62
     7
100
AcDbCircle
 10
583.1377599999999
 20
404.75546
 30
0.0
 40
3.6300001
  0
CIRCLE
  5
33F
330
36
100
AcDbEntity
  8
0
  6
Continuous
 62
     7
100
AcDbCircle
 10
583.1377599999999
 20
404.75546
 30
0.0
 40
5.610000099999999
  0
ARC
  5
340
330
36
100
AcDbEntity
  8
0
  6
Continuous
 62
     7
100
AcDbCircle
 10
583.5638999999999
 20
378.65839
 30
0.0
 40
5.280000199999999
100
AcDbArc
 50
333.34194
 51
131.9466699999999
  0
ARC
  5
341
330
36
100
AcDbEntity
  8
0
  6
Continuous
 62
     7
100
AcDbCircle
 10
583.5638999999999
 20
378.65839
 30
0.0
 40
2.980000299999999
100
AcDbArc
 50
333.34153
 51
93.32642300000001
  0
ARC
  5
342
330
36
100
AcDbEntity
  8
0
  6
Continuous
 62
     7
100
AcDbCircle
 10
583.5638999999999
 20
378.65839
 30
0.0
 40
2.980000299999999
100
AcDbArc
 50
151.3326
 51
246.65818
  0
ARC
  5
343
330
36
100
AcDbEntity
  8
0
  6
Continuous
 62
     7
100
AcDbCircle
 10
583.0830099999999
 20
386.93204
 30
0.0
 40
5.308967099999999
100
AcDbArc
 50
311.69721
 51
339.99998
  0
ARC
  5
344
330
36
100
AcDbEntity
  8
0
  6
Continuous
 62
     7
100
AcDbCircle
 10
583.0830099999999
 20
386.93204
 30
0.0
 40
7.1689672
100
AcDbArc
 50
312.43822
 51
339.99999
  0
ARC
  5
345
330
36
100
AcDbEntity
  8
0
  6
Continuous
 62
     7
100
AcDbCircle
 10
594.39954
 20
394.91174
 30
0.0
 40
2.113528
100
AcDbArc
 50
285.53788
 51
359.01629
  0
ARC
  5
346
330
36
100
AcDbEntity
  8
0
  6
Continuous
 62
     7
100
AcDbCircle
 10
594.5127599999999
 20
414.6354699999999
 30
0.0
 40
2.0
100
AcDbArc
 50
0.0
 51
90.0
  0
ARC
  5
347
330
36
100
AcDbEntity
  8
0
  6
Continuous
 62
     7
100
AcDbCircle
 10
580.86774
 20
506.4082599999999
 30
0.0
 40
2.0
100
AcDbArc
 50
180.0
 51
270.0
  0
ARC
  5
348
330
36
100
AcDbEntity
  8
0
  6
Continuous
 62
     7
100
AcDbCircle
 10
589.4077099999999
 20
506.4082599999999
 30
0.0
 40
2.0
100
AcDbArc
 50
270.0
 51
0.0
  0
ARC
  5
349
330
36
100
AcDbEntity
  8
0
  6
Continuous
 62
     7
100
AcDbCircle
 10
695.19708
 20
415.9801599999999
 30
0.0
 40
5.3019652
100
AcDbArc
 50
284.85124
 51
95.096018
  0
ARC
  5
34A
330
36
100
AcDbEntity
  8
0
  6
Continuous
 62
     7
100
AcDbCircle
 10
700.1999499999999
 20
396.43365
 30
0.0
 40
7.2544641
100
AcDbArc
 50
182.0101
 51
357.9899
  0
ARC
  5
34B
330
36
100
AcDbEntity
  8
0
  6
Continuous
 62
     7
100
AcDbCircle
 10
680.98297
 20
391.1731
 30
0.0
 40
5.280000199999999
100
AcDbArc
 50
295.58992
 51
16.608083
  0
ARC
  5
34C
330
36
100
AcDbEntity
  8
0
  6
Continuous
 62
     7
100
AcDbCircle
 10
680.98297
 20
391.1731
 30
0.0
 40
2.980000299999999
100
AcDbArc
 50
302.22854
 51
16.608648
  0
ARC
  5
34D
330
36
100
AcDbEntity
  8
0
  6
Continuous
 62
     7
100
AcDbCircle
 10
677.9984699999999
 20
386.01419
 30
0.0
 40
5.280000199999999
100
AcDbArc
 50
115.58992
 51
166.58398
  0
ARC
  5
34E
330
36
100
AcDbEntity
  8
0
  6
Continuous
 62
     7
100
AcDbCircle
 10
680.98297
 20
391.1731
 30
0.0
 40
5.280000199999999
100
AcDbArc
 50
103.29183
 51
269.9245
  0
ARC
  5
34F
330
36
100
AcDbEntity
  8
0
  6
Continuous
 62
     7
100
AcDbCircle
 10
680.98297
 20
391.1731
 30
0.0
 40
2.980000299999999
100
AcDbArc
 50
103.29152
 51
239.95018
  0
ARC
  5
350
330
36
100
AcDbEntity
  8
0
  6
Continuous
 62
     7
100
AcDbCircle
 10
677.9984699999999
 20
386.01419
 30
0.0
 40
5.280000199999999
100
AcDbArc
 50
325.38297
 51
89.92449499999999
  0
ARC
  5
351
330
36
100
AcDbEntity
  8
0
  6
Continuous
 62
     7
100
AcDbCircle
 10
677.9984699999999
 20
386.01419
 30
0.0
 40
2.980000299999999
100
AcDbArc
 50
122.22885
 51
178.36682
  0
ARC
  5
352
330
36
100
AcDbEntity
  8
0
  6
Continuous
 62
     7
100
AcDbCircle
 10
677.9984699999999
 20
386.01419
 30
0.0
 40
2.980000299999999
100
AcDbArc
 50
294.24607
 51
59.950179
  0
ARC
  5
353
330
36
100
AcDbEntity
  8
0
  6
Continuous
 62
     7
100
AcDbCircle
 10
689.40479
 20
406.1629299999999
 30
0.0
 40
5.280000199999999
100
AcDbArc
 50
103.29183
 51
269.9245
  0
ARC
  5
354
330
36
100
AcDbEntity
  8
0
  6
Continuous
 62
     7
100
AcDbCircle
 10
686.6702899999999
 20
401.00403
 30
0.0
 40
2.980000299999999
100
AcDbArc
 50
122.22885
 51
196.60809
  0
ARC
  5
355
330
36
100
AcDbEntity
  8
0
  6
Continuous
 62
     7
100
AcDbCircle
 10
686.6702899999999
 20
401.00403
 30
0.0
 40
5.280000199999999
100
AcDbArc
 50
115.58992
 51
196.60808
  0
ARC
  5
356
330
36
100
AcDbEntity
  8
0
  6
Continuous
 62
     7
100
AcDbCircle
 10
689.40479
 20
406.1629299999999
 30
0.0
 40
5.280000199999999
100
AcDbArc
 50
295.58992
 51
16.608083
  0
ARC
  5
357
330
36
100
AcDbEntity
  8
0
  6
Continuous
 62
     7
100
AcDbCircle
 10
686.42029
 20
401.00403
 30
0.0
 40
5.280000199999999
100
AcDbArc
 50
283.29183
 51
89.92449499999999
  0
ARC
  5
358
330
36
100
AcDbEntity
  8
0
  6
Continuous
 62
     7
100
AcDbCircle
 10
686.42029
 20
401.00403
 30
0.0
 40
2.980000299999999
100
AcDbArc
 50
283.29152
 51
59.950179
  0
ARC
  5
359
330
36
100
AcDbEntity
  8
0
  6
Continuous
 62
     7
100
AcDbCircle
 10
689.40479
 20
406.1629299999999
 30
0.0
 40
2.980000299999999
100
AcDbArc
 50
302.22854
 51
16.608648
  0
ARC
  5
35A
330
36
100
AcDbEntity
  8
0
  6
Continuous
 62
     7
100
AcDbCircle
 10
689.40479
 20
406.1629299999999
 30
0.0
 40
2.980000299999999
100
AcDbArc
 50
103.29152
 51
239.95018
  0
ARC
  5
35B
330
36
100
AcDbEntity
  8
0
  6
Continuous
 62
     7
100
AcDbCircle
 10
700.1999499999999
 20
422.02917
 30
0.0
 40
8.25
100
AcDbArc
 50
269.55068
 51
60.00001700000002
  0
ARC
  5
35C
330
36
100
AcDbEntity
  8
0
  6
Continuous
 62
     7
100
AcDbCircle
 10
700.1999499999999
 20
422.02917
 30
0.0
 40
5.2799997
100
AcDbArc
 50
273.97446
 51
30.149312
  0
ARC
  5
35D
330
36
100
AcDbEntity
  8
0
  6
Continuous
 62
     7
100
AcDbCircle
 10
672.7165499999999
 20
428.8261099999999
 30
0.0
 40
23.289564
100
AcDbArc
 50
349.74809
 51
29.68309500000001
  0
ARC
  5
35E
330
36
100
AcDbEntity
  8
0
  6
Continuous
 62
     7
100
AcDbCircle
 10
700.1999499999999
 20
422.02917
 30
0.0
 40
5.2799997
100
AcDbArc
 50
149.85069
 51
216.15841
  0
ARC
  5
35F
330
36
100
AcDbEntity
  8
0
  6
Continuous
 62
     7
100
AcDbCircle
 10
700.1999499999999
 20
422.02917
 30
0.0
 40
8.25
100
AcDbArc
 50
119.99998
 51
252.34025
  0
ARC
  5
360
330
36
100
AcDbEntity
  8
0
  6
Continuous
 62
     7
100
AcDbCircle
 10
695.0921
 20
415.99387
 30
0.0
 40
5.280000199999999
100
AcDbArc
 50
127.13496
 51
196.60808
  0
ARC
  5
361
330
36
100
AcDbEntity
  8
0
  6
Continuous
 62
     7
100
AcDbCircle
 10
695.0921
 20
415.99387
 30
0.0
 40
2.980000299999999
100
AcDbArc
 50
140.12501
 51
196.60809
  0
ARC
  5
362
330
36
100
AcDbEntity
  8
0
  6
Continuous
 62
     7
100
AcDbCircle
 10
695.3420999999999
 20
415.99387
 30
0.0
 40
2.980000299999999
100
AcDbArc
 50
283.29152
 51
78.48558299999999
  0
ARC
  5
363
330
36
100
AcDbEntity
  8
0
  6
Continuous
 62
     7
100
AcDbCircle
 10
727.68341
 20
428.8261099999999
 30
0.0
 40
23.289564
100
AcDbArc
 50
150.31691
 51
190.25191
  0
ARC
  5
364
330
36
100
AcDbEntity
  8
0
  6
Continuous
 62
     7
100
AcDbCircle
 10
761.11792
 20
429.17917
 30
0.0
 40
1.3200001
100
AcDbArc
 50
146.6777
 51
213.3223
  0
ARC
  5
365
330
36
100
AcDbEntity
  8
0
  6
Continuous
 62
     7
100
AcDbCircle
 10
766.04822
 20
417.70291
 30
0.0
 40
0.9900000099999999
100
AcDbArc
 50
0.0
 51
33.321216
  0
ARC
  5
366
330
36
100
AcDbEntity
  8
0
  6
Continuous
 62
     7
100
AcDbCircle
 10
767.2182
 20
418.0979599999999
 30
0.0
 40
1.3200001
100
AcDbArc
 50
0.0
 51
33.322302
  0
ARC
  5
367
330
36
100
AcDbEntity
  8
0
  6
Continuous
 62
     7
100
AcDbCircle
 10
762.30273
 20
429.17917
 30
0.0
 40
0.66000003
100
AcDbArc
 50
146.67805
 51
213.31974
  0
ARC
  5
368
330
36
100
AcDbEntity
  8
0
  6
Continuous
 62
     7
100
AcDbCircle
 10
767.54822
 20
440.16162
 30
0.0
 40
0.9900000099999999
100
AcDbArc
 50
326.6787799999999
 51
0.0
  0
ARC
  5
369
330
36
100
AcDbEntity
  8
0
  6
Continuous
 62
     7
100
AcDbCircle
 10
700.1999499999999
 20
479.07419
 30
0.0
 40
4.125
100
AcDbArc
 50
180.0
 51
0.0
  0
ARC
  5
36A
330
36
100
AcDbEntity
  8
0
  6
Continuous
 62
     7
100
AcDbCircle
 10
767.2182
 20
467.6791699999999
 30
0.0
 40
1.3200001
100
AcDbArc
 50
0.0
 51
90.0
  0
ARC
  5
36B
330
36
100
AcDbEntity
  8
0
  6
Continuous
 62
     7
100
AcDbCircle
 10
763.3582200000001
 20
468.6691599999999
 30
0.0
 40
1.3200001
100
AcDbArc
 50
180.0
 51
270.0
  0
CIRCLE
  5
36C
330
36
100
AcDbEntity
  8
0
  6
Continuous
 62
     7
100
AcDbCircle
 10
461.1377599999999
 20
397.75546
 30
0.0
 40
2.599999899999999
  0
CIRCLE
  5
36D
330
36
100
AcDbEntity
  8
0
  6
Continuous
 62
     7
100
AcDbCircle
 10
461.1377599999999
 20
411.75546
 30
0.0
 40
2.599999899999999
  0
CIRCLE
  5
36E
330
36
100
AcDbEntity
  8
0
  6
Continuous
 62
     7
100
AcDbCircle
 10
608.1377599999999
 20
397.75546
 30
0.0
 40
2.599999899999999
  0
CIRCLE
  5
36F
330
36
100
AcDbEntity
  8
0
  6
Continuous
 62
     7
100
AcDbCircle
 10
608.1377599999999
 20
411.75546
 30
0.0
 40
2.599999899999999
  0
CIRCLE
  5
370
330
36
100
AcDbEntity
  8
0
  6
Continuous
 62
     7
100
AcDbCircle
 10
700.1999499999999
 20
396.17917
 30
0.0
 40
2.75
  0
ARC
  5
371
330
36
100
AcDbEntity
  8
0
  6
Continuous
 62
     7
100
AcDbCircle
 10
700.1999499999999
 20
411.17917
 30
0.0
 40
2.75
100
AcDbArc
 50
179.07546
 51
91.435846
  0
CIRCLE
  5
372
330
36
100
AcDbEntity
  8
0
  6
Continuous
 62
     7
100
AcDbCircle
 10
700.1999499999999
 20
447.1791699999999
 30
0.0
 40
2.75
  0
CIRCLE
  5
373
330
36
100
AcDbEntity
  8
0
  6
Continuous
 62
     7
100
AcDbCircle
 10
700.1999499999999
 20
462.17917
 30
0.0
 40
2.75
  0
CIRCLE
  5
374
330
36
100
AcDbEntity
  8
0
  6
Continuous
 62
     7
100
AcDbCircle
 10
420.1737099999999
 20
648.48761
 30
0.0
 40
1.7744944
  0
ARC
  5
375
330
36
100
AcDbEntity
  8
0
  6
Continuous
 62
     7
100
AcDbCircle
 10
609.6377599999999
 20
413.75546
 30
0.0
 40
4.0
100
AcDbArc
 50
0.0
 51
90.0
  0
ARC
  5
376
330
36
100
AcDbEntity
  8
0
  6
Continuous
 62
     7
100
AcDbCircle
 10
609.6377599999999
 20
395.75546
 30
0.0
 40
4.0
100
AcDbArc
 50
270.0
 51
0.0
  0
ARC
  5
377
330
36
100
AcDbEntity
  8
0
  6
Continuous
 62
     7
100
AcDbCircle
 10
459.6377299999999
 20
413.75546
 30
0.0
 40
4.0
100
AcDbArc
 50
90.0
 51
180.0
  0
ARC
  5
378
330
36
100
AcDbEntity
  8
0
  6
Continuous
 62
     7
100
AcDbCircle
 10
459.6377299999999
 20
395.75546
 30
0.0
 40
4.0
100
AcDbArc
 50
180.0
 51
270.0
  0
POLYLINE
  5
379
330
36
100
AcDbEntity
  8
0
  6
Continuous
 62
     7
100
AcDb2dPolyline
 66
     1
 10
0.0
 20
0.0
 30
0.0
  0
VERTEX
  5
37A
330
379
100
AcDbEntity
  8
0
  6
Continuous
 62
     7
100
AcDbVertex
100
AcDb2dVertex
 10
581.67078
 20
359.45706
 30
0.0
 42
0.051293498
  0
VERTEX
  5
37B
330
379
100
AcDbEntity
  8
0
  6
Continuous
 62
     7
100
AcDbVertex
100
AcDb2dVertex
 10
584.63595
 20
358.9685
 30
0.0
 42
0.065539323
  0
VERTEX
  5
37C
330
379
100
AcDbEntity
  8
0
  6
Continuous
 62
     7
100
AcDbVertex
100
AcDb2dVertex
 10
587.63075
 20
359.17438
 30
0.0
 42
0.039491955
  0
VERTEX
  5
37D
330
379
100
AcDbEntity
  8
0
  6
Continuous
 62
     7
100
AcDbVertex
100
AcDb2dVertex
 10
590.50974
 20
360.04219
 30
0.0
 42
-0.02254817
  0
VERTEX
  5
37E
330
379
100
AcDbEntity
  8
0
  6
Continuous
 62
     7
100
AcDbVertex
100
AcDb2dVertex
 10
593.34118
 20
361.06104
 30
0.0
 42
-0.07204447
  0
VERTEX
  5
37F
330
379
100
AcDbEntity
  8
0
  6
Continuous
 62
     7
100
AcDbVertex
100
AcDb2dVertex
 10
596.3212999999999
 20
361.40117
 30
0.0
 42
-0.055210227
  0
VERTEX
  5
380
330
379
100
AcDbEntity
  8
0
  6
Continuous
 62
     7
100
AcDbVertex
100
AcDb2dVertex
 10
599.2980299999999
 20
360.98987
 30
0.0
  0
SEQEND
  5
381
330
379
100
AcDbEntity
  8
0
  6
Continuous
 62
     7
  0
POLYLINE
  5
382
330
36
100
AcDbEntity
  8
0
  6
Continuous
 62
     7
100
AcDb2dPolyline
 66
     1
 10
0.0
 20
0.0
 30
0.0
  0
VERTEX
  5
383
330
382
100
AcDbEntity
  8
0
  6
Continuous
 62
     7
100
AcDbVertex
100
AcDb2dVertex
 10
669.9662499999999
 20
387.37982
 30
0.0
 42
-0.064853287
  0
VERTEX
  5
384
330
382
100
AcDbEntity
  8
0
  6
Continuous
 62
     7
100
AcDbVertex
100
AcDb2dVertex
 10
672.3986599999999
 20
387.33192
 30
0.0
 42
-0.12459194
  0
VERTEX
  5
385
330
382
100
AcDbEntity
  8
0
  6
Continuous
 62
     7
100
AcDbVertex
100
AcDb2dVertex
 10
674.63834
 20
386.42914
 30
0.0
 42
-0.026112718
  0
VERTEX
  5
386
330
382
100
AcDbEntity
  8
0
  6
Continuous
 62
     7
100
AcDbVertex
100
AcDb2dVertex
 10
676.35022
 20
384.6945
 30
0.0
 42
0.12356169
  0
VERTEX
  5
387
330
382
100
AcDbEntity
  8
0
  6
Continuous
 62
     7
100
AcDbVertex
100
AcDb2dVertex
 10
678.4490099999999
 20
383.4991
 30
0.0
 42
0.053733099
  0
VERTEX
  5
388
330
382
100
AcDbEntity
  8
0
  6
Continuous
 62
     7
100
AcDbVertex
100
AcDb2dVertex
 10
680.8440400000001
 20
383.05996
 30
0.0
 42
0.031984287
  0
VERTEX
  5
389
330
382
100
AcDbEntity
  8
0
  6
Continuous
 62
     7
100
AcDbVertex
100
AcDb2dVertex
 10
683.28107
 20
383.03562
 30
0.0
 42
0.01031001
  0
VERTEX
  5
38A
330
382
100
AcDbEntity
  8
0
  6
Continuous
 62
     7
100
AcDbVertex
100
AcDb2dVertex
 10
685.71499
 20
383.21673
 30
0.0
 42
0.015572757
  0
VERTEX
  5
38B
330
382
100
AcDbEntity
  8
0
  6
Continuous
 62
     7
100
AcDbVertex
100
AcDb2dVertex
 10
688.13782
 20
383.495
 30
0.0
  0
SEQEND
  5
38C
330
382
100
AcDbEntity
  8
0
  6
Continuous
 62
     7
  0
TEXT
  5
38D
330
36
100
AcDbEntity
  8
0
  6
Continuous
 62
     2
100
AcDbText
 10
605.16122
 20
360.64871
 30
0.0
 40
3.0
  1
チェーン長サ１８０
 41
0.6100000300000001
100
AcDbText
  0
TEXT
  5
38E
330
36
100
AcDbEntity
  8
0
  6
Continuous
 62
     3
100
AcDbText
 10
642.6377200000001
 20
515.7415999999999
 30
0.0
 40
3.2
  1
30
 50
90.00000300000001
 41
1.071428599999999
100
AcDbText
  0
TEXT
  5
38F
330
36
100
AcDbEntity
  8
0
  6
Continuous
 62
     3
100
AcDbText
 10
627.6374099999999
 20
511.8065999999999
 30
0.0
 40
3.2
  1
20
 50
90.00000300000001
 41
1.071428599999999
100
AcDbText
  0
TEXT
  5
390
330
36
100
AcDbEntity
  8
0
  6
Continuous
 62
     3
100
AcDbText
 10
627.63772
 20
526.7793199999999
 30
0.0
 40
3.2
  1
10
 50
90.00000300000001
 41
1.363636399999999
100
AcDbText
  0
TEXT
  5
391
330
36
100
AcDbEntity
  8
0
  6
Continuous
 62
     3
100
AcDbText
 10
529.7936999999999
 20
449.25547
 30
0.0
 40
3.2
  1
158
 41
1.1428571
100
AcDbText
  0
TEXT
  5
392
330
36
100
AcDbEntity
  8
0
  6
Continuous
 62
     3
100
AcDbText
 10
606.6210899999999
 20
439.2554699999999
 30
0.0
 40
3.2
  1
5.5
 41
1.3333333
100
AcDbText
  0
TEXT
  5
393
330
36
100
AcDbEntity
  8
0
  6
Continuous
 62
     3
100
AcDbText
 10
593.77109
 20
429.25547
 30
0.0
 40
3.2
  1
30.5
 41
1.294117699999999
100
AcDbText
  0
TEXT
  5
394
330
36
100
AcDbEntity
  8
0
  6
Continuous
 62
     3
100
AcDbText
 10
530.3710899999999
 20
439.2554699999999
 30
0.0
 40
3.2
  1
147
 41
1.1428571
100
AcDbText
  0
TEXT
  5
395
330
36
100
AcDbEntity
  8
0
  6
Continuous
 62
     3
100
AcDbText
 10
532.47109
 20
429.25547
 30
0.0
 40
3.2
  1
97
100
AcDbText
  0
TEXT
  5
396
330
36
100
AcDbEntity
  8
0
  6
Continuous
 62
     3
100
AcDbText
 10
464.2710899999999
 20
429.25547
 30
0.0
 40
3.2
  1
30.5
 41
1.294117699999999
100
AcDbText
  0
TEXT
  5
397
330
36
100
AcDbEntity
  8
0
  6
Continuous
 62
     3
100
AcDbText
 10
454.12109
 20
439.2554699999999
 30
0.0
 40
3.2
  1
5.5
 41
1.3333333
100
AcDbText
  0
TEXT
  5
398
330
36
100
AcDbEntity
  8
0
  6
Continuous
 62
     3
100
AcDbText
 10
762.97154
 20
515.67917
 30
0.0
 40
3.2
  1
9
100
AcDbText
  0
TEXT
  5
399
330
36
100
AcDbEntity
  8
0
  6
Continuous
 62
     3
100
AcDbText
 10
749.82464
 20
500.6794799999999
 30
0.0
 40
3.2
  1
2.5
 41
1.3333333
100
AcDbText
  0
TEXT
  5
39A
330
36
100
AcDbEntity
  8
0
  6
Continuous
 62
     3
100
AcDbText
 10
735.6999799999999
 20
434.0124999999999
 30
0.0
 40
3.2
  1
96
 50
90.00000300000001
100
AcDbText
  0
TEXT
  5
39B
330
36
100
AcDbEntity
  8
0
  6
Continuous
 62
     3
100
AcDbText
 10
720.69998
 20
452.0125
 30
0.0
 40
3.2
  1
15
 50
90.00000300000001
 41
1.25
100
AcDbText
  0
TEXT
  5
39C
330
36
100
AcDbEntity
  8
0
  6
Continuous
 62
     3
100
AcDbText
 10
637.6374099999999
 20
402.0888
 30
0.0
 40
3.2
  1
26
 50
90.00000300000001
100
AcDbText
  0
TEXT
  5
39D
330
36
100
AcDbEntity
  8
0
  6
Continuous
 62
     3
100
AcDbText
 10
627.63772
 20
402.0888
 30
0.0
 40
3.2
  1
14
 50
90.00000300000001
 41
1.25
100
AcDbText
  0
TEXT
  5
39E
330
36
100
AcDbEntity
  8
0
  6
Continuous
 62
     3
100
AcDbText
 10
627.63772
 20
413.6887999999999
 30
0.0
 40
3.2
  1
6
 50
90.00000300000001
100
AcDbText
  0
TEXT
  5
39F
330
36
100
AcDbEntity
  8
0
  6
Continuous
 62
     3
100
AcDbText
 10
627.63772
 20
393.6888
 30
0.0
 40
3.2
  1
6
 50
90.00000300000001
100
AcDbText
  0
TEXT
  5
3A0
330
36
100
AcDbEntity
  8
0
  6
Continuous
 62
     3
100
AcDbText
 10
720.69998
 20
401.0125
 30
0.0
 40
3.2
  1
15
 50
90.00000300000001
 41
1.25
100
AcDbText
  0
TEXT
  5
3A1
330
36
100
AcDbEntity
  8
0
  6
Continuous
 62
     3
100
AcDbText
 10
720.69998
 20
426.5125
 30
0.0
 40
3.2
  1
36
 50
90.00000300000001
100
AcDbText
  0
TEXT
  5
3A2
330
36
100
AcDbEntity
  8
0
  6
Continuous
 62
     3
100
AcDbText
 10
720.69998
 20
391.6125
 30
0.0
 40
3.2
  1
7
 50
90.00000300000001
100
AcDbText
  0
TEXT
  5
3A3
330
36
100
AcDbEntity
  8
0
  6
Continuous
 62
     3
100
AcDbText
 10
694.3332799999999
 20
515.67917
 30
0.0
 40
3.2
  1
14.5
 41
1.375
100
AcDbText
  0
TEXT
  5
3A4
330
36
100
AcDbEntity
  8
0
  6
Continuous
 62
     3
100
AcDbText
 10
720.6996699999999
 20
471.5124999999999
 30
0.0
 40
3.2
  1
23
 50
90.00000300000001
100
AcDbText
  0
TEXT
  5
3A5
330
36
100
AcDbEntity
  8
0
  6
Continuous
 62
     3
100
AcDbText
 10
761.0215400000001
 20
500.6791699999999
 30
0.0
 40
3.2
  1
6.5
 41
1.3333333
100
AcDbText
  0
TEXT
  5
3A6
330
36
100
AcDbEntity
  8
0
  6
Continuous
 62
     3
100
AcDbText
 10
474.49075
 20
378.25577
 30
0.0
 40
3.2
  1
４－%%C５．２
 41
0.8685120600000001
100
AcDbText
  0
TEXT
  5
3AB
330
36
100
AcDbEntity
  8
0
  6
Continuous
 62
     7
100
AcDbText
 10
370.99502
 20
696.58186
 30
0.0
 40
3.2
  1
品　名
 41
0.60999997
100
AcDbText
  0
TEXT
  5
3AC
330
36
100
AcDbEntity
  8
0
  6
Continuous
 62
     7
100
AcDbText
 10
370.99502
 20
688.58186
 30
0.0
 40
3.2
  1
品　番
 41
0.60999997
100
AcDbText
  0
TEXT
  5
3AD
330
36
100
AcDbEntity
  8
0
  6
Continuous
 62
     7
100
AcDbText
 10
370.99502
 20
680.58186
 30
0.0
 40
3.2
  1
材　質
 41
0.60999997
100
AcDbText
  0
TEXT
  5
3AE
330
36
100
AcDbEntity
  8
0
  6
Continuous
 62
     7
100
AcDbText
 10
370.99502
 20
672.58186
 30
0.0
 40
3.2
  1
仕上げ
 41
0.60999997
100
AcDbText
  0
TEXT
  5
3AF
330
36
100
AcDbEntity
  8
0
  6
Continuous
 62
     7
100
AcDbText
 10
367.79504
 20
648.5818599999999
 30
0.0
 40
3.2
  1
セットビス
 41
0.6099999900000001
100
AcDbText
  0
TEXT
  5
3B0
330
36
100
AcDbEntity
  8
0
  6
Continuous
 62
     7
100
AcDbText
 10
372.59501
 20
624.5818599999999
 30
0.0
 40
3.2
  1
備考
 41
0.61
100
AcDbText
  0
TEXT
  5
3B1
330
36
100
AcDbEntity
  8
0
  6
Continuous
 62
     7
100
AcDbText
 10
370.99502
 20
664.58186
 30
0.0
 40
3.2
  1
定　尺
 41
0.60999997
100
AcDbText
  0
TEXT
  5
3B2
330
36
100
AcDbEntity
  8
0
  6
Continuous
 62
     7
100
AcDbText
 10
369.39504
 20
656.58186
 30
0.0
 40
3.2
  1
左右勝手
 41
0.60999998
100
AcDbText
  0
TEXT
  5
3B3
330
36
100
AcDbEntity
  8
0
  6
Continuous
 62
     7
100
AcDbText
 10
388.19503
 20
694.9818799999999
 30
0.0
 40
3.2
  1
用心鎖
 41
0.7499999600000001
100
AcDbText
  0
TEXT
  5
3B4
330
36
100
AcDbEntity
  8
0
  6
Continuous
 62
     7
100
AcDbText
 10
388.19504
 20
686.9818799999999
 30
0.0
 40
3.2
  1
ＤＬ－６７－１
 41
0.75000003
100
AcDbText
  0
TEXT
  5
3B5
330
36
100
AcDbEntity
  8
0
  6
Continuous
 62
     7
100
AcDbText
 10
388.19503
 20
678.9818799999999
 30
0.0
 40
3.2
  1
ステンレス
 41
0.74999999
100
AcDbText
  0
TEXT
  5
3B6
330
36
100
AcDbEntity
  8
0
  6
Continuous
 62
     7
100
AcDbText
 10
388.19503
 20
670.9818799999999
 30
0.0
 40
3.2
  1
ホーニング電解
 41
0.75
100
AcDbText
  0
TEXT
  5
3B7
330
36
100
AcDbEntity
  8
0
  6
Continuous
 62
     7
100
AcDbText
 10
388.19504
 20
654.9818799999999
 30
0.0
 40
3.2
  1
無し
 41
0.74999999
100
AcDbText
  0
TEXT
  5
3B8
330
36
100
AcDbEntity
  8
0
  6
Continuous
 62
     7
100
AcDbText
 10
388.19502
 20
646.9818799999999
 30
0.0
 40
3.2
  1
Ｍ５×８　トラス小ネジ＋ＳＵＳ　８本付
 41
0.73075479
100
AcDbText
  0
TEXT
  5
3B9
330
36
100
AcDbEntity
  8
0
  6
Continuous
 62
     3
100
AcDbText
 10
769.35785
 20
375.67917
 30
0.0
 40
3.2
  1
1.5
 41
1.6
100
AcDbText
  0
TEXT
  5
3BA
330
36
100
AcDbEntity
  8
0
  6
Continuous
 62
     3
100
AcDbText
 10
718.1991599999999
 20
375.75101
 30
0.0
 40
3.2
  1
４－%%C５．５
 41
0.8685120600000001
100
AcDbText
  0
INSERT
  5
3BB
330
36
100
AcDbEntity
  8
0
  6
Continuous
 62
     7
100
AcDbBlockReference
  2
KOZU0001
 10
644.13776
 20
534.4082599999999
 30
0.0
  0
INSERT
  5
3BC
330
36
100
AcDbEntity
  8
0
  6
Continuous
 62
     7
100
AcDbBlockReference
  2
KOZU0002
 10
644.13776
 20
504.40826
 30
0.0
  0
INSERT
  5
3BD
330
36
100
AcDbEntity
  8
0
  6
Continuous
 62
     7
100
AcDbBlockReference
  2
KOZU0003
 10
629.1377599999999
 20
524.4082599999999
 30
0.0
  0
INSERT
  5
3BE
330
36
100
AcDbEntity
  8
0
  6
Continuous
 62
     7
100
AcDbBlockReference
  2
KOZU0004
 10
629.1377599999999
 20
504.40826
 30
0.0
  0
INSERT
  5
3BF
330
36
100
AcDbEntity
  8
0
  6
Continuous
 62
     7
100
AcDbBlockReference
  2
KOZU0005
 10
629.1377599999999
 20
534.4082599999999
 30
0.0
  0
INSERT
  5
3C0
330
36
100
AcDbEntity
  8
0
  6
Continuous
 62
     7
100
AcDbBlockReference
  2
KOZU0006
 10
629.1377599999999
 20
524.4082599999999
 30
0.0
  0
INSERT
  5
3C1
330
36
100
AcDbEntity
  8
0
  6
Continuous
 62
     7
100
AcDbBlockReference
  2
KOZU0007
 10
455.63773
 20
447.7554599999999
 30
0.0
  0
INSERT
  5
3C2
330
36
100
AcDbEntity
  8
0
  6
Continuous
 62
     7
100
AcDbBlockReference
  2
KOZU0008
 10
613.6377599999999
 20
447.7554599999999
 30
0.0
  0
INSERT
  5
3C3
330
36
100
AcDbEntity
  8
0
  6
Continuous
 62
     7
100
AcDbBlockReference
  2
KOZU0009
 10
608.1377599999999
 20
437.7554599999999
 30
0.0
  0
INSERT
  5
3C4
330
36
100
AcDbEntity
  8
0
  6
Continuous
 62
     7
100
AcDbBlockReference
  2
KOZU0010
 10
613.6377599999999
 20
437.7554599999999
 30
0.0
  0
INSERT
  5
3C5
330
36
100
AcDbEntity
  8
0
  6
Continuous
 62
     7
100
AcDbBlockReference
  2
KOZU0011
 10
583.1377599999999
 20
427.75546
 30
0.0
  0
INSERT
  5
3C6
330
36
100
AcDbEntity
  8
0
  6
Continuous
 62
     7
100
AcDbBlockReference
  2
KOZU0012
 10
613.6377599999999
 20
427.75546
 30
0.0
  0
INSERT
  5
3C7
330
36
100
AcDbEntity
  8
0
  6
Continuous
 62
     7
100
AcDbBlockReference
  2
KOZU0013
 10
461.1377599999999
 20
437.7554599999999
 30
0.0
  0
INSERT
  5
3C8
330
36
100
AcDbEntity
  8
0
  6
Continuous
 62
     7
100
AcDbBlockReference
  2
KOZU0014
 10
608.1377599999999
 20
437.7554599999999
 30
0.0
  0
INSERT
  5
3C9
330
36
100
AcDbEntity
  8
0
  6
Continuous
 62
     7
100
AcDbBlockReference
  2
KOZU0015
 10
486.13773
 20
427.75546
 30
0.0
  0
INSERT
  5
3CA
330
36
100
AcDbEntity
  8
0
  6
Continuous
 62
     7
100
AcDbBlockReference
  2
KOZU0016
 10
583.1377599999999
 20
427.75546
 30
0.0
  0
INSERT
  5
3CB
330
36
100
AcDbEntity
  8
0
  6
Continuous
 62
     7
100
AcDbBlockReference
  2
KOZU0017
 10
455.63773
 20
427.75546
 30
0.0
  0
INSERT
  5
3CC
330
36
100
AcDbEntity
  8
0
  6
Continuous
 62
     7
100
AcDbBlockReference
  2
KOZU0018
 10
486.13773
 20
427.75546
 30
0.0
  0
INSERT
  5
3CD
330
36
100
AcDbEntity
  8
0
  6
Continuous
 62
     7
100
AcDbBlockReference
  2
KOZU0019
 10
455.63773
 20
437.7554599999999
 30
0.0
  0
INSERT
  5
3CE
330
36
100
AcDbEntity
  8
0
  6
Continuous
 62
     7
100
AcDbBlockReference
  2
KOZU0020
 10
461.1377599999999
 20
437.7554599999999
 30
0.0
  0
INSERT
  5
3CF
330
36
100
AcDbEntity
  8
0
  6
Continuous
 62
     7
100
AcDbBlockReference
  2
KOZU0021
 10
759.5382099999999
 20
514.1792
 30
0.0
  0
INSERT
  5
3D0
330
36
100
AcDbEntity
  8
0
  6
Continuous
 62
     7
100
AcDbBlockReference
  2
KOZU0022
 10
768.5382099999999
 20
514.1792
 30
0.0
  0
INSERT
  5
3D1
330
36
100
AcDbEntity
  8
0
  6
Continuous
 62
     7
100
AcDbBlockReference
  2
KOZU0023
 10
762.0382099999999
 20
499.17917
 30
0.0
  0
INSERT
  5
3D2
330
36
100
AcDbEntity
  8
0
  6
Continuous
 62
     7
100
AcDbBlockReference
  2
KOZU0024
 10
759.5382099999999
 20
499.17917
 30
0.0
  0
INSERT
  5
3D3
330
36
100
AcDbEntity
  8
0
  6
Continuous
 62
     7
100
AcDbBlockReference
  2
KOZU0025
 10
737.1999499999999
 20
485.1791699999999
 30
0.0
  0
INSERT
  5
3D4
330
36
100
AcDbEntity
  8
0
  6
Continuous
 62
     7
100
AcDbBlockReference
  2
KOZU0026
 10
737.1999499999999
 20
389.17917
 30
0.0
  0
INSERT
  5
3D5
330
36
100
AcDbEntity
  8
0
  6
Continuous
 62
     7
100
AcDbBlockReference
  2
KOZU0027
 10
722.1999499999999
 20
462.17917
 30
0.0
  0
INSERT
  5
3D6
330
36
100
AcDbEntity
  8
0
  6
Continuous
 62
     7
100
AcDbBlockReference
  2
KOZU0028
 10
722.1999499999999
 20
447.1791699999999
 30
0.0
  0
INSERT
  5
3D7
330
36
100
AcDbEntity
  8
0
  6
Continuous
 62
     7
100
AcDbBlockReference
  2
KOZU0029
 10
639.1377599999999
 20
417.75546
 30
0.0
  0
INSERT
  5
3D8
330
36
100
AcDbEntity
  8
0
  6
Continuous
 62
     7
100
AcDbBlockReference
  2
KOZU0030
 10
639.1377599999999
 20
391.75546
 30
0.0
  0
INSERT
  5
3D9
330
36
100
AcDbEntity
  8
0
  6
Continuous
 62
     7
100
AcDbBlockReference
  2
KOZU0031
 10
629.1377599999999
 20
411.75546
 30
0.0
  0
INSERT
  5
3DA
330
36
100
AcDbEntity
  8
0
  6
Continuous
 62
     7
100
AcDbBlockReference
  2
KOZU0032
 10
629.1377599999999
 20
397.75546
 30
0.0
  0
INSERT
  5
3DB
330
36
100
AcDbEntity
  8
0
  6
Continuous
 62
     7
100
AcDbBlockReference
  2
KOZU0033
 10
629.1377599999999
 20
417.75546
 30
0.0
  0
INSERT
  5
3DC
330
36
100
AcDbEntity
  8
0
  6
Continuous
 62
     7
100
AcDbBlockReference
  2
KOZU0034
 10
629.1377599999999
 20
411.75546
 30
0.0
  0
INSERT
  5
3DD
330
36
100
AcDbEntity
  8
0
  6
Continuous
 62
     7
100
AcDbBlockReference
  2
KOZU0035
 10
629.1377599999999
 20
397.75546
 30
0.0
  0
INSERT
  5
3DE
330
36
100
AcDbEntity
  8
0
  6
Continuous
 62
     7
100
AcDbBlockReference
  2
KOZU0036
 10
629.1377599999999
 20
391.75546
 30
0.0
  0
INSERT
  5
3DF
330
36
100
AcDbEntity
  8
0
  6
Continuous
 62
     7
100
AcDbBlockReference
  2
KOZU0037
 10
722.1999499999999
 20
411.17917
 30
0.0
  0
INSERT
  5
3E0
330
36
100
AcDbEntity
  8
0
  6
Continuous
 62
     7
100
AcDbBlockReference
  2
KOZU0038
 10
722.1999499999999
 20
396.17917
 30
0.0
  0
INSERT
  5
3E1
330
36
100
AcDbEntity
  8
0
  6
Continuous
 62
     7
100
AcDbBlockReference
  2
KOZU0039
 10
722.1999499999999
 20
447.1791699999999
 30
0.0
  0
INSERT
  5
3E2
330
36
100
AcDbEntity
  8
0
  6
Continuous
 62
     7
100
AcDbBlockReference
  2
KOZU0040
 10
722.1999499999999
 20
411.17917
 30
0.0
  0
INSERT
  5
3E3
330
36
100
AcDbEntity
  8
0
  6
Continuous
 62
     7
100
AcDbBlockReference
  2
KOZU0041
 10
722.1999499999999
 20
396.17917
 30
0.0
  0
INSERT
  5
3E4
330
36
100
AcDbEntity
  8
0
  6
Continuous
 62
     7
100
AcDbBlockReference
  2
KOZU0042
 10
722.1999499999999
 20
389.17917
 30
0.0
  0
INSERT
  5
3E5
330
36
100
AcDbEntity
  8
0
  6
Continuous
 62
     7
100
AcDbBlockReference
  2
KOZU0043
 10
692.9499499999999
 20
514.1792
 30
0.0
  0
INSERT
  5
3E6
330
36
100
AcDbEntity
  8
0
  6
Continuous
 62
     7
100
AcDbBlockReference
  2
KOZU0044
 10
707.4499499999999
 20
514.1792
 30
0.0
  0
INSERT
  5
3E7
330
36
100
AcDbEntity
  8
0
  6
Continuous
 62
     7
100
AcDbBlockReference
  2
KOZU0045
 10
722.1999499999999
 20
485.1791699999999
 30
0.0
  0
INSERT
  5
3E8
330
36
100
AcDbEntity
  8
0
  6
Continuous
 62
     7
100
AcDbBlockReference
  2
KOZU0046
 10
722.1999499999999
 20
462.17917
 30
0.0
  0
INSERT
  5
3E9
330
36
100
AcDbEntity
  8
0
  6
Continuous
 62
     7
100
AcDbBlockReference
  2
KOZU0047
 10
762.0382099999999
 20
499.17917
 30
0.0
  0
INSERT
  5
3EA
330
36
100
AcDbEntity
  8
0
  6
Continuous
 62
     7
100
AcDbBlockReference
  2
KOZU0048
 10
768.5382099999999
 20
499.17917
 30
0.0
  0
INSERT
  5
3EB
330
36
100
AcDbEntity
  8
0
  6
Continuous
 62
     7
100
AcDbBlockReference
  2
KOZU0049
 10
459.62335
 20
399.8689
 30
0.0
  0
INSERT
  5
3EC
330
36
100
AcDbEntity
  8
0
  6
Continuous
 62
     7
100
AcDbBlockReference
  2
KOZU0050
 10
462.65213
 20
395.64203
 30
0.0
  0
INSERT
  5
3ED
330
36
100
AcDbEntity
  8
0
  6
Continuous
 62
     7
100
AcDbBlockReference
  2
KOZU0051
 10
767.0382099999999
 20
374.17917
 30
0.0
  0
INSERT
  5
3EE
330
36
100
AcDbEntity
  8
0
  6
Continuous
 62
     7
100
AcDbBlockReference
  2
KOZU0052
 10
768.5382099999999
 20
374.17917
 30
0.0
  0
INSERT
  5
3EF
330
36
100
AcDbEntity
  8
0
  6
Continuous
 62
     7
100
AcDbBlockReference
  2
KOZU0053
 10
698.3609
 20
398.22379
 30
0.0
  0
INSERT
  5
3F0
330
36
100
AcDbEntity
  8
0
  6
Continuous
 62
     7
100
AcDbBlockReference
  2
KOZU0054
 10
702.0389999999999
 20
394.13458
 30
0.0
  0
ENDSEC
  0
SECTION
  2
OBJECTS
  0
DICTIONARY
  5
C
330
0
100
AcDbDictionary
281
     1
  3
ACAD_COLOR
350
2F
  3
ACAD_GROUP
350
D
  3
ACAD_LAYOUT
350
2E
  3
ACAD_MATERIAL
350
10
  3
ACAD_MLINESTYLE
350
2B
  3
ACAD_PLOTSETTINGS
350
2D
  3
ACAD_PLOTSTYLENAME
350
E
  3
ACAD_TABLESTYLE
350
30
  3
ACAD_VISUALSTYLE
350
14
  3
AcDbVariableDictionary
350
495
  3
AcmDictionary
350
44C
  3
AMG
350
3F3
  3
AMGSNAPSETTINGS
350
48D
  3
DWGPROPS
350
4B6
  0
DICTIONARY
  5
2F
102
{ACAD_REACTORS
330
C
102
}
330
C
100
AcDbDictionary
281
     1
  0
DICTIONARY
  5
D
102
{ACAD_REACTORS
330
C
102
}
330
C
100
AcDbDictionary
281
     1
  0
DICTIONARY
  5
2E
102
{ACAD_REACTORS
330
C
102
}
330
C
100
AcDbDictionary
281
     1
  3
Model
350
39
  3
レイアウト1
350
35
  0
DICTIONARY
  5
10
102
{ACAD_REACTORS
330
C
102
}
330
C
100
AcDbDictionary
281
     1
  3
ByBlock
350
12
  3
ByLayer
350
11
  3
Global
350
13
  0
DICTIONARY
  5
2B
102
{ACAD_REACTORS
330
C
102
}
330
C
100
AcDbDictionary
281
     1
  3
Standard
350
2C
  0
DICTIONARY
  5
2D
102
{ACAD_REACTORS
330
C
102
}
330
C
100
AcDbDictionary
281
     1
  0
ACDBDICTIONARYWDFLT
  5
E
102
{ACAD_REACTORS
330
C
102
}
330
C
100
AcDbDictionary
281
     1
  3
Normal
350
F
100
AcDbDictionaryWithDefault
340
F
  0
DICTIONARY
  5
30
102
{ACAD_REACTORS
330
C
102
}
330
C
100
AcDbDictionary
281
     1
  3
Standard
350
31
  0
DICTIONARY
  5
14
102
{ACAD_REACTORS
330
C
102
}
330
C
100
AcDbDictionary
281
     1
  3
2dWireframe
350
1A
  3
3D Hidden
350
1C
  3
3dWireframe
350
1B
  3
Basic
350
19
  3
Brighten
350
20
  3
ColorChange
350
24
  3
Conceptual
350
1D
  3
Dim
350
1F
  3
Facepattern
350
23
  3
Flat
350
15
  3
FlatWithEdges
350
16
  3
Gouraud
350
17
  3
GouraudWithEdges
350
18
  3
Linepattern
350
22
  3
Realistic
350
1E
  3
Thicken
350
21
  0
DICTIONARY
  5
495
102
{ACAD_REACTORS
330
C
102
}
330
C
100
AcDbDictionary
281
     1
  3
CTABLESTYLE
350
496
  3
DIMASSOC
350
4B5
  3
INDEXCTL
350
4B4
  3
SORTENTS
350
4B3
  0
DICTIONARY
  5
44C
102
{ACAD_REACTORS
330
C
102
}
330
C
100
AcDbDictionary
281
     1
  3
AcmStdDictionary
350
457
  3
AMDTSECTSYM_ARROWCOLOR
350
478
  0
DICTIONARY
  5
3F3
102
{ACAD_REACTORS
330
C
102
}
330
C
100
AcDbDictionary
281
     1
  0
DICTIONARY
  5
48D
102
{ACAD_REACTORS
330
C
102
}
330
C
100
AcDbDictionary
281
     1
  0
XRECORD
  5
4B6
102
{ACAD_REACTORS
330
C
102
}
330
C
100
AcDbXrecord
280
     1
  1
DWGPROPS COOKIE
  2

  3

  4

  6

  7

  8
Administrator
  9

300
=
301
=
302
=
303
=
304
=
305
=
306
=
307
=
308
=
309
=
 40
0.0030416319444444
 41
2454489.415293507
 42
2456358.74876338
  1

 90
        0
  0
LAYOUT
  5
39
102
{ACAD_XDICTIONARY
360
4C1
102
}
102
{ACAD_REACTORS
330
2E
102
}
330
2E
100
AcDbPlotSettings
  1

  2
DocuCentre-II C5400
  4

  6

 40
0.0
 41
0.0
 42
0.0
 43
0.0
 44
0.0
 45
0.0
 46
0.0
 47
0.0
 48
0.0
 49
0.0
140
0.0
141
0.0
142
1.0
143
1.0
 70
  1712
 72
     0
 73
     0
 74
     0
  7

 75
     0
147
1.0
148
0.0
149
0.0
100
AcDbLayout
  1
Model
 70
     1
 71
     0
 10
0.0
 20
0.0
 11
12.0
 21
9.0
 12
0.0
 22
0.0
 32
0.0
 14
0.0
 24
0.0
 34
0.0
 15
0.0
 25
0.0
 35
0.0
146
0.0
 13
0.0
 23
0.0
 33
0.0
 16
1.0
 26
0.0
 36
0.0
 17
0.0
 27
1.0
 37
0.0
 76
     0
330
36
331
41
  0
LAYOUT
  5
35
102
{ACAD_XDICTIONARY
360
4BF
102
}
102
{ACAD_REACTORS
330
2E
102
}
330
2E
100
AcDbPlotSettings
  1

  2
DocuCentre-II C5400
  4

  6

 40
0.0
 41
0.0
 42
0.0
 43
0.0
 44
0.0
 45
0.0
 46
0.0
 47
0.0
 48
0.0
 49
0.0
140
0.0
141
0.0
142
1.0
143
1.0
 70
   688
 72
     0
 73
     0
 74
     5
  7

 75
    16
147
1.0
148
0.0
149
0.0
100
AcDbLayout
  1
レイアウト1
 70
     1
 71
     1
 10
345.26654
 20
293.3318799999999
 11
939.26654
 21
713.3318799999999
 12
0.0
 22
0.0
 32
0.0
 14
1.000000000000000E+20
 24
1.000000000000000E+20
 34
1.000000000000000E+20
 15
-1.000000000000000E+20
 25
-1.000000000000000E+20
 35
-1.000000000000000E+20
146
0.0
 13
0.0
 23
0.0
 33
0.0
 16
1.0
 26
0.0
 36
0.0
 17
0.0
 27
1.0
 37
0.0
 76
     0
330
32
  0
MATERIAL
  5
12
102
{ACAD_XDICTIONARY
360
4B9
102
}
102
{ACAD_REACTORS
330
10
102
}
330
10
100
AcDbMaterial
  1
ByBlock
  0
MATERIAL
  5
11
102
{ACAD_XDICTIONARY
360
4B7
102
}
102
{ACAD_REACTORS
330
10
102
}
330
10
100
AcDbMaterial
  1
ByLayer
  0
MATERIAL
  5
13
102
{ACAD_XDICTIONARY
360
4BB
102
}
102
{ACAD_REACTORS
330
10
102
}
330
10
100
AcDbMaterial
  1
Global
  0
MLINESTYLE
  5
2C
102
{ACAD_REACTORS
330
2B
102
}
330
2B
100
AcDbMlineStyle
  2
STANDARD
 70
     0
  3

 62
   256
 51
90.0
 52
90.0
 71
     2
 49
0.5
 62
   256
  6
BYLAYER
 49
-0.5
 62
   256
  6
BYLAYER
  0
ACDBPLACEHOLDER
  5
F
102
{ACAD_REACTORS
330
E
102
}
330
E
  0
TABLESTYLE
  5
31
102
{ACAD_XDICTIONARY
360
4BD
102
}
102
{ACAD_REACTORS
330
30
102
}
330
30
100
AcDbTableStyle
  3
Standard
 70
     0
 71
     0
 40
0.06
 41
0.06
280
     0
281
     0
  7
STANDARD
140
0.18
170
     2
 62
     0
 63
     7
283
     0
274
    -2
284
     1
 64
     0
275
    -2
285
     1
 65
     0
276
    -2
286
     1
 66
     0
277
    -2
287
     1
 67
     0
278
    -2
288
     1
 68
     0
279
    -2
289
     1
 69
     0
  7
STANDARD
140
0.25
170
     5
 62
     0
 63
     7
283
     0
274
    -2
284
     1
 64
     0
275
    -2
285
     1
 65
     0
276
    -2
286
     1
 66
     0
277
    -2
287
     1
 67
     0
278
    -2
288
     1
 68
     0
279
    -2
289
     1
 69
     0
  7
STANDARD
140
0.18
170
     5
 62
     0
 63
     7
283
     0
274
    -2
284
     1
 64
     0
275
    -2
285
     1
 65
     0
276
    -2
286
     1
 66
     0
277
    -2
287
     1
 67
     0
278
    -2
288
     1
 68
     0
279
    -2
289
     1
 69
     0
  0
VISUALSTYLE
  5
1A
102
{ACAD_REACTORS
330
14
102
}
330
14
100
AcDbVisualStyle
  2
2dWireframe
 70
     4
 71
     0
 72
     2
 73
     0
 90
        0
 40
-0.6
 41
-30.0
 62
     5
 63
     7
 74
     1
 91
        4
 64
     7
 65
   257
 75
     1
175
     1
 42
1.0
 92
        0
 66
   257
 43
1.0
 76
     1
 77
     6
 78
     2
 67
     7
 79
     5
170
     0
171
     0
290
     0
174
     0
 93
        1
 44
0.0
173
     0
291
     0
 45
0.0
1001
ACAD
1000
AcDbSavedByObjectVersion
1070
     0
  0
VISUALSTYLE
  5
1C
102
{ACAD_REACTORS
330
14
102
}
330
14
100
AcDbVisualStyle
  2
3D Hidden
 70
     6
 71
     1
 72
     2
 73
     2
 90
        0
 40
-0.6
 41
-30.0
 62
     5
 63
     7
 74
     2
 91
        2
 64
     7
 65
   257
 75
     2
175
     1
 42
40.0
 92
        0
 66
   257
 43
1.0
 76
     1
 77
     6
 78
     2
 67
     7
 79
     3
170
     0
171
     0
290
     0
174
     0
 93
        1
 44
0.0
173
     0
291
     0
 45
0.0
1001
ACAD
1000
AcDbSavedByObjectVersion
1070
     0
  0
VISUALSTYLE
  5
1B
102
{ACAD_REACTORS
330
14
102
}
330
14
100
AcDbVisualStyle
  2
3dWireframe
 70
     5
 71
     0
 72
     2
 73
     0
 90
        0
 40
-0.6
 41
-30.0
 62
     5
 63
     7
 74
     1
 91
        4
 64
     7
 65
   257
 75
     1
175
     1
 42
1.0
 92
        0
 66
   257
 43
1.0
 76
     1
 77
     6
 78
     2
 67
     7
 79
     5
170
     0
171
     0
290
     0
174
     0
 93
        1
 44
0.0
173
     0
291
     0
 45
0.0
1001
ACAD
1000
AcDbSavedByObjectVersion
1070
     0
  0
VISUALSTYLE
  5
19
102
{ACAD_REACTORS
330
14
102
}
330
14
100
AcDbVisualStyle
  2
Basic
 70
     7
 71
     1
 72
     0
 73
     1
 90
        0
 40
-0.6
 41
-30.0
 62
     5
 63
     7
 74
     0
 91
        4
 64
     7
 65
   257
 75
     1
175
     1
 42
1.0
 92
        8
 66
     7
 43
1.0
 76
     1
 77
     6
 78
     2
 67
     7
 79
     5
170
     0
171
     0
290
     0
174
     0
 93
        1
 44
0.0
173
     0
291
     1
 45
0.0
1001
ACAD
1000
AcDbSavedByObjectVersion
1070
     0
  0
VISUALSTYLE
  5
20
102
{ACAD_REACTORS
330
14
102
}
330
14
100
AcDbVisualStyle
  2
Brighten
 70
    12
 71
     2
 72
     2
 73
     0
 90
        0
 40
-0.6
 41
-30.0
 62
     5
 63
     7
 74
     1
 91
        4
 64
     7
 65
   257
 75
     1
175
     1
 42
1.0
 92
        8
 66
     7
 43
1.0
 76
     1
 77
     6
 78
     2
 67
     7
 79
     5
170
     0
171
     0
290
     0
174
     0
 93
        1
 44
50.0
173
     0
291
     1
 45
0.0
1001
ACAD
1000
AcDbSavedByObjectVersion
1070
     0
  0
VISUALSTYLE
  5
24
102
{ACAD_REACTORS
330
14
102
}
330
14
100
AcDbVisualStyle
  2
ColorChange
 70
    16
 71
     2
 72
     2
 73
     3
 90
        0
 40
-0.6
 41
-30.0
 62
     5
 63
     8
 74
     1
 91
        4
 64
     7
 65
   257
 75
     1
175
     1
 42
1.0
 92
        8
 66
     8
 43
1.0
 76
     1
 77
     6
 78
     2
 67
     7
 79
     5
170
     0
171
     0
290
     0
174
     0
 93
        1
 44
0.0
173
     0
291
     1
 45
0.0
1001
ACAD
1000
AcDbSavedByObjectVersion
1070
     0
  0
VISUALSTYLE
  5
1D
102
{ACAD_REACTORS
330
14
102
}
330
14
100
AcDbVisualStyle
  2
Conceptual
 70
     9
 71
     3
 72
     2
 73
     0
 90
        0
 40
-0.6
 41
-30.0
 62
     5
 63
     7
 74
     2
 91
        2
 64
     7
 65
   257
 75
     1
175
     1
 42
40.0
 92
        8
 66
     7
 43
1.0
 76
     1
 77
     6
 78
     2
 67
     7
 79
     3
170
     0
171
     0
290
     0
174
     0
 93
        1
 44
0.0
173
     0
291
     0
 45
0.0
1001
ACAD
1000
AcDbSavedByObjectVersion
1070
     0
  0
VISUALSTYLE
  5
1F
102
{ACAD_REACTORS
330
14
102
}
330
14
100
AcDbVisualStyle
  2
Dim
 70
    11
 71
     2
 72
     2
 73
     0
 90
        0
 40
-0.6
 41
-30.0
 62
     5
 63
     7
 74
     1
 91
        4
 64
     7
 65
   257
 75
     1
175
     1
 42
1.0
 92
        8
 66
     7
 43
1.0
 76
     1
 77
     6
 78
     2
 67
     7
 79
     5
170
     0
171
     0
290
     0
174
     0
 93
        1
 44
-50.0
173
     0
291
     1
 45
0.0
1001
ACAD
1000
AcDbSavedByObjectVersion
1070
     0
  0
VISUALSTYLE
  5
23
102
{ACAD_REACTORS
330
14
102
}
330
14
100
AcDbVisualStyle
  2
Facepattern
 70
    15
 71
     2
 72
     2
 73
     0
 90
        0
 40
-0.6
 41
-30.0
 62
     5
 63
     7
 74
     1
 91
        4
 64
     7
 65
   257
 75
     1
175
     1
 42
1.0
 92
        8
 66
     7
 43
1.0
 76
     1
 77
     6
 78
     2
 67
     7
 79
     5
170
     0
171
     0
290
     0
174
     0
 93
        1
 44
0.0
173
     0
291
     1
 45
0.0
1001
ACAD
1000
AcDbSavedByObjectVersion
1070
     0
  0
VISUALSTYLE
  5
15
102
{ACAD_REACTORS
330
14
102
}
330
14
100
AcDbVisualStyle
  2
Flat
 70
     0
 71
     2
 72
     1
 73
     1
 90
        2
 40
-0.6
 41
30.0
 62
     5
 63
     7
 74
     0
 91
        4
 64
     7
 65
   257
 75
     1
175
     1
 42
1.0
 92
        8
 66
     7
 43
1.0
 76
     1
 77
     6
 78
     2
 67
     7
 79
     5
170
     0
171
     0
290
     0
174
     0
 93
       13
 44
0.0
173
     0
291
     1
 45
0.0
1001
ACAD
1000
AcDbSavedByObjectVersion
1070
     0
  0
VISUALSTYLE
  5
16
102
{ACAD_REACTORS
330
14
102
}
330
14
100
AcDbVisualStyle
  2
FlatWithEdges
 70
     1
 71
     2
 72
     1
 73
     1
 90
        2
 40
-0.6
 41
30.0
 62
     5
 63
     7
 74
     1
 91
        4
 64
     7
 65
   257
 75
     1
175
     1
 42
1.0
 92
        0
 66
   257
 43
1.0
 76
     1
 77
     6
 78
     2
 67
     7
 79
     5
170
     0
171
     0
290
     0
174
     0
 93
       13
 44
0.0
173
     0
291
     1
 45
0.0
1001
ACAD
1000
AcDbSavedByObjectVersion
1070
     0
  0
VISUALSTYLE
  5
17
102
{ACAD_REACTORS
330
14
102
}
330
14
100
AcDbVisualStyle
  2
Gouraud
 70
     2
 71
     2
 72
     2
 73
     1
 90
        2
 40
-0.6
 41
30.0
 62
     5
 63
     7
 74
     0
 91
        4
 64
     7
 65
   257
 75
     1
175
     1
 42
1.0
 92
        0
 66
     7
 43
1.0
 76
     1
 77
     6
 78
     2
 67
     7
 79
     5
170
     0
171
     0
290
     0
174
     0
 93
       13
 44
0.0
173
     0
291
     1
 45
0.0
1001
ACAD
1000
AcDbSavedByObjectVersion
1070
     0
  0
VISUALSTYLE
  5
18
102
{ACAD_REACTORS
330
14
102
}
330
14
100
AcDbVisualStyle
  2
GouraudWithEdges
 70
     3
 71
     2
 72
     2
 73
     1
 90
        2
 40
-0.6
 41
30.0
 62
     5
 63
     7
 74
     1
 91
        4
 64
     7
 65
   257
 75
     1
175
     1
 42
1.0
 92
        0
 66
   257
 43
1.0
 76
     1
 77
     6
 78
     2
 67
     7
 79
     5
170
     0
171
     0
290
     0
174
     0
 93
       13
 44
0.0
173
     0
291
     1
 45
0.0
1001
ACAD
1000
AcDbSavedByObjectVersion
1070
     0
  0
VISUALSTYLE
  5
22
102
{ACAD_REACTORS
330
14
102
}
330
14
100
AcDbVisualStyle
  2
Linepattern
 70
    14
 71
     2
 72
     2
 73
     0
 90
        0
 40
-0.6
 41
-30.0
 62
     5
 63
     7
 74
     1
 91
        4
 64
     7
 65
   257
 75
     7
175
     7
 42
1.0
 92
        8
 66
     7
 43
1.0
 76
     1
 77
     6
 78
     2
 67
     7
 79
     5
170
     0
171
     0
290
     0
174
     0
 93
        1
 44
0.0
173
     0
291
     1
 45
0.0
1001
ACAD
1000
AcDbSavedByObjectVersion
1070
     0
  0
VISUALSTYLE
  5
1E
102
{ACAD_REACTORS
330
14
102
}
330
14
100
AcDbVisualStyle
  2
Realistic
 70
     8
 71
     2
 72
     2
 73
     0
 90
        0
 40
-0.6
 41
-30.0
 62
     5
 63
     7
 74
     1
 91
        0
 64
     7
 65
   257
 75
     1
175
     1
 42
1.0
 92
        8
 66
     8
 43
1.0
 76
     1
 77
     6
 78
     2
 67
     7
 79
     5
170
     0
171
     0
290
     0
174
     0
 93
       13
 44
0.0
173
     0
291
     0
 45
0.0
1001
ACAD
1000
AcDbSavedByObjectVersion
1070
     0
  0
VISUALSTYLE
  5
21
102
{ACAD_REACTORS
330
14
102
}
330
14
100
AcDbVisualStyle
  2
Thicken
 70
    13
 71
     2
 72
     2
 73
     0
 90
        0
 40
-0.6
 41
-30.0
 62
     5
 63
     7
 74
     1
 91
        4
 64
     7
 65
   257
 75
     1
175
     1
 42
1.0
 92
       12
 66
     7
 43
1.0
 76
     1
 77
     6
 78
     2
 67
     7
 79
     5
170
     0
171
     0
290
     0
174
     0
 93
        1
 44
0.0
173
     0
291
     1
 45
0.0
1001
ACAD
1000
AcDbSavedByObjectVersion
1070
     0
  0
DICTIONARYVAR
  5
496
102
{ACAD_REACTORS
330
495
102
}
330
495
100
DictionaryVariables
280
     0
  1
STANDARD
  0
DICTIONARYVAR
  5
4B5
102
{ACAD_REACTORS
330
495
102
}
330
495
100
DictionaryVariables
280
     0
  1
1
  0
DICTIONARYVAR
  5
4B4
102
{ACAD_REACTORS
330
495
102
}
330
495
100
DictionaryVariables
280
     0
  1
0
  0
DICTIONARYVAR
  5
4B3
102
{ACAD_REACTORS
330
495
102
}
330
495
100
DictionaryVariables
280
     0
  1
127
  0
DICTIONARY
  5
457
102
{ACAD_REACTORS
330
44C
102
}
330
44C
100
AcDbDictionary
281
     1
  0
XRECORD
  5
478
102
{ACAD_REACTORS
330
44C
102
}
330
44C
100
AcDbXrecord
280
     1
 90
-1023410169
  0
DICTIONARY
  5
4C1
330
39
100
AcDbDictionary
280
     1
281
     1
  3
ACAD_XREC_ROUNDTRIP
360
4C2
  0
DICTIONARY
  5
4BF
330
35
100
AcDbDictionary
280
     1
281
     1
  3
ACAD_XREC_ROUNDTRIP
360
4C0
  0
DICTIONARY
  5
4B9
330
12
100
AcDbDictionary
280
     1
281
     1
  3
ACAD_XREC_ROUNDTRIP
360
4BA
  0
DICTIONARY
  5
4B7
330
11
100
AcDbDictionary
280
     1
281
     1
  3
ACAD_XREC_ROUNDTRIP
360
4B8
  0
DICTIONARY
  5
4BB
330
13
100
AcDbDictionary
280
     1
281
     1
  3
ACAD_XREC_ROUNDTRIP
360
4BC
  0
DICTIONARY
  5
4BD
330
31
100
AcDbDictionary
280
     1
281
     1
  3
ACAD_XREC_ROUNDTRIP
360
4BE
  0
XRECORD
  5
4C2
102
{ACAD_REACTORS
330
4C1
102
}
330
4C1
100
AcDbXrecord
280
     1
102
SHADEPLOT
 70
     0
102
SHADEPLOTRESLEVEL
 70
     2
102
SHADEPLOTCUSTOMDPI
 70
   300
  0
XRECORD
  5
4C0
102
{ACAD_REACTORS
330
4BF
102
}
330
4BF
100
AcDbXrecord
280
     1
102
SHADEPLOT
 70
     0
102
SHADEPLOTRESLEVEL
 70
     2
102
SHADEPLOTCUSTOMDPI
 70
   300
  0
XRECORD
  5
4BA
102
{ACAD_REACTORS
330
4B9
102
}
330
4B9
100
AcDbXrecord
280
     1
102
MATERIAL
148
0.0
149
0.0
149
0.0
 93
        0
 94
       63
282
     0
 72
     1
 77
     1
171
     1
175
     1
179
     1
273
     0
  0
XRECORD
  5
4B8
102
{ACAD_REACTORS
330
4B7
102
}
330
4B7
100
AcDbXrecord
280
     1
102
MATERIAL
148
0.0
149
0.0
149
0.0
 93
        0
 94
       63
282
     0
 72
     1
 77
     1
171
     1
175
     1
179
     1
273
     0
  0
XRECORD
  5
4BC
102
{ACAD_REACTORS
330
4BB
102
}
330
4BB
100
AcDbXrecord
280
     1
102
MATERIAL
148
0.0
149
0.0
149
0.0
 93
        0
 94
       63
282
     0
 72
     1
 77
     1
171
     1
175
     1
179
     1
273
     0
  0
XRECORD
  5
4BE
102
{ACAD_REACTORS
330
4BD
102
}
330
4BD
100
AcDbXrecord
280
     1
102
ACAD_ROUNDTRIP_PRE2007_TABLESTYLE
 90
      512
 91
        0
  1

 92
      512
 93
        0
  2

 94
      512
 95
        0
  3

  0
ENDSEC
  0
EOF
